  0
SECTION
  2
HEADER
  9
$ACADVER
  1
AC1032
  9
$ACADMAINTVER
 90
       55
  9
$DWGCODEPAGE
  3
ANSI_1251
  9
$LASTSAVEDBY
  1
sussie
  9
$REQUIREDVERSIONS
160
                 0
  9
$INSBASE
 10
0.0
 20
0.0
 30
0.0
  9
$EXTMIN
 10
-15.7642
 20
-13.43255
 30
0.0
  9
$EXTMAX
 10
14.72345
 20
19.15277
 30
0.0
  9
$LIMMIN
 10
0.0
 20
0.0
  9
$LIMMAX
 10
12.0
 20
9.0
  9
$ORTHOMODE
 70
     0
  9
$REGENMODE
 70
     1
  9
$FILLMODE
 70
     1
  9
$QTEXTMODE
 70
     0
  9
$MIRRTEXT
 70
     1
  9
$LTSCALE
 40
1.0
  9
$ATTMODE
 70
     1
  9
$TEXTSIZE
 40
0.2
  9
$TRACEWID
 40
0.05
  9
$TEXTSTYLE
  7
Standard
  9
$CLAYER
  8
0
  9
$CELTYPE
  6
ByLayer
  9
$CECOLOR
 62
   256
  9
$CELTSCALE
 40
1.0
  9
$DISPSILH
 70
     0
  9
$DIMSCALE
 40
1.0
  9
$DIMASZ
 40
0.18
  9
$DIMEXO
 40
0.0625
  9
$DIMDLI
 40
0.38
  9
$DIMRND
 40
0.0
  9
$DIMDLE
 40
0.0
  9
$DIMEXE
 40
0.18
  9
$DIMTP
 40
0.0
  9
$DIMTM
 40
0.0
  9
$DIMTXT
 40
0.18
  9
$DIMCEN
 40
0.09
  9
$DIMTSZ
 40
0.0
  9
$DIMTOL
 70
     0
  9
$DIMLIM
 70
     0
  9
$DIMTIH
 70
     1
  9
$DIMTOH
 70
     1
  9
$DIMSE1
 70
     0
  9
$DIMSE2
 70
     0
  9
$DIMTAD
 70
     0
  9
$DIMZIN
 70
     0
  9
$DIMBLK
  1

  9
$DIMASO
 70
     1
  9
$DIMSHO
 70
     1
  9
$DIMPOST
  1

  9
$DIMAPOST
  1

  9
$DIMALT
 70
     0
  9
$DIMALTD
 70
     2
  9
$DIMALTF
 40
25.4
  9
$DIMLFAC
 40
1.0
  9
$DIMTOFL
 70
     0
  9
$DIMTVP
 40
0.0
  9
$DIMTIX
 70
     0
  9
$DIMSOXD
 70
     0
  9
$DIMSAH
 70
     0
  9
$DIMBLK1
  1

  9
$DIMBLK2
  1

  9
$DIMSTYLE
  2
Standard
  9
$DIMCLRD
 70
     0
  9
$DIMCLRE
 70
     0
  9
$DIMCLRT
 70
     0
  9
$DIMTFAC
 40
1.0
  9
$DIMGAP
 40
0.09
  9
$DIMJUST
 70
     0
  9
$DIMSD1
 70
     0
  9
$DIMSD2
 70
     0
  9
$DIMTOLJ
 70
     1
  9
$DIMTZIN
 70
     0
  9
$DIMALTZ
 70
     0
  9
$DIMALTTZ
 70
     0
  9
$DIMUPT
 70
     0
  9
$DIMDEC
 70
     4
  9
$DIMTDEC
 70
     4
  9
$DIMALTU
 70
     2
  9
$DIMALTTD
 70
     2
  9
$DIMTXSTY
  7
Standard
  9
$DIMAUNIT
 70
     0
  9
$DIMADEC
 70
     0
  9
$DIMALTRND
 40
0.0
  9
$DIMAZIN
 70
     0
  9
$DIMDSEP
 70
    46
  9
$DIMATFIT
 70
     3
  9
$DIMFRAC
 70
     0
  9
$DIMLDRBLK
  1

  9
$DIMLUNIT
 70
     2
  9
$DIMLWD
 70
    -2
  9
$DIMLWE
 70
    -2
  9
$DIMTMOVE
 70
     0
  9
$DIMFXL
 40
1.0
  9
$DIMFXLON
 70
     0
  9
$DIMJOGANG
 40
0.7853981633974483
  9
$DIMTFILL
 70
     0
  9
$DIMTFILLCLR
 70
     0
  9
$DIMARCSYM
 70
     0
  9
$DIMLTYPE
  6

  9
$DIMLTEX1
  6

  9
$DIMLTEX2
  6

  9
$DIMTXTDIRECTION
 70
     0
  9
$LUNITS
 70
     2
  9
$LUPREC
 70
     4
  9
$SKETCHINC
 40
0.1
  9
$FILLETRAD
 40
0.0
  9
$AUNITS
 70
     0
  9
$AUPREC
 70
     0
  9
$MENU
  1
.
  9
$ELEVATION
 40
0.0
  9
$PELEVATION
 40
0.0
  9
$THICKNESS
 40
0.0
  9
$LIMCHECK
 70
     0
  9
$CHAMFERA
 40
0.0
  9
$CHAMFERB
 40
0.0
  9
$CHAMFERC
 40
0.0
  9
$CHAMFERD
 40
0.0
  9
$SKPOLY
 70
     0
  9
$TDCREATE
 40
2460756.689527176
  9
$TDUCREATE
 40
2460756.564527176
  9
$TDUPDATE
 40
2460756.689527396
  9
$TDUUPDATE
 40
2460756.564527396
  9
$TDINDWG
 40
0.0000000116
  9
$TDUSRTIMER
 40
0.0000000116
  9
$USRTIMER
 70
     1
  9
$ANGBASE
 50
0.0
  9
$ANGDIR
 70
     0
  9
$PDMODE
 70
     0
  9
$PDSIZE
 40
0.0
  9
$PLINEWID
 40
0.0
  9
$SPLFRAME
 70
     0
  9
$SPLINETYPE
 70
     6
  9
$SPLINESEGS
 70
     8
  9
$HANDSEED
  5
93
  9
$SURFTAB1
 70
     6
  9
$SURFTAB2
 70
     6
  9
$SURFTYPE
 70
     6
  9
$SURFU
 70
     6
  9
$SURFV
 70
     6
  9
$UCSBASE
  2

  9
$UCSNAME
  2

  9
$UCSORG
 10
0.0
 20
0.0
 30
0.0
  9
$UCSXDIR
 10
1.0
 20
0.0
 30
0.0
  9
$UCSYDIR
 10
0.0
 20
1.0
 30
0.0
  9
$UCSORTHOREF
  2

  9
$UCSORTHOVIEW
 70
     0
  9
$UCSORGTOP
 10
0.0
 20
0.0
 30
0.0
  9
$UCSORGBOTTOM
 10
0.0
 20
0.0
 30
0.0
  9
$UCSORGLEFT
 10
0.0
 20
0.0
 30
0.0
  9
$UCSORGRIGHT
 10
0.0
 20
0.0
 30
0.0
  9
$UCSORGFRONT
 10
0.0
 20
0.0
 30
0.0
  9
$UCSORGBACK
 10
0.0
 20
0.0
 30
0.0
  9
$PUCSBASE
  2

  9
$PUCSNAME
  2

  9
$PUCSORG
 10
0.0
 20
0.0
 30
0.0
  9
$PUCSXDIR
 10
1.0
 20
0.0
 30
0.0
  9
$PUCSYDIR
 10
0.0
 20
1.0
 30
0.0
  9
$PUCSORTHOREF
  2

  9
$PUCSORTHOVIEW
 70
     0
  9
$PUCSORGTOP
 10
0.0
 20
0.0
 30
0.0
  9
$PUCSORGBOTTOM
 10
0.0
 20
0.0
 30
0.0
  9
$PUCSORGLEFT
 10
0.0
 20
0.0
 30
0.0
  9
$PUCSORGRIGHT
 10
0.0
 20
0.0
 30
0.0
  9
$PUCSORGFRONT
 10
0.0
 20
0.0
 30
0.0
  9
$PUCSORGBACK
 10
0.0
 20
0.0
 30
0.0
  9
$USERI1
 70
     0
  9
$USERI2
 70
     0
  9
$USERI3
 70
     0
  9
$USERI4
 70
     0
  9
$USERI5
 70
     0
  9
$USERR1
 40
0.0
  9
$USERR2
 40
0.0
  9
$USERR3
 40
0.0
  9
$USERR4
 40
0.0
  9
$USERR5
 40
0.0
  9
$WORLDVIEW
 70
     1
  9
$SHADEDGE
 70
     3
  9
$SHADEDIF
 70
    70
  9
$TILEMODE
 70
     1
  9
$MAXACTVP
 70
    64
  9
$PINSBASE
 10
0.0
 20
0.0
 30
0.0
  9
$PLIMCHECK
 70
     0
  9
$PEXTMIN
 10
1.000000000000000E+20
 20
1.000000000000000E+20
 30
1.000000000000000E+20
  9
$PEXTMAX
 10
-1.000000000000000E+20
 20
-1.000000000000000E+20
 30
-1.000000000000000E+20
  9
$PLIMMIN
 10
0.0
 20
0.0
  9
$PLIMMAX
 10
12.0
 20
9.0
  9
$UNITMODE
 70
     0
  9
$VISRETAIN
 70
     1
  9
$PLINEGEN
 70
     0
  9
$PSLTSCALE
 70
     1
  9
$TREEDEPTH
 70
  3020
  9
$CMLSTYLE
  2
Standard
  9
$CMLJUST
 70
     0
  9
$CMLSCALE
 40
1.0
  9
$PROXYGRAPHICS
 70
     1
  9
$MEASUREMENT
 70
     0
  9
$CELWEIGHT
370
    -1
  9
$ENDCAPS
280
     0
  9
$JOINSTYLE
280
     0
  9
$LWDISPLAY
290
     0
  9
$INSUNITS
 70
     5
  9
$HYPERLINKBASE
  1

  9
$STYLESHEET
  1

  9
$XEDIT
290
     1
  9
$CEPSNTYPE
380
     0
  9
$PSTYLEMODE
290
     1
  9
$FINGERPRINTGUID
  2
{8adf68dd-309c-47fa-946d-77734000429f}
  9
$VERSIONGUID
  2
{FAEB1C32-E019-11D5-929B-00C0DF256EC4}
  9
$EXTNAMES
290
     1
  9
$PSVPSCALE
 40
0.0
  9
$OLESTARTUP
290
     0
  9
$SORTENTS
280
   127
  9
$INDEXCTL
280
     0
  9
$HIDETEXT
280
     1
  9
$XCLIPFRAME
280
     2
  9
$HALOGAP
280
     0
  9
$OBSCOLOR
 70
   257
  9
$OBSLTYPE
280
     0
  9
$INTERSECTIONDISPLAY
280
     0
  9
$INTERSECTIONCOLOR
 70
   257
  9
$DIMASSOC
280
     2
  9
$PROJECTNAME
  1

  9
$CAMERADISPLAY
290
     0
  9
$LENSLENGTH
 40
50.0
  9
$CAMERAHEIGHT
 40
0.0
  9
$STEPSPERSEC
 40
2.0
  9
$STEPSIZE
 40
6.0
  9
$3DDWFPREC
 40
2.0
  9
$PSOLWIDTH
 40
0.25
  9
$PSOLHEIGHT
 40
4.0
  9
$LOFTANG1
 40
1.570796326794897
  9
$LOFTANG2
 40
1.570796326794897
  9
$LOFTMAG1
 40
0.0
  9
$LOFTMAG2
 40
0.0
  9
$LOFTPARAM
 70
     7
  9
$LOFTNORMALS
280
     1
  9
$LATITUDE
 40
37.795
  9
$LONGITUDE
 40
-122.394
  9
$NORTHDIRECTION
 40
0.0
  9
$TIMEZONE
 70
 -8000
  9
$LIGHTGLYPHDISPLAY
280
     1
  9
$TILEMODELIGHTSYNCH
280
     1
  9
$CMATERIAL
347
44
  9
$SOLIDHIST
280
     0
  9
$SHOWHIST
280
     1
  9
$DWFFRAME
280
     2
  9
$DGNFRAME
280
     2
  9
$REALWORLDSCALE
290
     1
  9
$INTERFERECOLOR
 62
   256
  9
$CSHADOW
280
     0
  9
$SHADOWPLANELOCATION
 40
0.0
  0
ENDSEC
  0
SECTION
  2
CLASSES
  0
CLASS
  1
ACDBDICTIONARYWDFLT
  2
AcDbDictionaryWithDefault
  3
ObjectDBX Classes
 90
        0
 91
        3
280
     0
281
     0
  0
CLASS
  1
VISUALSTYLE
  2
AcDbVisualStyle
  3
ObjectDBX Classes
 90
     4095
 91
        3
280
     0
281
     0
  0
CLASS
  1
MATERIAL
  2
AcDbMaterial
  3
ObjectDBX Classes
 90
     1153
 91
        3
280
     0
281
     0
  0
CLASS
  1
SCALE
  2
AcDbScale
  3
ObjectDBX Classes
 90
     1153
 91
        3
280
     0
281
     0
  0
CLASS
  1
TABLESTYLE
  2
AcDbTableStyle
  3
ObjectDBX Classes
 90
     4095
 91
        3
280
     0
281
     0
  0
CLASS
  1
MLEADERSTYLE
  2
AcDbMLeaderStyle
  3
ACDB_MLEADERSTYLE_CLASS
 90
     4095
 91
        3
280
     0
281
     0
  0
CLASS
  1
SUN
  2
AcDbSun
  3
SCENEOE
 90
     1153
 91
        3
280
     0
281
     0
  0
CLASS
  1
DICTIONARYVAR
  2
AcDbDictionaryVar
  3
ObjectDBX Classes
 90
        0
 91
        3
280
     0
281
     0
  0
CLASS
  1
CELLSTYLEMAP
  2
AcDbCellStyleMap
  3
ObjectDBX Classes
 90
     1152
 91
        3
280
     0
281
     0
  0
ENDSEC
  0
SECTION
  2
TABLES
  0
TABLE
  2
VPORT
  5
8
330
0
100
AcDbSymbolTable
 70
     1
  0
VPORT
  5
29
330
8
100
AcDbSymbolTableRecord
100
AcDbViewportTableRecord
  2
*Active
 70
     0
 10
0.0
 20
0.0
 11
1.0
 21
1.0
 12
10.42990654205607
 22
4.5
 13
0.0
 23
0.0
 14
0.5
 24
0.5
 15
0.5
 25
0.5
 16
0.0
 26
0.0
 36
1.0
 17
0.0
 27
0.0
 37
0.0
 40
9.0
 41
1.972972972850329
 42
50.0
 43
0.0
 44
0.0
 50
0.0
 51
0.0
 71
     0
 72
   100
 73
     1
 74
     3
 75
     0
 76
     0
 77
     0
 78
     0
281
     0
 65
     1
110
0.0
120
0.0
130
0.0
111
1.0
121
0.0
131
0.0
112
0.0
122
1.0
132
0.0
 79
     0
146
0.0
348
2F
 60
     3
 61
     5
292
     1
282
     1
141
0.0
142
0.0
 63
   250
361
5D
  0
ENDTAB
  0
TABLE
  2
LTYPE
  5
5
330
0
100
AcDbSymbolTable
 70
     1
  0
LTYPE
  5
14
330
5
100
AcDbSymbolTableRecord
100
AcDbLinetypeTableRecord
  2
ByBlock
 70
     0
  3

 72
    65
 73
     0
 40
0.0
  0
LTYPE
  5
15
330
5
100
AcDbSymbolTableRecord
100
AcDbLinetypeTableRecord
  2
ByLayer
 70
     0
  3

 72
    65
 73
     0
 40
0.0
  0
LTYPE
  5
16
330
5
100
AcDbSymbolTableRecord
100
AcDbLinetypeTableRecord
  2
Continuous
 70
     0
  3
Solid line
 72
    65
 73
     0
 40
0.0
  0
ENDTAB
  0
TABLE
  2
LAYER
  5
2
330
0
100
AcDbSymbolTable
 70
     2
  0
LAYER
  5
10
330
2
100
AcDbSymbolTableRecord
100
AcDbLayerTableRecord
  2
0
 70
     0
 62
     7
  6
Continuous
370
    -3
390
F
347
46
348
0
  0
LAYER
  5
5F
330
2
100
AcDbSymbolTableRecord
100
AcDbLayerTableRecord
  2
layer 1
 70
     0
 62
     7
  6
Continuous
370
    -3
390
F
347
46
348
0
  0
ENDTAB
  0
TABLE
  2
STYLE
  5
3
330
0
100
AcDbSymbolTable
 70
     1
  0
STYLE
  5
11
330
3
100
AcDbSymbolTableRecord
100
AcDbTextStyleTableRecord
  2
Standard
 70
     0
 40
0.0
 41
1.0
 50
0.0
 71
     0
 42
0.2
  3
txt
  4

  0
ENDTAB
  0
TABLE
  2
VIEW
  5
6
330
0
100
AcDbSymbolTable
 70
     0
  0
ENDTAB
  0
TABLE
  2
UCS
  5
7
330
0
100
AcDbSymbolTable
 70
     0
  0
ENDTAB
  0
TABLE
  2
APPID
  5
9
330
0
100
AcDbSymbolTable
 70
     2
  0
APPID
  5
12
330
9
100
AcDbSymbolTableRecord
100
AcDbRegAppTableRecord
  2
ACAD
 70
     0
  0
APPID
  5
5E
330
9
100
AcDbSymbolTableRecord
100
AcDbRegAppTableRecord
  2
ODA
 70
     0
  0
ENDTAB
  0
TABLE
  2
DIMSTYLE
  5
A
330
0
100
AcDbSymbolTable
 70
     1
100
AcDbDimStyleTable
  0
DIMSTYLE
105
27
330
A
100
AcDbSymbolTableRecord
100
AcDbDimStyleTableRecord
  2
Standard
 70
     0
178
     0
340
11
  0
ENDTAB
  0
TABLE
  2
BLOCK_RECORD
  5
1
330
0
100
AcDbSymbolTable
 70
     1
  0
BLOCK_RECORD
  5
1F
330
1
100
AcDbSymbolTableRecord
100
AcDbBlockTableRecord
  2
*Model_Space
340
22
 70
     0
280
     1
281
     0
  0
BLOCK_RECORD
  5
1B
330
1
100
AcDbSymbolTableRecord
100
AcDbBlockTableRecord
  2
*Paper_Space
340
1E
 70
     0
280
     1
281
     0
  0
BLOCK_RECORD
  5
23
330
1
100
AcDbSymbolTableRecord
100
AcDbBlockTableRecord
  2
*Paper_Space0
340
26
 70
     0
280
     1
281
     0
  0
ENDTAB
  0
ENDSEC
  0
SECTION
  2
BLOCKS
  0
BLOCK
  5
20
330
1F
100
AcDbEntity
  8
0
100
AcDbBlockBegin
  2
*Model_Space
 70
     0
 10
0.0
 20
0.0
 30
0.0
  3
*Model_Space
  1

  0
ENDBLK
  5
21
330
1F
100
AcDbEntity
  8
0
100
AcDbBlockEnd
  0
BLOCK
  5
1C
330
1B
100
AcDbEntity
 67
     1
  8
0
100
AcDbBlockBegin
  2
*Paper_Space
 70
     0
 10
0.0
 20
0.0
 30
0.0
  3
*Paper_Space
  1

  0
ENDBLK
  5
1D
330
1B
100
AcDbEntity
 67
     1
  8
0
100
AcDbBlockEnd
  0
BLOCK
  5
24
330
23
100
AcDbEntity
  8
0
100
AcDbBlockBegin
  2
*Paper_Space0
 70
     0
 10
0.0
 20
0.0
 30
0.0
  3
*Paper_Space0
  1

  0
ENDBLK
  5
25
330
23
100
AcDbEntity
  8
0
100
AcDbBlockEnd
  0
ENDSEC
  0
SECTION
  2
ENTITIES
  0
SPLINE
  5
60
330
1F
100
AcDbEntity
  8
layer 1
 62
   250
370
    50
100
AcDbSpline
210
0.0
220
0.0
230
1.0
 70
    11
 71
     3
 72
   392
 73
   388
 74
     0
 42
0.0000000001
 43
0.0000000001
 40
0.0
 40
0.0
 40
0.0
 40
0.0
 40
0.0077519379844961
 40
0.0077519379844961
 40
0.0077519379844961
 40
0.0155038759689922
 40
0.0155038759689922
 40
0.0155038759689922
 40
0.0232558139534884
 40
0.0232558139534884
 40
0.0232558139534884
 40
0.0310077519379845
 40
0.0310077519379845
 40
0.0310077519379845
 40
0.0387596899224806
 40
0.0387596899224806
 40
0.0387596899224806
 40
0.0465116279069767
 40
0.0465116279069767
 40
0.0465116279069767
 40
0.0542635658914729
 40
0.0542635658914729
 40
0.0542635658914729
 40
0.062015503875969
 40
0.062015503875969
 40
0.062015503875969
 40
0.0697674418604651
 40
0.0697674418604651
 40
0.0697674418604651
 40
0.0775193798449612
 40
0.0775193798449612
 40
0.0775193798449612
 40
0.0852713178294574
 40
0.0852713178294574
 40
0.0852713178294574
 40
0.0930232558139535
 40
0.0930232558139535
 40
0.0930232558139535
 40
0.1007751937984496
 40
0.1007751937984496
 40
0.1007751937984496
 40
0.1085271317829457
 40
0.1085271317829457
 40
0.1085271317829457
 40
0.1162790697674419
 40
0.1162790697674419
 40
0.1162790697674419
 40
0.124031007751938
 40
0.124031007751938
 40
0.124031007751938
 40
0.1317829457364341
 40
0.1317829457364341
 40
0.1317829457364341
 40
0.1395348837209302
 40
0.1395348837209302
 40
0.1395348837209302
 40
0.1472868217054263
 40
0.1472868217054263
 40
0.1472868217054263
 40
0.1550387596899225
 40
0.1550387596899225
 40
0.1550387596899225
 40
0.1627906976744186
 40
0.1627906976744186
 40
0.1627906976744186
 40
0.1705426356589147
 40
0.1705426356589147
 40
0.1705426356589147
 40
0.1782945736434108
 40
0.1782945736434108
 40
0.1782945736434108
 40
0.186046511627907
 40
0.186046511627907
 40
0.186046511627907
 40
0.1937984496124031
 40
0.1937984496124031
 40
0.1937984496124031
 40
0.2015503875968992
 40
0.2015503875968992
 40
0.2015503875968992
 40
0.2093023255813953
 40
0.2093023255813953
 40
0.2093023255813953
 40
0.2170542635658915
 40
0.2170542635658915
 40
0.2170542635658915
 40
0.2248062015503876
 40
0.2248062015503876
 40
0.2248062015503876
 40
0.2325581395348837
 40
0.2325581395348837
 40
0.2325581395348837
 40
0.2403100775193798
 40
0.2403100775193798
 40
0.2403100775193798
 40
0.248062015503876
 40
0.248062015503876
 40
0.248062015503876
 40
0.2558139534883721
 40
0.2558139534883721
 40
0.2558139534883721
 40
0.2635658914728682
 40
0.2635658914728682
 40
0.2635658914728682
 40
0.2713178294573643
 40
0.2713178294573643
 40
0.2713178294573643
 40
0.2790697674418605
 40
0.2790697674418605
 40
0.2790697674418605
 40
0.2868217054263566
 40
0.2868217054263566
 40
0.2868217054263566
 40
0.2945736434108527
 40
0.2945736434108527
 40
0.2945736434108527
 40
0.3023255813953488
 40
0.3023255813953488
 40
0.3023255813953488
 40
0.310077519379845
 40
0.310077519379845
 40
0.310077519379845
 40
0.3178294573643411
 40
0.3178294573643411
 40
0.3178294573643411
 40
0.3255813953488372
 40
0.3255813953488372
 40
0.3255813953488372
 40
0.3333333333333333
 40
0.3333333333333333
 40
0.3333333333333333
 40
0.3410852713178295
 40
0.3410852713178295
 40
0.3410852713178295
 40
0.3488372093023256
 40
0.3488372093023256
 40
0.3488372093023256
 40
0.3565891472868217
 40
0.3565891472868217
 40
0.3565891472868217
 40
0.3643410852713178
 40
0.3643410852713178
 40
0.3643410852713178
 40
0.3720930232558139
 40
0.3720930232558139
 40
0.3720930232558139
 40
0.3798449612403101
 40
0.3798449612403101
 40
0.3798449612403101
 40
0.3875968992248062
 40
0.3875968992248062
 40
0.3875968992248062
 40
0.3953488372093023
 40
0.3953488372093023
 40
0.3953488372093023
 40
0.4031007751937984
 40
0.4031007751937984
 40
0.4031007751937984
 40
0.4108527131782946
 40
0.4108527131782946
 40
0.4108527131782946
 40
0.4186046511627907
 40
0.4186046511627907
 40
0.4186046511627907
 40
0.4263565891472868
 40
0.4263565891472868
 40
0.4263565891472868
 40
0.4341085271317829
 40
0.4341085271317829
 40
0.4341085271317829
 40
0.4418604651162791
 40
0.4418604651162791
 40
0.4418604651162791
 40
0.4496124031007752
 40
0.4496124031007752
 40
0.4496124031007752
 40
0.4573643410852713
 40
0.4573643410852713
 40
0.4573643410852713
 40
0.4651162790697674
 40
0.4651162790697674
 40
0.4651162790697674
 40
0.4728682170542636
 40
0.4728682170542636
 40
0.4728682170542636
 40
0.4806201550387597
 40
0.4806201550387597
 40
0.4806201550387597
 40
0.4883720930232558
 40
0.4883720930232558
 40
0.4883720930232558
 40
0.4961240310077519
 40
0.4961240310077519
 40
0.4961240310077519
 40
0.5038759689922481
 40
0.5038759689922481
 40
0.5038759689922481
 40
0.5116279069767442
 40
0.5116279069767442
 40
0.5116279069767442
 40
0.5193798449612403
 40
0.5193798449612403
 40
0.5193798449612403
 40
0.5271317829457365
 40
0.5271317829457365
 40
0.5271317829457365
 40
0.5348837209302325
 40
0.5348837209302325
 40
0.5348837209302325
 40
0.5426356589147286
 40
0.5426356589147286
 40
0.5426356589147286
 40
0.5503875968992248
 40
0.5503875968992248
 40
0.5503875968992248
 40
0.5581395348837209
 40
0.5581395348837209
 40
0.5581395348837209
 40
0.5658914728682171
 40
0.5658914728682171
 40
0.5658914728682171
 40
0.5736434108527132
 40
0.5736434108527132
 40
0.5736434108527132
 40
0.5813953488372093
 40
0.5813953488372093
 40
0.5813953488372093
 40
0.5891472868217054
 40
0.5891472868217054
 40
0.5891472868217054
 40
0.5968992248062015
 40
0.5968992248062015
 40
0.5968992248062015
 40
0.6046511627906976
 40
0.6046511627906976
 40
0.6046511627906976
 40
0.6124031007751938
 40
0.6124031007751938
 40
0.6124031007751938
 40
0.6201550387596899
 40
0.6201550387596899
 40
0.6201550387596899
 40
0.627906976744186
 40
0.627906976744186
 40
0.627906976744186
 40
0.6356589147286822
 40
0.6356589147286822
 40
0.6356589147286822
 40
0.6434108527131783
 40
0.6434108527131783
 40
0.6434108527131783
 40
0.6511627906976745
 40
0.6511627906976745
 40
0.6511627906976745
 40
0.6589147286821705
 40
0.6589147286821705
 40
0.6589147286821705
 40
0.6666666666666666
 40
0.6666666666666666
 40
0.6666666666666666
 40
0.6744186046511628
 40
0.6744186046511628
 40
0.6744186046511628
 40
0.6821705426356589
 40
0.6821705426356589
 40
0.6821705426356589
 40
0.689922480620155
 40
0.689922480620155
 40
0.689922480620155
 40
0.6976744186046512
 40
0.6976744186046512
 40
0.6976744186046512
 40
0.7054263565891473
 40
0.7054263565891473
 40
0.7054263565891473
 40
0.7131782945736433
 40
0.7131782945736433
 40
0.7131782945736433
 40
0.7209302325581395
 40
0.7209302325581395
 40
0.7209302325581395
 40
0.7286821705426356
 40
0.7286821705426356
 40
0.7286821705426356
 40
0.7364341085271318
 40
0.7364341085271318
 40
0.7364341085271318
 40
0.7441860465116279
 40
0.7441860465116279
 40
0.7441860465116279
 40
0.751937984496124
 40
0.751937984496124
 40
0.751937984496124
 40
0.7596899224806202
 40
0.7596899224806202
 40
0.7596899224806202
 40
0.7674418604651163
 40
0.7674418604651163
 40
0.7674418604651163
 40
0.7751937984496124
 40
0.7751937984496124
 40
0.7751937984496124
 40
0.7829457364341085
 40
0.7829457364341085
 40
0.7829457364341085
 40
0.7906976744186046
 40
0.7906976744186046
 40
0.7906976744186046
 40
0.7984496124031008
 40
0.7984496124031008
 40
0.7984496124031008
 40
0.8062015503875969
 40
0.8062015503875969
 40
0.8062015503875969
 40
0.813953488372093
 40
0.813953488372093
 40
0.813953488372093
 40
0.8217054263565892
 40
0.8217054263565892
 40
0.8217054263565892
 40
0.8294573643410853
 40
0.8294573643410853
 40
0.8294573643410853
 40
0.8372093023255813
 40
0.8372093023255813
 40
0.8372093023255813
 40
0.8449612403100775
 40
0.8449612403100775
 40
0.8449612403100775
 40
0.8527131782945736
 40
0.8527131782945736
 40
0.8527131782945736
 40
0.8604651162790697
 40
0.8604651162790697
 40
0.8604651162790697
 40
0.8682170542635659
 40
0.8682170542635659
 40
0.8682170542635659
 40
0.875968992248062
 40
0.875968992248062
 40
0.875968992248062
 40
0.8837209302325582
 40
0.8837209302325582
 40
0.8837209302325582
 40
0.8914728682170543
 40
0.8914728682170543
 40
0.8914728682170543
 40
0.8992248062015504
 40
0.8992248062015504
 40
0.8992248062015504
 40
0.9069767441860465
 40
0.9069767441860465
 40
0.9069767441860465
 40
0.9147286821705426
 40
0.9147286821705426
 40
0.9147286821705426
 40
0.9224806201550387
 40
0.9224806201550387
 40
0.9224806201550387
 40
0.9302325581395349
 40
0.9302325581395349
 40
0.9302325581395349
 40
0.937984496124031
 40
0.937984496124031
 40
0.937984496124031
 40
0.9457364341085271
 40
0.9457364341085271
 40
0.9457364341085271
 40
0.9534883720930233
 40
0.9534883720930233
 40
0.9534883720930233
 40
0.9612403100775193
 40
0.9612403100775193
 40
0.9612403100775193
 40
0.9689922480620154
 40
0.9689922480620154
 40
0.9689922480620154
 40
0.9767441860465116
 40
0.9767441860465116
 40
0.9767441860465116
 40
0.9844961240310077
 40
0.9844961240310077
 40
0.9844961240310077
 40
0.9922480620155039
 40
0.9922480620155039
 40
0.9922480620155039
 40
1.0
 40
1.0
 40
1.0
 40
1.0
 10
-12.19969
 20
6.99154
 30
0.0
 10
-12.19969
 20
6.99154
 30
0.0
 10
-13.37792
 20
6.99154
 30
0.0
 10
-13.37792
 20
6.99154
 30
0.0
 10
-13.37792
 20
6.99154
 30
0.0
 10
-13.37792
 20
6.57029
 30
0.0
 10
-13.37792
 20
6.57029
 30
0.0
 10
-13.84781
 20
6.94396
 30
0.0
 10
-14.15991
 20
7.50759
 30
0.0
 10
-14.19804
 20
8.14501
 30
0.0
 10
-14.09374
 20
8.16724
 30
0.0
 10
-14.01547
 20
8.25986
 30
0.0
 10
-14.01547
 20
8.37075
 30
0.0
 10
-14.01547
 20
8.49817
 30
0.0
 10
-14.11879
 20
8.60146
 30
0.0
 10
-14.24621
 20
8.60146
 30
0.0
 10
-14.24621
 20
8.60146
 30
0.0
 10
-14.24621
 20
8.8487
 30
0.0
 10
-14.24621
 20
8.8487
 30
0.0
 10
-14.21324
 20
8.87344
 30
0.0
 10
-14.19193
 20
8.91286
 30
0.0
 10
-14.19193
 20
8.95728
 30
0.0
 10
-14.19193
 20
9.00172
 30
0.0
 10
-14.21324
 20
9.04115
 30
0.0
 10
-14.24621
 20
9.06592
 30
0.0
 10
-14.24621
 20
9.06592
 30
0.0
 10
-14.24621
 20
9.4636
 30
0.0
 10
-14.24621
 20
9.4636
 30
0.0
 10
-14.24621
 20
9.4636
 30
0.0
 10
-14.03426
 20
9.4636
 30
0.0
 10
-14.03426
 20
9.4636
 30
0.0
 10
-14.00949
 20
9.43063
 30
0.0
 10
-13.97007
 20
9.4093
 30
0.0
 10
-13.92564
 20
9.4093
 30
0.0
 10
-13.8507
 20
9.4093
 30
0.0
 10
-13.78994
 20
9.47008
 30
0.0
 10
-13.78994
 20
9.54501
 30
0.0
 10
-13.78994
 20
9.62001
 30
0.0
 10
-13.8507
 20
9.68078
 30
0.0
 10
-13.92564
 20
9.68078
 30
0.0
 10
-13.97007
 20
9.68078
 30
0.0
 10
-14.00949
 20
9.65944
 30
0.0
 10
-14.03426
 20
9.62648
 30
0.0
 10
-14.03426
 20
9.62648
 30
0.0
 10
-14.24621
 20
9.62648
 30
0.0
 10
-14.24621
 20
9.62648
 30
0.0
 10
-14.24621
 20
9.62648
 30
0.0
 10
-14.24621
 20
9.9272
 30
0.0
 10
-14.24621
 20
9.9272
 30
0.0
 10
-14.21324
 20
9.95199
 30
0.0
 10
-14.19193
 20
9.99141
 30
0.0
 10
-14.19193
 20
10.03584
 30
0.0
 10
-14.19193
 20
10.11077
 30
0.0
 10
-14.2527
 20
10.17151
 30
0.0
 10
-14.32765
 20
10.17151
 30
0.0
 10
-14.4026
 20
10.17151
 30
0.0
 10
-14.46337
 20
10.11077
 30
0.0
 10
-14.46337
 20
10.03584
 30
0.0
 10
-14.46337
 20
9.99141
 30
0.0
 10
-14.44206
 20
9.95199
 30
0.0
 10
-14.40908
 20
9.9272
 30
0.0
 10
-14.40908
 20
9.9272
 30
0.0
 10
-14.40908
 20
9.62648
 30
0.0
 10
-14.40908
 20
9.62648
 30
0.0
 10
-14.40908
 20
9.62648
 30
0.0
 10
-14.62106
 20
9.62648
 30
0.0
 10
-14.62106
 20
9.62648
 30
0.0
 10
-14.64581
 20
9.65944
 30
0.0
 10
-14.68522
 20
9.68078
 30
0.0
 10
-14.72963
 20
9.68078
 30
0.0
 10
-14.80459
 20
9.68078
 30
0.0
 10
-14.86536
 20
9.62001
 30
0.0
 10
-14.86536
 20
9.54501
 30
0.0
 10
-14.86536
 20
9.47008
 30
0.0
 10
-14.80459
 20
9.4093
 30
0.0
 10
-14.72963
 20
9.4093
 30
0.0
 10
-14.68522
 20
9.4093
 30
0.0
 10
-14.64581
 20
9.43063
 30
0.0
 10
-14.62106
 20
9.4636
 30
0.0
 10
-14.62106
 20
9.4636
 30
0.0
 10
-14.40908
 20
9.4636
 30
0.0
 10
-14.40908
 20
9.4636
 30
0.0
 10
-14.40908
 20
9.4636
 30
0.0
 10
-14.40908
 20
9.06592
 30
0.0
 10
-14.40908
 20
9.06592
 30
0.0
 10
-14.44206
 20
9.04115
 30
0.0
 10
-14.46337
 20
9.00172
 30
0.0
 10
-14.46337
 20
8.95728
 30
0.0
 10
-14.46337
 20
8.91286
 30
0.0
 10
-14.44206
 20
8.87344
 30
0.0
 10
-14.40908
 20
8.8487
 30
0.0
 10
-14.40908
 20
8.8487
 30
0.0
 10
-14.40908
 20
8.60146
 30
0.0
 10
-14.40908
 20
8.60146
 30
0.0
 10
-14.53651
 20
8.60146
 30
0.0
 10
-14.6398
 20
8.49817
 30
0.0
 10
-14.6398
 20
8.37075
 30
0.0
 10
-14.6398
 20
8.25986
 30
0.0
 10
-14.56156
 20
8.16724
 30
0.0
 10
-14.45727
 20
8.14501
 30
0.0
 10
-14.49559
 20
7.50439
 30
0.0
 10
-14.81059
 20
6.9384
 30
0.0
 10
-15.28519
 20
6.56424
 30
0.0
 10
-15.56471
 20
6.34463
 30
0.0
 10
-15.7392
 20
6.03103
 30
0.0
 10
-15.7392
 20
5.68282
 30
0.0
 10
-15.7392
 20
5.24284
 30
0.0
 10
-15.46069
 20
4.85821
 30
0.0
 10
-15.04541
 20
4.64931
 30
0.0
 10
-15.04541
 20
4.64931
 30
0.0
 10
-15.04541
 20
3.96699
 30
0.0
 10
-15.04541
 20
3.96699
 30
0.0
 10
-15.04541
 20
3.96699
 30
0.0
 10
-15.57678
 20
3.96699
 30
0.0
 10
-15.57678
 20
3.96699
 30
0.0
 10
-15.57678
 20
3.96699
 30
0.0
 10
-15.57678
 20
3.41959
 30
0.0
 10
-15.57678
 20
3.41959
 30
0.0
 10
-15.57678
 20
3.41959
 30
0.0
 10
-15.04541
 20
3.41959
 30
0.0
 10
-15.04541
 20
3.41959
 30
0.0
 10
-15.04541
 20
3.41959
 30
0.0
 10
-15.04541
 20
3.04654
 30
0.0
 10
-15.04541
 20
3.04654
 30
0.0
 10
-15.04541
 20
3.04654
 30
0.0
 10
-15.04541
 20
2.15702
 30
0.0
 10
-15.04541
 20
2.15702
 30
0.0
 10
-15.04541
 20
2.15702
 30
0.0
 10
-15.04541
 20
-1.35142
 30
0.0
 10
-15.04541
 20
-1.35142
 30
0.0
 10
-15.04541
 20
-1.35142
 30
0.0
 10
-12.89444
 20
-1.35142
 30
0.0
 10
-12.89444
 20
-1.35142
 30
0.0
 10
-12.89444
 20
-1.35142
 30
0.0
 10
-12.89444
 20
-1.72143
 30
0.0
 10
-12.89444
 20
-1.72143
 30
0.0
 10
-12.89444
 20
-1.72143
 30
0.0
 10
-8.89444
 20
-1.72143
 30
0.0
 10
-8.89444
 20
-1.72143
 30
0.0
 10
-8.89444
 20
-1.72143
 30
0.0
 10
-8.89445
 20
-1.35142
 30
0.0
 10
-8.89445
 20
-1.35142
 30
0.0
 10
-8.89445
 20
-1.35142
 30
0.0
 10
-6.74344
 20
-1.35142
 30
0.0
 10
-6.74344
 20
-1.35142
 30
0.0
 10
-6.74344
 20
-1.35142
 30
0.0
 10
-6.74344
 20
2.15702
 30
0.0
 10
-6.74344
 20
2.15702
 30
0.0
 10
-6.74344
 20
2.15702
 30
0.0
 10
-6.74344
 20
3.2433
 30
0.0
 10
-6.74344
 20
3.2433
 30
0.0
 10
-6.74344
 20
3.2433
 30
0.0
 10
-6.74344
 20
3.41959
 30
0.0
 10
-6.74344
 20
3.41959
 30
0.0
 10
-6.74344
 20
3.41959
 30
0.0
 10
-6.21208
 20
3.41959
 30
0.0
 10
-6.21208
 20
3.41959
 30
0.0
 10
-6.21208
 20
3.41959
 30
0.0
 10
-6.21208
 20
3.96699
 30
0.0
 10
-6.21208
 20
3.96699
 30
0.0
 10
-6.21208
 20
3.96699
 30
0.0
 10
-6.74344
 20
3.96699
 30
0.0
 10
-6.74344
 20
3.96699
 30
0.0
 10
-6.74344
 20
3.96699
 30
0.0
 10
-6.74344
 20
4.64931
 30
0.0
 10
-6.74344
 20
4.64931
 30
0.0
 10
-6.32816
 20
4.85821
 30
0.0
 10
-6.04967
 20
5.24284
 30
0.0
 10
-6.04967
 20
5.68282
 30
0.0
 10
-6.04967
 20
6.0301
 30
0.0
 10
-6.22324
 20
6.34296
 30
0.0
 10
-6.50045
 20
6.56171
 30
0.0
 10
-6.97642
 20
6.93501
 30
0.0
 10
-7.29317
 20
7.5025
 30
0.0
 10
-7.33158
 20
8.14501
 30
0.0
 10
-7.22729
 20
8.16724
 30
0.0
 10
-7.14904
 20
8.25986
 30
0.0
 10
-7.14904
 20
8.37075
 30
0.0
 10
-7.14904
 20
8.49817
 30
0.0
 10
-7.25235
 20
8.60146
 30
0.0
 10
-7.37978
 20
8.60146
 30
0.0
 10
-7.37978
 20
8.60146
 30
0.0
 10
-7.37978
 20
8.8487
 30
0.0
 10
-7.37978
 20
8.8487
 30
0.0
 10
-7.34682
 20
8.87344
 30
0.0
 10
-7.32549
 20
8.91286
 30
0.0
 10
-7.32549
 20
8.95728
 30
0.0
 10
-7.32549
 20
9.00172
 30
0.0
 10
-7.34682
 20
9.04115
 30
0.0
 10
-7.37978
 20
9.06592
 30
0.0
 10
-7.37978
 20
9.06592
 30
0.0
 10
-7.37978
 20
9.4636
 30
0.0
 10
-7.37978
 20
9.4636
 30
0.0
 10
-7.37978
 20
9.4636
 30
0.0
 10
-7.16781
 20
9.4636
 30
0.0
 10
-7.16781
 20
9.4636
 30
0.0
 10
-7.14307
 20
9.43063
 30
0.0
 10
-7.10363
 20
9.4093
 30
0.0
 10
-7.05922
 20
9.4093
 30
0.0
 10
-6.98427
 20
9.4093
 30
0.0
 10
-6.92352
 20
9.47008
 30
0.0
 10
-6.92352
 20
9.54501
 30
0.0
 10
-6.92352
 20
9.62001
 30
0.0
 10
-6.98427
 20
9.68078
 30
0.0
 10
-7.05922
 20
9.68078
 30
0.0
 10
-7.10363
 20
9.68078
 30
0.0
 10
-7.14307
 20
9.65944
 30
0.0
 10
-7.16781
 20
9.62648
 30
0.0
 10
-7.16781
 20
9.62648
 30
0.0
 10
-7.37978
 20
9.62648
 30
0.0
 10
-7.37978
 20
9.62648
 30
0.0
 10
-7.37978
 20
9.62648
 30
0.0
 10
-7.37978
 20
9.9272
 30
0.0
 10
-7.37978
 20
9.9272
 30
0.0
 10
-7.34682
 20
9.95199
 30
0.0
 10
-7.32549
 20
9.99141
 30
0.0
 10
-7.32549
 20
10.03584
 30
0.0
 10
-7.32549
 20
10.11077
 30
0.0
 10
-7.38628
 20
10.17151
 30
0.0
 10
-7.46122
 20
10.17151
 30
0.0
 10
-7.53617
 20
10.17151
 30
0.0
 10
-7.59692
 20
10.11077
 30
0.0
 10
-7.59692
 20
10.03584
 30
0.0
 10
-7.59692
 20
9.99141
 30
0.0
 10
-7.57561
 20
9.95199
 30
0.0
 10
-7.54266
 20
9.9272
 30
0.0
 10
-7.54266
 20
9.9272
 30
0.0
 10
-7.54266
 20
9.62648
 30
0.0
 10
-7.54266
 20
9.62648
 30
0.0
 10
-7.54266
 20
9.62648
 30
0.0
 10
-7.75459
 20
9.62648
 30
0.0
 10
-7.75459
 20
9.62648
 30
0.0
 10
-7.77936
 20
9.65944
 30
0.0
 10
-7.81879
 20
9.68078
 30
0.0
 10
-7.8632
 20
9.68078
 30
0.0
 10
-7.93814
 20
9.68078
 30
0.0
 10
-7.99891
 20
9.62001
 30
0.0
 10
-7.99891
 20
9.54501
 30
0.0
 10
-7.99891
 20
9.47008
 30
0.0
 10
-7.93814
 20
9.4093
 30
0.0
 10
-7.8632
 20
9.4093
 30
0.0
 10
-7.81879
 20
9.4093
 30
0.0
 10
-7.77936
 20
9.43063
 30
0.0
 10
-7.75459
 20
9.4636
 30
0.0
 10
-7.75459
 20
9.4636
 30
0.0
 10
-7.54266
 20
9.4636
 30
0.0
 10
-7.54266
 20
9.4636
 30
0.0
 10
-7.54266
 20
9.4636
 30
0.0
 10
-7.54266
 20
9.06592
 30
0.0
 10
-7.54266
 20
9.06592
 30
0.0
 10
-7.57561
 20
9.04115
 30
0.0
 10
-7.59692
 20
9.00172
 30
0.0
 10
-7.59692
 20
8.95728
 30
0.0
 10
-7.59692
 20
8.91286
 30
0.0
 10
-7.57561
 20
8.87344
 30
0.0
 10
-7.54266
 20
8.8487
 30
0.0
 10
-7.54266
 20
8.8487
 30
0.0
 10
-7.54266
 20
8.60146
 30
0.0
 10
-7.54266
 20
8.60146
 30
0.0
 10
-7.67008
 20
8.60146
 30
0.0
 10
-7.77338
 20
8.49817
 30
0.0
 10
-7.77338
 20
8.37075
 30
0.0
 10
-7.77338
 20
8.25986
 30
0.0
 10
-7.69514
 20
8.16724
 30
0.0
 10
-7.59082
 20
8.14501
 30
0.0
 10
-7.62895
 20
7.50759
 30
0.0
 10
-7.94107
 20
6.94431
 30
0.0
 10
-8.41093
 20
6.57062
 30
0.0
 10
-8.41093
 20
6.57062
 30
0.0
 10
-8.41093
 20
6.99154
 30
0.0
 10
-8.41093
 20
6.99154
 30
0.0
 10
-8.41093
 20
6.99154
 30
0.0
 10
-9.58919
 20
6.99154
 30
0.0
 10
-9.58919
 20
6.99154
 30
0.0
 10
-9.58919
 20
6.99154
 30
0.0
 10
-9.58919
 20
8.38628
 30
0.0
 10
-9.58919
 20
8.38628
 30
0.0
 10
-8.73742
 20
8.78022
 30
0.0
 10
-8.15933
 20
9.5478
 30
0.0
 10
-8.15933
 20
10.43008
 30
0.0
 10
-8.15933
 20
11.10334
 30
0.0
 10
-8.49592
 20
11.70971
 30
0.0
 10
-9.03662
 20
12.13614
 30
0.0
 10
-9.95815
 20
12.862
 30
0.0
 10
-10.56901
 20
13.95927
 30
0.0
 10
-10.64325
 20
15.20108
 30
0.0
 10
-10.44117
 20
15.24406
 30
0.0
 10
-10.28955
 20
15.42355
 30
0.0
 10
-10.28955
 20
15.63842
 30
0.0
 10
-10.28955
 20
15.88538
 30
0.0
 10
-10.48971
 20
16.08549
 30
0.0
 10
-10.73665
 20
16.08549
 30
0.0
 10
-10.73665
 20
16.08549
 30
0.0
 10
-10.73665
 20
16.56457
 30
0.0
 10
-10.73665
 20
16.56457
 30
0.0
 10
-10.67275
 20
16.61247
 30
0.0
 10
-10.63146
 20
16.68894
 30
0.0
 10
-10.63146
 20
16.77493
 30
0.0
 10
-10.63146
 20
16.861
 30
0.0
 10
-10.67275
 20
16.9374
 30
0.0
 10
-10.73665
 20
16.9854
 30
0.0
 10
-10.73665
 20
16.9854
 30
0.0
 10
-10.73665
 20
17.75601
 30
0.0
 10
-10.73665
 20
17.75601
 30
0.0
 10
-10.73665
 20
17.75601
 30
0.0
 10
-10.32593
 20
17.75601
 30
0.0
 10
-10.32593
 20
17.75601
 30
0.0
 10
-10.27798
 20
17.69214
 30
0.0
 10
-10.20155
 20
17.65082
 30
0.0
 10
-10.11553
 20
17.65082
 30
0.0
 10
-9.97026
 20
17.65082
 30
0.0
 10
-9.85252
 20
17.76851
 30
0.0
 10
-9.85252
 20
17.9138
 30
0.0
 10
-9.85252
 20
18.05904
 30
0.0
 10
-9.97026
 20
18.17682
 30
0.0
 10
-10.11553
 20
18.17682
 30
0.0
 10
-10.20155
 20
18.17682
 30
0.0
 10
-10.27798
 20
18.13549
 30
0.0
 10
-10.32593
 20
18.07155
 30
0.0
 10
-10.32593
 20
18.07155
 30
0.0
 10
-10.73665
 20
18.07155
 30
0.0
 10
-10.73665
 20
18.07155
 30
0.0
 10
-10.73665
 20
18.07155
 30
0.0
 10
-10.73665
 20
18.65438
 30
0.0
 10
-10.73665
 20
18.65438
 30
0.0
 10
-10.67275
 20
18.70234
 30
0.0
 10
-10.63146
 20
18.77876
 30
0.0
 10
-10.63146
 20
18.86477
 30
0.0
 10
-10.63146
 20
19.00997
 30
0.0
 10
-10.74919
 20
19.12777
 30
0.0
 10
-10.89444
 20
19.12777
 30
0.0
 10
-11.03967
 20
19.12777
 30
0.0
 10
-11.15742
 20
19.00997
 30
0.0
 10
-11.15742
 20
18.86477
 30
0.0
 10
-11.15742
 20
18.77876
 30
0.0
 10
-11.11612
 20
18.70234
 30
0.0
 10
-11.05223
 20
18.65438
 30
0.0
 10
-11.05223
 20
18.65438
 30
0.0
 10
-11.05223
 20
18.07155
 30
0.0
 10
-11.05223
 20
18.07155
 30
0.0
 10
-11.05223
 20
18.07155
 30
0.0
 10
-11.46294
 20
18.07155
 30
0.0
 10
-11.46294
 20
18.07155
 30
0.0
 10
-11.5109
 20
18.13549
 30
0.0
 10
-11.58731
 20
18.17682
 30
0.0
 10
-11.67335
 20
18.17682
 30
0.0
 10
-11.81859
 20
18.17682
 30
0.0
 10
-11.93634
 20
18.05904
 30
0.0
 10
-11.93634
 20
17.9138
 30
0.0
 10
-11.93634
 20
17.76851
 30
0.0
 10
-11.81859
 20
17.65082
 30
0.0
 10
-11.67335
 20
17.65082
 30
0.0
 10
-11.58731
 20
17.65082
 30
0.0
 10
-11.5109
 20
17.69214
 30
0.0
 10
-11.46294
 20
17.75601
 30
0.0
 10
-11.46294
 20
17.75601
 30
0.0
 10
-11.05223
 20
17.75601
 30
0.0
 10
-11.05223
 20
17.75601
 30
0.0
 10
-11.05223
 20
17.75601
 30
0.0
 10
-11.05223
 20
16.9854
 30
0.0
 10
-11.05223
 20
16.9854
 30
0.0
 10
-11.11612
 20
16.9374
 30
0.0
 10
-11.15742
 20
16.861
 30
0.0
 10
-11.15742
 20
16.77493
 30
0.0
 10
-11.15742
 20
16.68894
 30
0.0
 10
-11.11612
 20
16.61247
 30
0.0
 10
-11.05223
 20
16.56457
 30
0.0
 10
-11.05223
 20
16.56457
 30
0.0
 10
-11.05223
 20
16.08549
 30
0.0
 10
-11.05223
 20
16.08549
 30
0.0
 10
-11.29914
 20
16.08549
 30
0.0
 10
-11.49931
 20
15.88538
 30
0.0
 10
-11.49931
 20
15.63842
 30
0.0
 10
-11.49931
 20
15.42355
 30
0.0
 10
-11.34769
 20
15.24406
 30
0.0
 10
-11.14559
 20
15.20108
 30
0.0
 10
-11.22002
 20
13.95647
 30
0.0
 10
-11.83347
 20
12.85703
 30
0.0
 10
-12.75476
 20
12.13417
 30
0.0
 10
-13.29242
 20
11.71065
 30
0.0
 10
-13.62955
 20
11.10386
 30
0.0
 10
-13.62955
 20
10.43008
 30
0.0
 10
-13.62955
 20
9.5478
 30
0.0
 10
-13.05145
 20
8.78022
 30
0.0
 10
-12.19969
 20
8.38628
 30
0.0
 10
-12.19969
 20
8.38628
 30
0.0
 10
-12.19969
 20
6.99154
 30
0.0
 10
-12.19969
 20
6.99154
 30
0.0
  0
SPLINE
  5
61
330
1F
100
AcDbEntity
  8
layer 1
 62
   250
370
    50
100
AcDbSpline
210
0.0
220
0.0
230
1.0
 70
    11
 71
     3
 72
   110
 73
   106
 74
     0
 42
0.0000000001
 43
0.0000000001
 40
0.0
 40
0.0
 40
0.0
 40
0.0
 40
0.0285714285714286
 40
0.0285714285714286
 40
0.0285714285714286
 40
0.0571428571428571
 40
0.0571428571428571
 40
0.0571428571428571
 40
0.0857142857142857
 40
0.0857142857142857
 40
0.0857142857142857
 40
0.1142857142857143
 40
0.1142857142857143
 40
0.1142857142857143
 40
0.1428571428571428
 40
0.1428571428571428
 40
0.1428571428571428
 40
0.1714285714285714
 40
0.1714285714285714
 40
0.1714285714285714
 40
0.2
 40
0.2
 40
0.2
 40
0.2285714285714286
 40
0.2285714285714286
 40
0.2285714285714286
 40
0.2571428571428571
 40
0.2571428571428571
 40
0.2571428571428571
 40
0.2857142857142857
 40
0.2857142857142857
 40
0.2857142857142857
 40
0.3142857142857143
 40
0.3142857142857143
 40
0.3142857142857143
 40
0.3428571428571429
 40
0.3428571428571429
 40
0.3428571428571429
 40
0.3714285714285714
 40
0.3714285714285714
 40
0.3714285714285714
 40
0.4
 40
0.4
 40
0.4
 40
0.4285714285714285
 40
0.4285714285714285
 40
0.4285714285714285
 40
0.4571428571428571
 40
0.4571428571428571
 40
0.4571428571428571
 40
0.4857142857142857
 40
0.4857142857142857
 40
0.4857142857142857
 40
0.5142857142857142
 40
0.5142857142857142
 40
0.5142857142857142
 40
0.5428571428571428
 40
0.5428571428571428
 40
0.5428571428571428
 40
0.5714285714285714
 40
0.5714285714285714
 40
0.5714285714285714
 40
0.6
 40
0.6
 40
0.6
 40
0.6285714285714286
 40
0.6285714285714286
 40
0.6285714285714286
 40
0.6571428571428571
 40
0.6571428571428571
 40
0.6571428571428571
 40
0.6857142857142857
 40
0.6857142857142857
 40
0.6857142857142857
 40
0.7142857142857143
 40
0.7142857142857143
 40
0.7142857142857143
 40
0.7428571428571429
 40
0.7428571428571429
 40
0.7428571428571429
 40
0.7714285714285714
 40
0.7714285714285714
 40
0.7714285714285714
 40
0.7999999999999999
 40
0.7999999999999999
 40
0.7999999999999999
 40
0.8285714285714285
 40
0.8285714285714285
 40
0.8285714285714285
 40
0.8571428571428571
 40
0.8571428571428571
 40
0.8571428571428571
 40
0.8857142857142857
 40
0.8857142857142857
 40
0.8857142857142857
 40
0.9142857142857143
 40
0.9142857142857143
 40
0.9142857142857143
 40
0.9428571428571428
 40
0.9428571428571428
 40
0.9428571428571428
 40
0.9714285714285714
 40
0.9714285714285714
 40
0.9714285714285714
 40
1.0
 40
1.0
 40
1.0
 40
1.0
 10
-8.84315
 20
1.07027
 30
0.0
 10
-8.84315
 20
1.07027
 30
0.0
 10
-8.84315
 20
1.47954
 30
0.0
 10
-8.84315
 20
1.47954
 30
0.0
 10
-8.84315
 20
1.47954
 30
0.0
 10
-8.54109
 20
1.47954
 30
0.0
 10
-8.54109
 20
1.47954
 30
0.0
 10
-8.48326
 20
1.48595
 30
0.0
 10
-8.43823
 20
1.53745
 30
0.0
 10
-8.43823
 20
1.60004
 30
0.0
 10
-8.43823
 20
1.60004
 30
0.0
 10
-8.43823
 20
2.25793
 30
0.0
 10
-8.43823
 20
2.25793
 30
0.0
 10
-8.43823
 20
2.30994
 30
0.0
 10
-8.4694
 20
2.35433
 30
0.0
 10
-8.51315
 20
2.3715
 30
0.0
 10
-8.62779
 20
2.39989
 30
0.0
 10
-8.73064
 20
2.46043
 30
0.0
 10
-8.81262
 20
2.54363
 30
0.0
 10
-8.81262
 20
2.54363
 30
0.0
 10
-8.81262
 20
2.94542
 30
0.0
 10
-8.81262
 20
2.94542
 30
0.0
 10
-8.62024
 20
2.79356
 30
0.0
 10
-8.38123
 20
2.70354
 30
0.0
 10
-8.12224
 20
2.70354
 30
0.0
 10
-8.03451
 20
2.70354
 30
0.0
 10
-7.94911
 20
2.7139
 30
0.0
 10
-7.86703
 20
2.73344
 30
0.0
 10
-7.85874
 20
2.73455
 30
0.0
 10
-7.85026
 20
2.73512
 30
0.0
 10
-7.84169
 20
2.73512
 30
0.0
 10
-7.73198
 20
2.73512
 30
0.0
 10
-7.64307
 20
2.64157
 30
0.0
 10
-7.64307
 20
2.52603
 30
0.0
 10
-7.64307
 20
2.52603
 30
0.0
 10
-7.64307
 20
1.93015
 30
0.0
 10
-7.64307
 20
1.93015
 30
0.0
 10
-7.50283
 20
2.21491
 30
0.0
 10
-7.42601
 20
2.52303
 30
0.0
 10
-7.42601
 20
2.84472
 30
0.0
 10
-7.42601
 20
3.16638
 30
0.0
 10
-7.50279
 20
3.47445
 30
0.0
 10
-7.643
 20
3.75919
 30
0.0
 10
-7.6846
 20
3.34785
 30
0.0
 10
-8.03517
 20
3.02664
 30
0.0
 10
-8.46147
 20
3.02664
 30
0.0
 10
-8.5871
 20
3.02664
 30
0.0
 10
-8.7061
 20
3.05457
 30
0.0
 10
-8.81262
 20
3.10443
 30
0.0
 10
-8.81262
 20
3.10443
 30
0.0
 10
-8.81262
 20
3.45556
 30
0.0
 10
-8.81262
 20
3.45556
 30
0.0
 10
-8.58604
 20
3.45556
 30
0.0
 10
-8.40236
 20
3.62763
 30
0.0
 10
-8.40236
 20
3.83993
 30
0.0
 10
-8.40236
 20
4.0522
 30
0.0
 10
-8.58604
 20
4.2243
 30
0.0
 10
-8.81262
 20
4.2243
 30
0.0
 10
-8.81262
 20
4.2243
 30
0.0
 10
-9.27125
 20
4.2243
 30
0.0
 10
-9.27125
 20
4.2243
 30
0.0
 10
-9.27125
 20
4.2243
 30
0.0
 10
-9.27125
 20
1.47954
 30
0.0
 10
-9.27125
 20
1.47954
 30
0.0
 10
-9.27125
 20
1.47954
 30
0.0
 10
-9.27125
 20
1.07027
 30
0.0
 10
-9.27125
 20
1.07027
 30
0.0
 10
-9.27125
 20
1.07027
 30
0.0
 10
-9.9836
 20
1.07027
 30
0.0
 10
-9.9836
 20
1.07027
 30
0.0
 10
-9.9836
 20
1.07027
 30
0.0
 10
-10.30729
 20
1.07027
 30
0.0
 10
-10.30729
 20
1.07027
 30
0.0
 10
-10.30729
 20
1.07027
 30
0.0
 10
-12.37556
 20
1.07027
 30
0.0
 10
-12.37556
 20
1.07027
 30
0.0
 10
-12.37556
 20
1.07027
 30
0.0
 10
-12.37551
 20
1.4795
 30
0.0
 10
-12.37551
 20
1.4795
 30
0.0
 10
-12.37551
 20
1.4795
 30
0.0
 10
-12.11189
 20
1.47955
 30
0.0
 10
-12.11189
 20
1.47955
 30
0.0
 10
-12.11189
 20
1.47955
 30
0.0
 10
-12.62321
 20
2.37229
 30
0.0
 10
-12.62321
 20
2.37229
 30
0.0
 10
-12.62321
 20
2.37229
 30
0.0
 10
-13.13454
 20
1.47955
 30
0.0
 10
-13.13454
 20
1.47955
 30
0.0
 10
-13.13454
 20
1.47955
 30
0.0
 10
-12.80221
 20
1.47955
 30
0.0
 10
-12.80221
 20
1.47955
 30
0.0
 10
-12.80221
 20
1.47955
 30
0.0
 10
-12.80221
 20
1.07027
 30
0.0
 10
-12.80221
 20
1.07027
 30
0.0
 10
-12.80221
 20
1.07027
 30
0.0
 10
-13.44758
 20
1.07027
 30
0.0
 10
-13.44758
 20
1.07027
 30
0.0
 10
-12.81369
 20
0.54936
 30
0.0
 10
-11.90455
 20
0.22285
 30
0.0
 10
-10.89444
 20
0.22285
 30
0.0
 10
-9.88433
 20
0.22285
 30
0.0
 10
-8.97514
 20
0.54934
 30
0.0
 10
-8.3413
 20
1.07027
 30
0.0
 10
-8.3413
 20
1.07027
 30
0.0
 10
-8.84315
 20
1.07027
 30
0.0
 10
-8.84315
 20
1.07027
 30
0.0
  0
SPLINE
  5
62
330
1F
100
AcDbEntity
  8
layer 1
 62
   250
370
    50
100
AcDbSpline
210
0.0
220
0.0
230
1.0
 70
    11
 71
     3
 72
    26
 73
    22
 74
     0
 42
0.0000000001
 43
0.0000000001
 40
0.0
 40
0.0
 40
0.0
 40
0.0
 40
0.1428571428571428
 40
0.1428571428571428
 40
0.1428571428571428
 40
0.2857142857142857
 40
0.2857142857142857
 40
0.2857142857142857
 40
0.4285714285714285
 40
0.4285714285714285
 40
0.4285714285714285
 40
0.5714285714285714
 40
0.5714285714285714
 40
0.5714285714285714
 40
0.7142857142857142
 40
0.7142857142857142
 40
0.7142857142857142
 40
0.8571428571428571
 40
0.8571428571428571
 40
0.8571428571428571
 40
1.0
 40
1.0
 40
1.0
 40
1.0
 10
-13.85607
 20
1.47955
 30
0.0
 10
-13.85607
 20
1.47955
 30
0.0
 10
-13.68518
 20
1.47955
 30
0.0
 10
-13.68518
 20
1.47955
 30
0.0
 10
-13.60574
 20
1.47955
 30
0.0
 10
-13.53566
 20
1.52187
 30
0.0
 10
-13.49426
 20
1.58629
 30
0.0
 10
-13.49426
 20
1.58629
 30
0.0
 10
-12.8683
 20
2.80016
 30
0.0
 10
-12.8683
 20
2.80016
 30
0.0
 10
-12.8683
 20
2.80016
 30
0.0
 10
-13.69683
 20
4.24671
 30
0.0
 10
-13.69683
 20
4.24671
 30
0.0
 10
-13.69683
 20
4.24671
 30
0.0
 10
-13.82568
 20
4.24671
 30
0.0
 10
-13.82568
 20
4.24671
 30
0.0
 10
-14.16579
 20
3.84122
 30
0.0
 10
-14.36286
 20
3.36039
 30
0.0
 10
-14.36286
 20
2.84472
 30
0.0
 10
-14.36286
 20
2.34459
 30
0.0
 10
-14.17757
 20
1.87717
 30
0.0
 10
-13.85607
 20
1.47955
 30
0.0
  0
SPLINE
  5
63
330
1F
100
AcDbEntity
  8
layer 1
 62
   250
370
    50
100
AcDbSpline
210
0.0
220
0.0
230
1.0
 70
    11
 71
     3
 72
    89
 73
    85
 74
     0
 42
0.0000000001
 43
0.0000000001
 40
0.0
 40
0.0
 40
0.0
 40
0.0
 40
0.0357142857142857
 40
0.0357142857142857
 40
0.0357142857142857
 40
0.0714285714285714
 40
0.0714285714285714
 40
0.0714285714285714
 40
0.1071428571428571
 40
0.1071428571428571
 40
0.1071428571428571
 40
0.1428571428571428
 40
0.1428571428571428
 40
0.1428571428571428
 40
0.1785714285714285
 40
0.1785714285714285
 40
0.1785714285714285
 40
0.2142857142857143
 40
0.2142857142857143
 40
0.2142857142857143
 40
0.25
 40
0.25
 40
0.25
 40
0.2857142857142857
 40
0.2857142857142857
 40
0.2857142857142857
 40
0.3214285714285714
 40
0.3214285714285714
 40
0.3214285714285714
 40
0.3571428571428571
 40
0.3571428571428571
 40
0.3571428571428571
 40
0.3928571428571428
 40
0.3928571428571428
 40
0.3928571428571428
 40
0.4285714285714285
 40
0.4285714285714285
 40
0.4285714285714285
 40
0.4642857142857142
 40
0.4642857142857142
 40
0.4642857142857142
 40
0.5
 40
0.5
 40
0.5
 40
0.5357142857142857
 40
0.5357142857142857
 40
0.5357142857142857
 40
0.5714285714285714
 40
0.5714285714285714
 40
0.5714285714285714
 40
0.6071428571428571
 40
0.6071428571428571
 40
0.6071428571428571
 40
0.6428571428571428
 40
0.6428571428571428
 40
0.6428571428571428
 40
0.6785714285714285
 40
0.6785714285714285
 40
0.6785714285714285
 40
0.7142857142857142
 40
0.7142857142857142
 40
0.7142857142857142
 40
0.75
 40
0.75
 40
0.75
 40
0.7857142857142857
 40
0.7857142857142857
 40
0.7857142857142857
 40
0.8214285714285714
 40
0.8214285714285714
 40
0.8214285714285714
 40
0.8571428571428571
 40
0.8571428571428571
 40
0.8571428571428571
 40
0.8928571428571428
 40
0.8928571428571428
 40
0.8928571428571428
 40
0.9285714285714285
 40
0.9285714285714285
 40
0.9285714285714285
 40
0.9642857142857142
 40
0.9642857142857142
 40
0.9642857142857142
 40
1.0
 40
1.0
 40
1.0
 40
1.0
 10
-13.40211
 20
4.656
 30
0.0
 10
-13.40211
 20
4.656
 30
0.0
 10
-12.40163
 20
4.656
 30
0.0
 10
-12.40163
 20
4.656
 30
0.0
 10
-12.40163
 20
4.656
 30
0.0
 10
-12.40163
 20
4.24671
 30
0.0
 10
-12.40163
 20
4.24671
 30
0.0
 10
-12.40163
 20
4.24671
 30
0.0
 10
-12.70493
 20
4.24671
 30
0.0
 10
-12.70493
 20
4.24671
 30
0.0
 10
-12.70493
 20
4.24671
 30
0.0
 10
-12.39836
 20
3.71149
 30
0.0
 10
-12.39836
 20
3.71149
 30
0.0
 10
-12.39836
 20
3.71149
 30
0.0
 10
-12.16483
 20
4.16437
 30
0.0
 10
-12.16483
 20
4.16437
 30
0.0
 10
-12.01414
 20
4.45626
 30
0.0
 10
-11.72074
 20
4.65412
 30
0.0
 10
-11.3834
 20
4.65412
 30
0.0
 10
-11.22102
 20
4.65412
 30
0.0
 10
-11.06882
 20
4.60829
 30
0.0
 10
-10.93785
 20
4.52817
 30
0.0
 10
-10.93687
 20
4.5276
 30
0.0
 10
-10.93591
 20
4.527
 30
0.0
 10
-10.93495
 20
4.52641
 30
0.0
 10
-10.86634
 20
4.48383
 30
0.0
 10
-10.82302
 20
4.4213
 30
0.0
 10
-10.82302
 20
4.35165
 30
0.0
 10
-10.82302
 20
4.27978
 30
0.0
 10
-10.86904
 20
4.21554
 30
0.0
 10
-10.94139
 20
4.17287
 30
0.0
 10
-10.9775
 20
4.15245
 30
0.0
 10
-11.00205
 20
4.11228
 30
0.0
 10
-11.00205
 20
4.06608
 30
0.0
 10
-11.00205
 20
4.05262
 30
0.0
 10
-10.99994
 20
4.03965
 30
0.0
 10
-10.99609
 20
4.02749
 30
0.0
 10
-10.94238
 20
3.91463
 30
0.0
 10
-10.94173
 20
3.79799
 30
0.0
 10
-11.00492
 20
3.72713
 30
0.0
 10
-11.0907
 20
3.63081
 30
0.0
 10
-11.26403
 20
3.65278
 30
0.0
 10
-11.3974
 20
3.76582
 30
0.0
 10
-11.44598
 20
3.80839
 30
0.0
 10
-11.51874
 20
3.83792
 30
0.0
 10
-11.59809
 20
3.83792
 30
0.0
 10
-11.72087
 20
3.83792
 30
0.0
 10
-11.82795
 20
3.76716
 30
0.0
 10
-11.87982
 20
3.67019
 30
0.0
 10
-11.87982
 20
3.67019
 30
0.0
 10
-12.12727
 20
3.23817
 30
0.0
 10
-12.12727
 20
3.23817
 30
0.0
 10
-12.12727
 20
3.23817
 30
0.0
 10
-11.12
 20
1.47955
 30
0.0
 10
-11.12
 20
1.47955
 30
0.0
 10
-11.12
 20
1.47955
 30
0.0
 10
-9.9836
 20
1.47955
 30
0.0
 10
-9.9836
 20
1.47955
 30
0.0
 10
-9.9836
 20
1.47955
 30
0.0
 10
-9.9836
 20
1.47954
 30
0.0
 10
-9.9836
 20
1.47954
 30
0.0
 10
-9.9836
 20
1.47954
 30
0.0
 10
-9.97788
 20
1.47954
 30
0.0
 10
-9.97788
 20
1.47954
 30
0.0
 10
-9.97788
 20
1.47954
 30
0.0
 10
-9.97788
 20
3.911
 30
0.0
 10
-9.97788
 20
3.911
 30
0.0
 10
-9.97788
 20
4.32073
 30
0.0
 10
-9.66188
 20
4.65296
 30
0.0
 10
-9.27207
 20
4.65296
 30
0.0
 10
-9.27207
 20
4.65296
 30
0.0
 10
-8.81262
 20
4.65604
 30
0.0
 10
-8.81262
 20
4.65604
 30
0.0
 10
-8.81262
 20
4.65604
 30
0.0
 10
-8.46147
 20
4.65604
 30
0.0
 10
-8.46147
 20
4.65604
 30
0.0
 10
-8.43466
 20
4.65604
 30
0.0
 10
-8.40815
 20
4.65471
 30
0.0
 10
-8.38199
 20
4.65223
 30
0.0
 10
-9.01378
 20
5.15391
 30
0.0
 10
-9.90579
 20
5.46661
 30
0.0
 10
-10.89444
 20
5.46661
 30
0.0
 10
-11.8806
 20
5.46661
 30
0.0
 10
-12.77062
 20
5.15549
 30
0.0
 10
-13.40211
 20
4.656
 30
0.0
  0
SPLINE
  5
64
330
1F
100
AcDbEntity
  8
layer 1
 62
   250
370
    50
100
AcDbSpline
210
0.0
220
0.0
230
1.0
 70
    27
 71
     3
 72
     8
 73
     4
 74
     0
 42
0.0000000001
 43
0.0000000001
 40
0.0
 40
0.0
 40
0.0
 40
0.0
 40
1.0
 40
1.0
 40
1.0
 40
1.0
 10
-7.59083
 20
8.14501
 30
0.0
 10
-7.59083
 20
8.14501
 30
0.0
 10
-7.59083
 20
8.14501
 30
0.0
 10
-7.59083
 20
8.14501
 30
0.0
  0
SPLINE
  5
65
330
1F
100
AcDbEntity
  8
layer 1
 62
   250
370
    50
100
AcDbSpline
210
0.0
220
0.0
230
1.0
 70
    11
 71
     3
 72
    23
 73
    19
 74
     0
 42
0.0000000001
 43
0.0000000001
 40
0.0
 40
0.0
 40
0.0
 40
0.0
 40
0.1666666666666667
 40
0.1666666666666667
 40
0.1666666666666667
 40
0.3333333333333333
 40
0.3333333333333333
 40
0.3333333333333333
 40
0.5
 40
0.5
 40
0.5
 40
0.6666666666666666
 40
0.6666666666666666
 40
0.6666666666666666
 40
0.8333333333333333
 40
0.8333333333333333
 40
0.8333333333333333
 40
1.0
 40
1.0
 40
1.0
 40
1.0
 10
-10.89444
 20
8.6392
 30
0.0
 10
-10.89444
 20
8.6392
 30
0.0
 10
-10.89444
 20
8.6392
 30
0.0
 10
-10.89444
 20
8.6392
 30
0.0
 10
-10.68773
 20
8.6392
 30
0.0
 10
-10.5186
 20
8.47008
 30
0.0
 10
-10.5186
 20
8.26336
 30
0.0
 10
-10.5186
 20
8.26336
 30
0.0
 10
-10.5186
 20
5.98856
 30
0.0
 10
-10.5186
 20
5.98856
 30
0.0
 10
-10.5186
 20
5.98856
 30
0.0
 10
-11.27028
 20
5.98856
 30
0.0
 10
-11.27028
 20
5.98856
 30
0.0
 10
-11.27028
 20
5.98856
 30
0.0
 10
-11.27028
 20
8.26336
 30
0.0
 10
-11.27028
 20
8.26336
 30
0.0
 10
-11.27028
 20
8.47008
 30
0.0
 10
-11.10115
 20
8.6392
 30
0.0
 10
-10.89444
 20
8.6392
 30
0.0
  0
SPLINE
  5
66
330
1F
100
AcDbEntity
  8
layer 1
 62
   250
370
    50
100
AcDbSpline
210
0.0
220
0.0
230
1.0
 70
    11
 71
     3
 72
    17
 73
    13
 74
     0
 42
0.0000000001
 43
0.0000000001
 40
0.0
 40
0.0
 40
0.0
 40
0.0
 40
0.25
 40
0.25
 40
0.25
 40
0.5
 40
0.5
 40
0.5
 40
0.75
 40
0.75
 40
0.75
 40
1.0
 40
1.0
 40
1.0
 40
1.0
 10
-11.0937
 20
9.13119
 30
0.0
 10
-11.62584
 20
9.46492
 30
0.0
 10
-11.96574
 20
9.97358
 30
0.0
 10
-11.96574
 20
10.54342
 30
0.0
 10
-11.96574
 20
11.06782
 30
0.0
 10
-11.67786
 20
11.54043
 30
0.0
 10
-11.21722
 20
11.87249
 30
0.0
 10
-11.46276
 20
11.54785
 30
0.0
 10
-11.6162
 20
11.0861
 30
0.0
 10
-11.6162
 20
10.57375
 30
0.0
 10
-11.6162
 20
9.98013
 30
0.0
 10
-11.41025
 20
9.45441
 30
0.0
 10
-11.0937
 20
9.13119
 30
0.0
  0
SPLINE
  5
67
330
1F
100
AcDbEntity
  8
layer 1
 62
   250
370
    50
100
AcDbSpline
210
0.0
220
0.0
230
1.0
 70
    11
 71
     3
 72
    17
 73
    13
 74
     0
 42
0.0000000001
 43
0.0000000001
 40
0.0
 40
0.0
 40
0.0
 40
0.0
 40
0.25
 40
0.25
 40
0.25
 40
0.5
 40
0.5
 40
0.5
 40
0.75
 40
0.75
 40
0.75
 40
1.0
 40
1.0
 40
1.0
 40
1.0
 10
-10.89181
 20
9.07178
 30
0.0
 10
-11.03494
 20
9.43034
 30
0.0
 10
-11.12437
 20
9.94039
 30
0.0
 10
-11.12437
 20
10.50629
 30
0.0
 10
-11.12437
 20
11.07223
 30
0.0
 10
-11.03494
 20
11.58228
 30
0.0
 10
-10.89181
 20
11.94086
 30
0.0
 10
-10.7487
 20
11.58228
 30
0.0
 10
-10.65928
 20
11.07223
 30
0.0
 10
-10.65928
 20
10.50629
 30
0.0
 10
-10.65928
 20
9.94039
 30
0.0
 10
-10.7487
 20
9.43034
 30
0.0
 10
-10.89181
 20
9.07178
 30
0.0
  0
SPLINE
  5
68
330
1F
100
AcDbEntity
  8
layer 1
 62
   250
370
    50
100
AcDbSpline
210
0.0
220
0.0
230
1.0
 70
    11
 71
     3
 72
    17
 73
    13
 74
     0
 42
0.0000000001
 43
0.0000000001
 40
0.0
 40
0.0
 40
0.0
 40
0.0
 40
0.25
 40
0.25
 40
0.25
 40
0.5
 40
0.5
 40
0.5
 40
0.75
 40
0.75
 40
0.75
 40
1.0
 40
1.0
 40
1.0
 40
1.0
 10
-11.83222
 20
9.13286
 30
0.0
 10
-12.43529
 20
9.46657
 30
0.0
 10
-12.82052
 20
9.97524
 30
0.0
 10
-12.82052
 20
10.54508
 30
0.0
 10
-12.82052
 20
11.06948
 30
0.0
 10
-12.49425
 20
11.54208
 30
0.0
 10
-11.9722
 20
11.87416
 30
0.0
 10
-12.25048
 20
11.54956
 30
0.0
 10
-12.42438
 20
11.08776
 30
0.0
 10
-12.42438
 20
10.5754
 30
0.0
 10
-12.42438
 20
9.9818
 30
0.0
 10
-12.19098
 20
9.45608
 30
0.0
 10
-11.83222
 20
9.13286
 30
0.0
  0
SPLINE
  5
69
330
1F
100
AcDbEntity
  8
layer 1
 62
   250
370
    50
100
AcDbSpline
210
0.0
220
0.0
230
1.0
 70
    11
 71
     3
 72
    17
 73
    13
 74
     0
 42
0.0000000001
 43
0.0000000001
 40
0.0
 40
0.0
 40
0.0
 40
0.0
 40
0.25
 40
0.25
 40
0.25
 40
0.5
 40
0.5
 40
0.5
 40
0.75
 40
0.75
 40
0.75
 40
1.0
 40
1.0
 40
1.0
 40
1.0
 10
-10.17575
 20
10.57341
 30
0.0
 10
-10.17575
 20
11.08581
 30
0.0
 10
-10.32921
 20
11.54759
 30
0.0
 10
-10.57474
 20
11.87222
 30
0.0
 10
-10.11412
 20
11.54015
 30
0.0
 10
-9.82621
 20
11.06749
 30
0.0
 10
-9.82621
 20
10.54308
 30
0.0
 10
-9.82621
 20
9.97324
 30
0.0
 10
-10.16613
 20
9.46457
 30
0.0
 10
-10.69825
 20
9.13093
 30
0.0
 10
-10.38171
 20
9.45408
 30
0.0
 10
-10.17575
 20
9.97984
 30
0.0
 10
-10.17575
 20
10.57341
 30
0.0
  0
SPLINE
  5
6A
330
1F
100
AcDbEntity
  8
layer 1
 62
   250
370
    50
100
AcDbSpline
210
0.0
220
0.0
230
1.0
 70
    11
 71
     3
 72
    17
 73
    13
 74
     0
 42
0.0000000001
 43
0.0000000001
 40
0.0
 40
0.0
 40
0.0
 40
0.0
 40
0.25
 40
0.25
 40
0.25
 40
0.5
 40
0.5
 40
0.5
 40
0.75
 40
0.75
 40
0.75
 40
1.0
 40
1.0
 40
1.0
 40
1.0
 10
-8.96836
 20
10.54308
 30
0.0
 10
-8.96836
 20
9.97324
 30
0.0
 10
-9.35359
 20
9.46457
 30
0.0
 10
-9.95666
 20
9.13093
 30
0.0
 10
-9.5979
 20
9.45408
 30
0.0
 10
-9.3645
 20
9.97984
 30
0.0
 10
-9.3645
 20
10.57341
 30
0.0
 10
-9.3645
 20
11.08581
 30
0.0
 10
-9.53839
 20
11.54759
 30
0.0
 10
-9.81668
 20
11.87222
 30
0.0
 10
-9.29463
 20
11.54015
 30
0.0
 10
-8.96836
 20
11.06749
 30
0.0
 10
-8.96836
 20
10.54308
 30
0.0
  0
SPLINE
  5
6B
330
1F
100
AcDbEntity
  8
layer 1
 62
   250
370
    50
100
AcDbSpline
210
0.0
220
0.0
230
1.0
 70
    11
 71
     3
 72
    17
 73
    13
 74
     0
 42
0.0000000001
 43
0.0000000001
 40
0.0
 40
0.0
 40
0.0
 40
0.0
 40
0.25
 40
0.25
 40
0.25
 40
0.5
 40
0.5
 40
0.5
 40
0.75
 40
0.75
 40
0.75
 40
1.0
 40
1.0
 40
1.0
 40
1.0
 10
-6.61245
 20
5.79145
 30
0.0
 10
-6.61245
 20
6.0618
 30
0.0
 10
-6.70508
 20
6.30543
 30
0.0
 10
-6.85329
 20
6.47671
 30
0.0
 10
-6.57525
 20
6.30151
 30
0.0
 10
-6.40147
 20
6.05213
 30
0.0
 10
-6.40147
 20
5.77545
 30
0.0
 10
-6.40147
 20
5.47479
 30
0.0
 10
-6.60665
 20
5.20642
 30
0.0
 10
-6.92784
 20
5.03038
 30
0.0
 10
-6.73677
 20
5.20088
 30
0.0
 10
-6.61245
 20
5.47827
 30
0.0
 10
-6.61245
 20
5.79145
 30
0.0
  0
SPLINE
  5
6C
330
1F
100
AcDbEntity
  8
layer 1
 62
   250
370
    50
100
AcDbSpline
210
0.0
220
0.0
230
1.0
 70
    11
 71
     3
 72
    17
 73
    13
 74
     0
 42
0.0000000001
 43
0.0000000001
 40
0.0
 40
0.0
 40
0.0
 40
0.0
 40
0.25
 40
0.25
 40
0.25
 40
0.5
 40
0.5
 40
0.5
 40
0.75
 40
0.75
 40
0.75
 40
1.0
 40
1.0
 40
1.0
 40
1.0
 10
-13.58689
 20
5.79145
 30
0.0
 10
-13.58689
 20
6.0618
 30
0.0
 10
-13.67952
 20
6.30543
 30
0.0
 10
-13.82773
 20
6.47671
 30
0.0
 10
-13.54969
 20
6.30151
 30
0.0
 10
-13.37591
 20
6.05213
 30
0.0
 10
-13.37591
 20
5.77545
 30
0.0
 10
-13.37591
 20
5.47479
 30
0.0
 10
-13.58109
 20
5.20642
 30
0.0
 10
-13.90228
 20
5.03038
 30
0.0
 10
-13.71121
 20
5.20088
 30
0.0
 10
-13.58689
 20
5.47827
 30
0.0
 10
-13.58689
 20
5.79145
 30
0.0
  0
SPLINE
  5
6D
330
1F
100
AcDbEntity
  8
layer 1
 62
   250
370
    50
100
AcDbSpline
210
0.0
220
0.0
230
1.0
 70
    11
 71
     3
 72
   158
 73
   154
 74
     0
 42
0.0000000001
 43
0.0000000001
 40
0.0
 40
0.0
 40
0.0
 40
0.0
 40
0.0196078431372549
 40
0.0196078431372549
 40
0.0196078431372549
 40
0.0392156862745098
 40
0.0392156862745098
 40
0.0392156862745098
 40
0.0588235294117647
 40
0.0588235294117647
 40
0.0588235294117647
 40
0.0784313725490196
 40
0.0784313725490196
 40
0.0784313725490196
 40
0.0980392156862745
 40
0.0980392156862745
 40
0.0980392156862745
 40
0.1176470588235294
 40
0.1176470588235294
 40
0.1176470588235294
 40
0.1372549019607843
 40
0.1372549019607843
 40
0.1372549019607843
 40
0.1568627450980392
 40
0.1568627450980392
 40
0.1568627450980392
 40
0.1764705882352941
 40
0.1764705882352941
 40
0.1764705882352941
 40
0.196078431372549
 40
0.196078431372549
 40
0.196078431372549
 40
0.2156862745098039
 40
0.2156862745098039
 40
0.2156862745098039
 40
0.2352941176470588
 40
0.2352941176470588
 40
0.2352941176470588
 40
0.2549019607843137
 40
0.2549019607843137
 40
0.2549019607843137
 40
0.2745098039215687
 40
0.2745098039215687
 40
0.2745098039215687
 40
0.2941176470588235
 40
0.2941176470588235
 40
0.2941176470588235
 40
0.3137254901960784
 40
0.3137254901960784
 40
0.3137254901960784
 40
0.3333333333333333
 40
0.3333333333333333
 40
0.3333333333333333
 40
0.3529411764705882
 40
0.3529411764705882
 40
0.3529411764705882
 40
0.3725490196078431
 40
0.3725490196078431
 40
0.3725490196078431
 40
0.392156862745098
 40
0.392156862745098
 40
0.392156862745098
 40
0.4117647058823529
 40
0.4117647058823529
 40
0.4117647058823529
 40
0.4313725490196079
 40
0.4313725490196079
 40
0.4313725490196079
 40
0.4509803921568628
 40
0.4509803921568628
 40
0.4509803921568628
 40
0.4705882352941176
 40
0.4705882352941176
 40
0.4705882352941176
 40
0.4901960784313725
 40
0.4901960784313725
 40
0.4901960784313725
 40
0.5098039215686274
 40
0.5098039215686274
 40
0.5098039215686274
 40
0.5294117647058824
 40
0.5294117647058824
 40
0.5294117647058824
 40
0.5490196078431373
 40
0.5490196078431373
 40
0.5490196078431373
 40
0.5686274509803921
 40
0.5686274509803921
 40
0.5686274509803921
 40
0.5882352941176471
 40
0.5882352941176471
 40
0.5882352941176471
 40
0.6078431372549019
 40
0.6078431372549019
 40
0.6078431372549019
 40
0.6274509803921569
 40
0.6274509803921569
 40
0.6274509803921569
 40
0.6470588235294118
 40
0.6470588235294118
 40
0.6470588235294118
 40
0.6666666666666666
 40
0.6666666666666666
 40
0.6666666666666666
 40
0.6862745098039216
 40
0.6862745098039216
 40
0.6862745098039216
 40
0.7058823529411764
 40
0.7058823529411764
 40
0.7058823529411764
 40
0.7254901960784313
 40
0.7254901960784313
 40
0.7254901960784313
 40
0.7450980392156863
 40
0.7450980392156863
 40
0.7450980392156863
 40
0.7647058823529411
 40
0.7647058823529411
 40
0.7647058823529411
 40
0.7843137254901961
 40
0.7843137254901961
 40
0.7843137254901961
 40
0.803921568627451
 40
0.803921568627451
 40
0.803921568627451
 40
0.8235294117647058
 40
0.8235294117647058
 40
0.8235294117647058
 40
0.8431372549019608
 40
0.8431372549019608
 40
0.8431372549019608
 40
0.8627450980392157
 40
0.8627450980392157
 40
0.8627450980392157
 40
0.8823529411764706
 40
0.8823529411764706
 40
0.8823529411764706
 40
0.9019607843137255
 40
0.9019607843137255
 40
0.9019607843137255
 40
0.9215686274509803
 40
0.9215686274509803
 40
0.9215686274509803
 40
0.9411764705882353
 40
0.9411764705882353
 40
0.9411764705882353
 40
0.9607843137254902
 40
0.9607843137254902
 40
0.9607843137254902
 40
0.9803921568627451
 40
0.9803921568627451
 40
0.9803921568627451
 40
1.0
 40
1.0
 40
1.0
 40
1.0
 10
10.76038
 20
12.55703
 30
0.0
 10
11.01638
 20
12.75796
 30
0.0
 10
11.17671
 20
13.04568
 30
0.0
 10
11.17671
 20
13.36523
 30
0.0
 10
11.17671
 20
13.68364
 30
0.0
 10
11.01751
 20
13.97044
 30
0.0
 10
10.76179
 20
14.17212
 30
0.0
 10
10.32593
 20
14.51542
 30
0.0
 10
10.03702
 20
15.03439
 30
0.0
 10
10.0019
 20
15.6217
 30
0.0
 10
10.09747
 20
15.64205
 30
0.0
 10
10.1692
 20
15.72694
 30
0.0
 10
10.1692
 20
15.82856
 30
0.0
 10
10.1692
 20
15.94536
 30
0.0
 10
10.07452
 20
16.04
 30
0.0
 10
9.95773
 20
16.04
 30
0.0
 10
9.95773
 20
16.04
 30
0.0
 10
9.95773
 20
16.26658
 30
0.0
 10
9.95773
 20
16.26658
 30
0.0
 10
9.98795
 20
16.28924
 30
0.0
 10
10.00749
 20
16.3254
 30
0.0
 10
10.00749
 20
16.36609
 30
0.0
 10
10.00749
 20
16.40679
 30
0.0
 10
9.98795
 20
16.44292
 30
0.0
 10
9.95773
 20
16.46563
 30
0.0
 10
9.95773
 20
16.46563
 30
0.0
 10
9.95773
 20
16.8301
 30
0.0
 10
9.95773
 20
16.8301
 30
0.0
 10
9.95773
 20
16.8301
 30
0.0
 10
10.15198
 20
16.8301
 30
0.0
 10
10.15198
 20
16.8301
 30
0.0
 10
10.17466
 20
16.79989
 30
0.0
 10
10.21081
 20
16.78035
 30
0.0
 10
10.25149
 20
16.78035
 30
0.0
 10
10.3202
 20
16.78035
 30
0.0
 10
10.37589
 20
16.83601
 30
0.0
 10
10.37589
 20
16.90472
 30
0.0
 10
10.37589
 20
16.97342
 30
0.0
 10
10.3202
 20
17.02912
 30
0.0
 10
10.25149
 20
17.02912
 30
0.0
 10
10.21081
 20
17.02912
 30
0.0
 10
10.17466
 20
17.00958
 30
0.0
 10
10.15198
 20
16.97933
 30
0.0
 10
10.15198
 20
16.97933
 30
0.0
 10
9.95773
 20
16.97933
 30
0.0
 10
9.95773
 20
16.97933
 30
0.0
 10
9.95773
 20
16.97933
 30
0.0
 10
9.95773
 20
17.25499
 30
0.0
 10
9.95773
 20
17.25499
 30
0.0
 10
9.98795
 20
17.27766
 30
0.0
 10
10.00749
 20
17.31381
 30
0.0
 10
10.00749
 20
17.3545
 30
0.0
 10
10.00749
 20
17.42317
 30
0.0
 10
9.9518
 20
17.47889
 30
0.0
 10
9.88309
 20
17.47889
 30
0.0
 10
9.81442
 20
17.47889
 30
0.0
 10
9.75872
 20
17.42317
 30
0.0
 10
9.75872
 20
17.3545
 30
0.0
 10
9.75872
 20
17.31381
 30
0.0
 10
9.77825
 20
17.27766
 30
0.0
 10
9.80846
 20
17.25499
 30
0.0
 10
9.80846
 20
17.25499
 30
0.0
 10
9.80846
 20
16.97933
 30
0.0
 10
9.80846
 20
16.97933
 30
0.0
 10
9.80846
 20
16.97933
 30
0.0
 10
9.61422
 20
16.97933
 30
0.0
 10
9.61422
 20
16.97933
 30
0.0
 10
9.59153
 20
17.00958
 30
0.0
 10
9.5554
 20
17.02912
 30
0.0
 10
9.51471
 20
17.02912
 30
0.0
 10
9.44601
 20
17.02912
 30
0.0
 10
9.39033
 20
16.97342
 30
0.0
 10
9.39033
 20
16.90472
 30
0.0
 10
9.39033
 20
16.83601
 30
0.0
 10
9.44601
 20
16.78035
 30
0.0
 10
9.51471
 20
16.78035
 30
0.0
 10
9.5554
 20
16.78035
 30
0.0
 10
9.59153
 20
16.79989
 30
0.0
 10
9.61422
 20
16.8301
 30
0.0
 10
9.61422
 20
16.8301
 30
0.0
 10
9.80846
 20
16.8301
 30
0.0
 10
9.80846
 20
16.8301
 30
0.0
 10
9.80846
 20
16.8301
 30
0.0
 10
9.80846
 20
16.46563
 30
0.0
 10
9.80846
 20
16.46563
 30
0.0
 10
9.77825
 20
16.44292
 30
0.0
 10
9.75872
 20
16.40679
 30
0.0
 10
9.75872
 20
16.36609
 30
0.0
 10
9.75872
 20
16.3254
 30
0.0
 10
9.77825
 20
16.28924
 30
0.0
 10
9.80846
 20
16.26658
 30
0.0
 10
9.80846
 20
16.26658
 30
0.0
 10
9.80846
 20
16.04
 30
0.0
 10
9.80846
 20
16.04
 30
0.0
 10
9.6917
 20
16.04
 30
0.0
 10
9.59702
 20
15.94536
 30
0.0
 10
9.59702
 20
15.82856
 30
0.0
 10
9.59702
 20
15.72694
 30
0.0
 10
9.66873
 20
15.64205
 30
0.0
 10
9.76432
 20
15.6217
 30
0.0
 10
9.72912
 20
15.03307
 30
0.0
 10
9.43897
 20
14.51307
 30
0.0
 10
9.00325
 20
14.17118
 30
0.0
 10
8.74895
 20
13.97087
 30
0.0
 10
8.5895
 20
13.68389
 30
0.0
 10
8.5895
 20
13.36523
 30
0.0
 10
8.5895
 20
13.04568
 30
0.0
 10
8.74982
 20
12.75796
 30
0.0
 10
9.00582
 20
12.55703
 30
0.0
 10
8.60654
 20
12.43767
 30
0.0
 10
8.25751
 20
12.2393
 30
0.0
 10
7.99035
 20
11.98639
 30
0.0
 10
7.81908
 20
12.11486
 30
0.0
 10
7.60632
 20
12.19099
 30
0.0
 10
7.37574
 20
12.19099
 30
0.0
 10
7.08017
 20
12.19099
 30
0.0
 10
6.81386
 20
12.0659
 30
0.0
 10
6.62673
 20
11.86582
 30
0.0
 10
6.62673
 20
11.86582
 30
0.0
 10
5.89494
 20
11.86582
 30
0.0
 10
5.89494
 20
11.86582
 30
0.0
 10
5.89494
 20
11.86582
 30
0.0
 10
5.89494
 20
8.70454
 30
0.0
 10
5.89494
 20
8.70454
 30
0.0
 10
5.89494
 20
8.70454
 30
0.0
 10
7.39754
 20
8.70454
 30
0.0
 10
7.39754
 20
8.70454
 30
0.0
 10
7.59236
 20
9.77395
 30
0.0
 10
8.53409
 20
10.59133
 30
0.0
 10
9.65751
 20
10.59133
 30
0.0
 10
9.65751
 20
10.59133
 30
0.0
 10
10.10869
 20
10.59133
 30
0.0
 10
10.10869
 20
10.59133
 30
0.0
 10
11.23211
 20
10.59133
 30
0.0
 10
12.17384
 20
9.77394
 30
0.0
 10
12.36866
 20
8.70454
 30
0.0
 10
12.36866
 20
8.70454
 30
0.0
 10
13.87126
 20
8.70454
 30
0.0
 10
13.87126
 20
8.70454
 30
0.0
 10
13.87126
 20
8.70454
 30
0.0
 10
13.87126
 20
11.86582
 30
0.0
 10
13.87126
 20
11.86582
 30
0.0
 10
13.87126
 20
11.86582
 30
0.0
 10
13.13947
 20
11.86582
 30
0.0
 10
13.13947
 20
11.86582
 30
0.0
 10
12.95234
 20
12.0659
 30
0.0
 10
12.68603
 20
12.19099
 30
0.0
 10
12.39046
 20
12.19099
 30
0.0
 10
12.15988
 20
12.19099
 30
0.0
 10
11.94712
 20
12.11486
 30
0.0
 10
11.77585
 20
11.98639
 30
0.0
 10
11.50869
 20
12.2393
 30
0.0
 10
11.15966
 20
12.43767
 30
0.0
 10
10.76038
 20
12.55703
 30
0.0
  0
SPLINE
  5
6E
330
1F
100
AcDbEntity
  8
layer 1
 62
   250
370
    50
100
AcDbSpline
210
0.0
220
0.0
230
1.0
 70
    11
 71
     3
 72
    17
 73
    13
 74
     0
 42
0.0000000001
 43
0.0000000001
 40
0.0
 40
0.0
 40
0.0
 40
0.0
 40
0.25
 40
0.25
 40
0.25
 40
0.5
 40
0.5
 40
0.5
 40
0.75
 40
0.75
 40
0.75
 40
1.0
 40
1.0
 40
1.0
 40
1.0
 10
6.2631
 20
11.1835
 30
0.0
 10
6.2631
 20
11.1835
 30
0.0
 10
6.6331
 20
11.1835
 30
0.0
 10
6.6331
 20
11.1835
 30
0.0
 10
6.6331
 20
11.1835
 30
0.0
 10
6.6331
 20
10.6361
 30
0.0
 10
6.6331
 20
10.6361
 30
0.0
 10
6.6331
 20
10.6361
 30
0.0
 10
6.2631
 20
10.6361
 30
0.0
 10
6.2631
 20
10.6361
 30
0.0
 10
6.2631
 20
10.6361
 30
0.0
 10
6.2631
 20
11.1835
 30
0.0
 10
6.2631
 20
11.1835
 30
0.0
  0
SPLINE
  5
6F
330
1F
100
AcDbEntity
  8
layer 1
 62
   250
370
    50
100
AcDbSpline
210
0.0
220
0.0
230
1.0
 70
    11
 71
     3
 72
    17
 73
    13
 74
     0
 42
0.0000000001
 43
0.0000000001
 40
0.0
 40
0.0
 40
0.0
 40
0.0
 40
0.25
 40
0.25
 40
0.25
 40
0.5
 40
0.5
 40
0.5
 40
0.75
 40
0.75
 40
0.75
 40
1.0
 40
1.0
 40
1.0
 40
1.0
 10
13.1331
 20
11.1835
 30
0.0
 10
13.1331
 20
11.1835
 30
0.0
 10
13.5031
 20
11.1835
 30
0.0
 10
13.5031
 20
11.1835
 30
0.0
 10
13.5031
 20
11.1835
 30
0.0
 10
13.5031
 20
10.6361
 30
0.0
 10
13.5031
 20
10.6361
 30
0.0
 10
13.5031
 20
10.6361
 30
0.0
 10
13.1331
 20
10.6361
 30
0.0
 10
13.1331
 20
10.6361
 30
0.0
 10
13.1331
 20
10.6361
 30
0.0
 10
13.1331
 20
11.1835
 30
0.0
 10
13.1331
 20
11.1835
 30
0.0
  0
SPLINE
  5
70
330
1F
100
AcDbEntity
  8
layer 1
 62
   250
370
    50
100
AcDbSpline
210
0.0
220
0.0
230
1.0
 70
    11
 71
     3
 72
    17
 73
    13
 74
     0
 42
0.0000000001
 43
0.0000000001
 40
0.0
 40
0.0
 40
0.0
 40
0.0
 40
0.25
 40
0.25
 40
0.25
 40
0.5
 40
0.5
 40
0.5
 40
0.75
 40
0.75
 40
0.75
 40
1.0
 40
1.0
 40
1.0
 40
1.0
 10
1.11514
 20
-11.07028
 30
0.0
 10
1.11514
 20
-11.07028
 30
0.0
 10
-2.88486
 20
-11.07028
 30
0.0
 10
-2.88486
 20
-11.07028
 30
0.0
 10
-2.88486
 20
-11.07028
 30
0.0
 10
-2.88486
 20
-11.44028
 30
0.0
 10
-2.88486
 20
-11.44028
 30
0.0
 10
-2.88486
 20
-11.44028
 30
0.0
 10
1.11514
 20
-11.44028
 30
0.0
 10
1.11514
 20
-11.44028
 30
0.0
 10
1.11514
 20
-11.44028
 30
0.0
 10
1.11514
 20
-11.07028
 30
0.0
 10
1.11514
 20
-11.07028
 30
0.0
  0
SPLINE
  5
71
330
1F
100
AcDbEntity
  8
layer 1
 62
   250
370
    50
100
AcDbSpline
210
0.0
220
0.0
230
1.0
 70
    11
 71
     3
 72
    17
 73
    13
 74
     0
 42
0.0000000001
 43
0.0000000001
 40
0.0
 40
0.0
 40
0.0
 40
0.0
 40
0.25
 40
0.25
 40
0.25
 40
0.5
 40
0.5
 40
0.5
 40
0.75
 40
0.75
 40
0.75
 40
1.0
 40
1.0
 40
1.0
 40
1.0
 10
1.11514
 20
-4.20028
 30
0.0
 10
1.11514
 20
-4.20028
 30
0.0
 10
-2.88486
 20
-4.20028
 30
0.0
 10
-2.88486
 20
-4.20028
 30
0.0
 10
-2.88486
 20
-4.20028
 30
0.0
 10
-2.88486
 20
-4.57028
 30
0.0
 10
-2.88486
 20
-4.57028
 30
0.0
 10
-2.88486
 20
-4.57028
 30
0.0
 10
1.11514
 20
-4.57028
 30
0.0
 10
1.11514
 20
-4.57028
 30
0.0
 10
1.11514
 20
-4.57028
 30
0.0
 10
1.11514
 20
-4.20028
 30
0.0
 10
1.11514
 20
-4.20028
 30
0.0
  0
SPLINE
  5
72
330
1F
100
AcDbEntity
  8
layer 1
 62
   250
370
    50
100
AcDbSpline
210
0.0
220
0.0
230
1.0
 70
    11
 71
     3
 72
    17
 73
    13
 74
     0
 42
0.0000000001
 43
0.0000000001
 40
0.0
 40
0.0
 40
0.0
 40
0.0
 40
0.25
 40
0.25
 40
0.25
 40
0.5
 40
0.5
 40
0.5
 40
0.75
 40
0.75
 40
0.75
 40
1.0
 40
1.0
 40
1.0
 40
1.0
 10
-1.07018
 20
-9.8753
 30
0.0
 10
-1.07018
 20
-9.8753
 30
0.0
 10
-1.07018
 20
-10.91238
 30
0.0
 10
-1.07018
 20
-10.91238
 30
0.0
 10
-1.07018
 20
-10.91238
 30
0.0
 10
-0.70018
 20
-10.91238
 30
0.0
 10
-0.70018
 20
-10.91238
 30
0.0
 10
-0.70018
 20
-10.91238
 30
0.0
 10
-0.70018
 20
-9.8753
 30
0.0
 10
-0.70018
 20
-9.8753
 30
0.0
 10
-0.70018
 20
-9.8753
 30
0.0
 10
-1.07018
 20
-9.8753
 30
0.0
 10
-1.07018
 20
-9.8753
 30
0.0
  0
SPLINE
  5
73
330
1F
100
AcDbEntity
  8
layer 1
 62
   250
370
    50
100
AcDbSpline
210
0.0
220
0.0
230
1.0
 70
    11
 71
     3
 72
    17
 73
    13
 74
     0
 42
0.0000000001
 43
0.0000000001
 40
0.0
 40
0.0
 40
0.0
 40
0.0
 40
0.25
 40
0.25
 40
0.25
 40
0.5
 40
0.5
 40
0.5
 40
0.75
 40
0.75
 40
0.75
 40
1.0
 40
1.0
 40
1.0
 40
1.0
 10
-1.07018
 20
-4.72818
 30
0.0
 10
-1.07018
 20
-4.72818
 30
0.0
 10
-1.07018
 20
-5.76526
 30
0.0
 10
-1.07018
 20
-5.76526
 30
0.0
 10
-1.07018
 20
-5.76526
 30
0.0
 10
-0.70018
 20
-5.76526
 30
0.0
 10
-0.70018
 20
-5.76526
 30
0.0
 10
-0.70018
 20
-5.76526
 30
0.0
 10
-0.70018
 20
-4.72818
 30
0.0
 10
-0.70018
 20
-4.72818
 30
0.0
 10
-0.70018
 20
-4.72818
 30
0.0
 10
-1.07018
 20
-4.72818
 30
0.0
 10
-1.07018
 20
-4.72818
 30
0.0
  0
SPLINE
  5
74
330
1F
100
AcDbEntity
  8
layer 1
 62
   250
370
    50
100
AcDbSpline
210
0.0
220
0.0
230
1.0
 70
    11
 71
     3
 72
    17
 73
    13
 74
     0
 42
0.0000000001
 43
0.0000000001
 40
0.0
 40
0.0
 40
0.0
 40
0.0
 40
0.25
 40
0.25
 40
0.25
 40
0.5
 40
0.5
 40
0.5
 40
0.75
 40
0.75
 40
0.75
 40
1.0
 40
1.0
 40
1.0
 40
1.0
 10
2.98172
 20
-7.63561
 30
0.0
 10
2.98172
 20
-7.63561
 30
0.0
 10
1.68488
 20
-7.63561
 30
0.0
 10
1.68488
 20
-7.63561
 30
0.0
 10
1.68488
 20
-7.63561
 30
0.0
 10
1.68488
 20
-8.00561
 30
0.0
 10
1.68488
 20
-8.00561
 30
0.0
 10
1.68488
 20
-8.00561
 30
0.0
 10
2.98172
 20
-8.00561
 30
0.0
 10
2.98172
 20
-8.00561
 30
0.0
 10
2.98172
 20
-8.00561
 30
0.0
 10
2.98172
 20
-7.63561
 30
0.0
 10
2.98172
 20
-7.63561
 30
0.0
  0
SPLINE
  5
75
330
1F
100
AcDbEntity
  8
layer 1
 62
   250
370
    50
100
AcDbSpline
210
0.0
220
0.0
230
1.0
 70
    11
 71
     3
 72
    17
 73
    13
 74
     0
 42
0.0000000001
 43
0.0000000001
 40
0.0
 40
0.0
 40
0.0
 40
0.0
 40
0.25
 40
0.25
 40
0.25
 40
0.5
 40
0.5
 40
0.5
 40
0.75
 40
0.75
 40
0.75
 40
1.0
 40
1.0
 40
1.0
 40
1.0
 10
-3.4546
 20
-7.63561
 30
0.0
 10
-3.4546
 20
-7.63561
 30
0.0
 10
-4.75144
 20
-7.63561
 30
0.0
 10
-4.75144
 20
-7.63561
 30
0.0
 10
-4.75144
 20
-7.63561
 30
0.0
 10
-4.75144
 20
-8.00561
 30
0.0
 10
-4.75144
 20
-8.00561
 30
0.0
 10
-4.75144
 20
-8.00561
 30
0.0
 10
-3.4546
 20
-8.00561
 30
0.0
 10
-3.4546
 20
-8.00561
 30
0.0
 10
-3.4546
 20
-8.00561
 30
0.0
 10
-3.4546
 20
-7.63561
 30
0.0
 10
-3.4546
 20
-7.63561
 30
0.0
  0
SPLINE
  5
76
330
1F
100
AcDbEntity
  8
layer 1
 62
   250
370
    50
100
AcDbSpline
210
0.0
220
0.0
230
1.0
 70
    11
 71
     3
 72
    23
 73
    19
 74
     0
 42
0.0000000001
 43
0.0000000001
 40
0.0
 40
0.0
 40
0.0
 40
0.0
 40
0.1666666666666667
 40
0.1666666666666667
 40
0.1666666666666667
 40
0.3333333333333333
 40
0.3333333333333333
 40
0.3333333333333333
 40
0.5
 40
0.5
 40
0.5
 40
0.6666666666666666
 40
0.6666666666666666
 40
0.6666666666666666
 40
0.8333333333333333
 40
0.8333333333333333
 40
0.8333333333333333
 40
1.0
 40
1.0
 40
1.0
 40
1.0
 10
-1.60147
 20
-9.46925
 30
0.0
 10
-1.80273
 20
-9.38202
 30
0.0
 10
-1.9802
 20
-9.26291
 30
0.0
 10
-2.1305
 20
-9.12053
 30
0.0
 10
-2.66582
 20
-8.61337
 30
0.0
 10
-2.85622
 20
-7.81075
 30
0.0
 10
-2.5472
 20
-7.09969
 30
0.0
 10
-2.15141
 20
-6.189
 30
0.0
 10
-1.08629
 20
-5.77334
 30
0.0
 10
-0.1682
 20
-6.17131
 30
0.0
 10
0.2556
 20
-6.35502
 30
0.0
 10
0.57386
 20
-6.68002
 30
0.0
 10
0.75494
 20
-7.06626
 30
0.0
 10
0.96613
 20
-7.51674
 30
0.0
 10
0.99062
 20
-8.05056
 30
0.0
 10
0.77753
 20
-8.54088
 30
0.0
 10
0.38174
 20
-9.45158
 30
0.0
 10
-0.68338
 20
-9.86723
 30
0.0
 10
-1.60147
 20
-9.46925
 30
0.0
  0
SPLINE
  5
77
330
1F
100
AcDbEntity
  8
layer 1
 62
   250
370
    50
100
AcDbSpline
210
0.0
220
0.0
230
1.0
 70
    11
 71
     3
 72
   107
 73
   103
 74
     0
 42
0.0000000001
 43
0.0000000001
 40
0.0
 40
0.0
 40
0.0
 40
0.0
 40
0.0294117647058824
 40
0.0294117647058824
 40
0.0294117647058824
 40
0.0588235294117647
 40
0.0588235294117647
 40
0.0588235294117647
 40
0.0882352941176471
 40
0.0882352941176471
 40
0.0882352941176471
 40
0.1176470588235294
 40
0.1176470588235294
 40
0.1176470588235294
 40
0.1470588235294118
 40
0.1470588235294118
 40
0.1470588235294118
 40
0.1764705882352941
 40
0.1764705882352941
 40
0.1764705882352941
 40
0.2058823529411765
 40
0.2058823529411765
 40
0.2058823529411765
 40
0.2352941176470588
 40
0.2352941176470588
 40
0.2352941176470588
 40
0.2647058823529412
 40
0.2647058823529412
 40
0.2647058823529412
 40
0.2941176470588235
 40
0.2941176470588235
 40
0.2941176470588235
 40
0.3235294117647059
 40
0.3235294117647059
 40
0.3235294117647059
 40
0.3529411764705882
 40
0.3529411764705882
 40
0.3529411764705882
 40
0.3823529411764706
 40
0.3823529411764706
 40
0.3823529411764706
 40
0.4117647058823529
 40
0.4117647058823529
 40
0.4117647058823529
 40
0.4411764705882353
 40
0.4411764705882353
 40
0.4411764705882353
 40
0.4705882352941176
 40
0.4705882352941176
 40
0.4705882352941176
 40
0.5
 40
0.5
 40
0.5
 40
0.5294117647058824
 40
0.5294117647058824
 40
0.5294117647058824
 40
0.5588235294117647
 40
0.5588235294117647
 40
0.5588235294117647
 40
0.5882352941176471
 40
0.5882352941176471
 40
0.5882352941176471
 40
0.6176470588235294
 40
0.6176470588235294
 40
0.6176470588235294
 40
0.6470588235294118
 40
0.6470588235294118
 40
0.6470588235294118
 40
0.6764705882352942
 40
0.6764705882352942
 40
0.6764705882352942
 40
0.7058823529411764
 40
0.7058823529411764
 40
0.7058823529411764
 40
0.7352941176470588
 40
0.7352941176470588
 40
0.7352941176470588
 40
0.7647058823529411
 40
0.7647058823529411
 40
0.7647058823529411
 40
0.7941176470588235
 40
0.7941176470588235
 40
0.7941176470588235
 40
0.8235294117647058
 40
0.8235294117647058
 40
0.8235294117647058
 40
0.8529411764705882
 40
0.8529411764705882
 40
0.8529411764705882
 40
0.8823529411764706
 40
0.8823529411764706
 40
0.8823529411764706
 40
0.9117647058823529
 40
0.9117647058823529
 40
0.9117647058823529
 40
0.9411764705882353
 40
0.9411764705882353
 40
0.9411764705882353
 40
0.9705882352941176
 40
0.9705882352941176
 40
0.9705882352941176
 40
1.0
 40
1.0
 40
1.0
 40
1.0
 10
-0.15083
 20
-3.15901
 30
0.0
 10
0.00028
 20
-3.00704
 30
0.0
 10
0.17789
 20
-2.88131
 30
0.0
 10
0.37569
 20
-2.78858
 30
0.0
 10
0.85326
 20
-2.5647
 30
0.0
 10
1.4036
 20
-2.55551
 30
0.0
 10
1.88803
 20
-2.76603
 30
0.0
 10
2.52831
 20
-3.04431
 30
0.0
 10
2.92866
 20
-3.6476
 30
0.0
 10
2.98609
 20
-4.29974
 30
0.0
 10
3.43608
 20
-4.37858
 30
0.0
 10
3.7781
 20
-4.77126
 30
0.0
 10
3.7781
 20
-5.24384
 30
0.0
 10
3.7781
 20
-5.32716
 30
0.0
 10
3.76746
 20
-5.40798
 30
0.0
 10
3.74748
 20
-5.48506
 30
0.0
 10
4.61003
 20
-5.92281
 30
0.0
 10
4.98939
 20
-6.97184
 30
0.0
 10
4.60053
 20
-7.86897
 30
0.0
 10
4.51427
 20
-8.06796
 30
0.0
 10
4.3942
 20
-8.25041
 30
0.0
 10
4.245
 20
-8.40791
 30
0.0
 10
4.22982
 20
-8.42393
 30
0.0
 10
4.21441
 20
-8.43965
 30
0.0
 10
4.19875
 20
-8.45502
 30
0.0
 10
4.27763
 20
-8.59429
 30
0.0
 10
4.32271
 20
-8.75522
 30
0.0
 10
4.32271
 20
-8.92669
 30
0.0
 10
4.32271
 20
-9.28905
 30
0.0
 10
4.12163
 20
-9.6044
 30
0.0
 10
3.82496
 20
-9.76736
 30
0.0
 10
3.91874
 20
-10.14825
 30
0.0
 10
3.89343
 20
-10.56154
 30
0.0
 10
3.72644
 20
-10.94681
 30
0.0
 10
3.64017
 20
-11.14582
 30
0.0
 10
3.52011
 20
-11.32827
 30
0.0
 10
3.3709
 20
-11.48576
 30
0.0
 10
2.97653
 20
-11.90206
 30
0.0
 10
2.41936
 20
-12.10471
 30
0.0
 10
1.8676
 20
-12.05542
 30
0.0
 10
1.73246
 20
-12.42103
 30
0.0
 10
1.38079
 20
-12.68166
 30
0.0
 10
0.96823
 20
-12.68166
 30
0.0
 10
0.85198
 20
-12.68166
 30
0.0
 10
0.74053
 20
-12.66096
 30
0.0
 10
0.63742
 20
-12.62304
 30
0.0
 10
0.586
 20
-12.69615
 30
0.0
 10
0.52927
 20
-12.76559
 30
0.0
 10
0.46754
 20
-12.83074
 30
0.0
 10
-0.06405
 20
-13.39188
 30
0.0
 10
-0.89139
 20
-13.56501
 30
0.0
 10
-1.60262
 20
-13.2559
 30
0.0
 10
-1.92162
 20
-13.11726
 30
0.0
 10
-2.18107
 20
-12.89794
 30
0.0
 10
-2.36823
 20
-12.6321
 30
0.0
 10
-2.47154
 20
-12.67019
 30
0.0
 10
-2.58324
 20
-12.69101
 30
0.0
 10
-2.69979
 20
-12.691
 30
0.0
 10
-3.10772
 20
-12.69101
 30
0.0
 10
-3.45608
 20
-12.43616
 30
0.0
 10
-3.59448
 20
-12.07702
 30
0.0
 10
-3.90232
 20
-12.10947
 30
0.0
 10
-4.21997
 20
-12.06459
 30
0.0
 10
-4.51732
 20
-11.93536
 30
0.0
 10
-5.34982
 20
-11.57356
 30
0.0
 10
-5.77671
 20
-10.6623
 30
0.0
 10
-5.57157
 20
-9.80859
 30
0.0
 10
-5.87033
 20
-9.64625
 30
0.0
 10
-6.07315
 20
-9.32969
 30
0.0
 10
-6.07315
 20
-8.96576
 30
0.0
 10
-6.07315
 20
-8.7991
 30
0.0
 10
-6.03057
 20
-8.64237
 30
0.0
 10
-5.95576
 20
-8.50583
 30
0.0
 10
-6.49644
 20
-7.98532
 30
0.0
 10
-6.68499
 20
-7.15961
 30
0.0
 10
-6.37022
 20
-6.43348
 30
0.0
 10
-6.19978
 20
-6.0403
 30
0.0
 10
-5.90096
 20
-5.72009
 30
0.0
 10
-5.52184
 20
-5.52398
 30
0.0
 10
-5.53613
 20
-5.45816
 30
0.0
 10
-5.54372
 20
-5.38983
 30
0.0
 10
-5.54372
 20
-5.31974
 30
0.0
 10
-5.54372
 20
-4.85778
 30
0.0
 10
-5.2169
 20
-4.47219
 30
0.0
 10
-4.7819
 20
-4.38142
 30
0.0
 10
-4.77036
 20
-4.16797
 30
0.0
 10
-4.72158
 20
-3.95326
 30
0.0
 10
-4.63201
 20
-3.74662
 30
0.0
 10
-4.45195
 20
-3.33121
 30
0.0
 10
-4.1286
 20
-2.99725
 30
0.0
 10
-3.71863
 20
-2.80505
 30
0.0
 10
-3.24109
 20
-2.58116
 30
0.0
 10
-2.69073
 20
-2.57198
 30
0.0
 10
-2.20631
 20
-2.78251
 30
0.0
 10
-1.98505
 20
-2.87867
 30
0.0
 10
-1.79248
 20
-3.0137
 30
0.0
 10
-1.63279
 20
-3.17608
 30
0.0
 10
-1.45909
 20
-2.95782
 30
0.0
 10
-1.18864
 20
-2.81751
 30
0.0
 10
-0.88485
 20
-2.81751
 30
0.0
 10
-0.58903
 20
-2.81751
 30
0.0
 10
-0.32486
 20
-2.95052
 30
0.0
 10
-0.15083
 20
-3.15901
 30
0.0
  0
SPLINE
  5
78
330
1F
100
AcDbEntity
  8
layer 1
 62
   250
370
    20
100
AcDbSpline
210
0.0
220
0.0
230
1.0
 70
    11
 71
     3
 72
    83
 73
    79
 74
     0
 42
0.0000000001
 43
0.0000000001
 40
0.0
 40
0.0
 40
0.0
 40
0.0
 40
0.0384615384615385
 40
0.0384615384615385
 40
0.0384615384615385
 40
0.0769230769230769
 40
0.0769230769230769
 40
0.0769230769230769
 40
0.1153846153846154
 40
0.1153846153846154
 40
0.1153846153846154
 40
0.1538461538461539
 40
0.1538461538461539
 40
0.1538461538461539
 40
0.1923076923076923
 40
0.1923076923076923
 40
0.1923076923076923
 40
0.2307692307692308
 40
0.2307692307692308
 40
0.2307692307692308
 40
0.2692307692307693
 40
0.2692307692307693
 40
0.2692307692307693
 40
0.3076923076923077
 40
0.3076923076923077
 40
0.3076923076923077
 40
0.3461538461538461
 40
0.3461538461538461
 40
0.3461538461538461
 40
0.3846153846153846
 40
0.3846153846153846
 40
0.3846153846153846
 40
0.4230769230769231
 40
0.4230769230769231
 40
0.4230769230769231
 40
0.4615384615384616
 40
0.4615384615384616
 40
0.4615384615384616
 40
0.5
 40
0.5
 40
0.5
 40
0.5384615384615385
 40
0.5384615384615385
 40
0.5384615384615385
 40
0.576923076923077
 40
0.576923076923077
 40
0.576923076923077
 40
0.6153846153846154
 40
0.6153846153846154
 40
0.6153846153846154
 40
0.6538461538461539
 40
0.6538461538461539
 40
0.6538461538461539
 40
0.6923076923076923
 40
0.6923076923076923
 40
0.6923076923076923
 40
0.7307692307692308
 40
0.7307692307692308
 40
0.7307692307692308
 40
0.7692307692307693
 40
0.7692307692307693
 40
0.7692307692307693
 40
0.8076923076923077
 40
0.8076923076923077
 40
0.8076923076923077
 40
0.8461538461538463
 40
0.8461538461538463
 40
0.8461538461538463
 40
0.8846153846153847
 40
0.8846153846153847
 40
0.8846153846153847
 40
0.9230769230769231
 40
0.9230769230769231
 40
0.9230769230769231
 40
0.9615384615384616
 40
0.9615384615384616
 40
0.9615384615384616
 40
1.0
 40
1.0
 40
1.0
 40
1.0
 10
9.86825
 20
-2.06252
 30
0.0
 10
9.86825
 20
-2.06252
 30
0.0
 10
7.47335
 20
-2.06252
 30
0.0
 10
7.47335
 20
-2.06252
 30
0.0
 10
7.47335
 20
-2.06252
 30
0.0
 10
7.47356
 20
-3.06245
 30
0.0
 10
7.47356
 20
-3.06245
 30
0.0
 10
7.47356
 20
-3.06245
 30
0.0
 10
6.17653
 20
-3.06204
 30
0.0
 10
6.17653
 20
-3.06204
 30
0.0
 10
6.17653
 20
-3.06204
 30
0.0
 10
6.23888
 20
-1.14797
 30
0.0
 10
5.37306
 20
-0.23835
 30
0.0
 10
5.37306
 20
-0.23835
 30
0.0
 10
5.37306
 20
-0.06241
 30
0.0
 10
5.37306
 20
-0.06241
 30
0.0
 10
5.37306
 20
-0.06241
 30
0.0
 10
6.95182
 20
-0.06275
 30
0.0
 10
6.95182
 20
-0.06275
 30
0.0
 10
6.95182
 20
-0.06275
 30
0.0
 10
6.95135
 20
0.28683
 30
0.0
 10
6.95135
 20
0.28683
 30
0.0
 10
6.95135
 20
0.28683
 30
0.0
 10
7.98843
 20
0.28683
 30
0.0
 10
7.98843
 20
0.28683
 30
0.0
 10
7.98843
 20
0.28683
 30
0.0
 10
7.98843
 20
-0.06316
 30
0.0
 10
7.98843
 20
-0.06316
 30
0.0
 10
7.98843
 20
-0.06316
 30
0.0
 10
8.04227
 20
-0.66242
 30
0.0
 10
8.04227
 20
-0.66242
 30
0.0
 10
8.04227
 20
-0.66242
 30
0.0
 10
9.86825
 20
-0.66242
 30
0.0
 10
9.86825
 20
-0.66242
 30
0.0
 10
9.86825
 20
-0.66242
 30
0.0
 10
10.21825
 20
-0.66242
 30
0.0
 10
10.21825
 20
-0.66242
 30
0.0
 10
10.21825
 20
-0.66242
 30
0.0
 10
12.04423
 20
-0.66242
 30
0.0
 10
12.04423
 20
-0.66242
 30
0.0
 10
12.04423
 20
-0.66242
 30
0.0
 10
12.09847
 20
-0.06316
 30
0.0
 10
12.09847
 20
-0.06316
 30
0.0
 10
12.09847
 20
-0.06316
 30
0.0
 10
12.09847
 20
0.28683
 30
0.0
 10
12.09847
 20
0.28683
 30
0.0
 10
12.09847
 20
0.28683
 30
0.0
 10
13.13555
 20
0.28683
 30
0.0
 10
13.13555
 20
0.28683
 30
0.0
 10
13.13555
 20
0.28683
 30
0.0
 10
13.13508
 20
-0.06275
 30
0.0
 10
13.13508
 20
-0.06275
 30
0.0
 10
13.13508
 20
-0.06275
 30
0.0
 10
14.71345
 20
-0.06241
 30
0.0
 10
14.71345
 20
-0.06241
 30
0.0
 10
14.71345
 20
-0.06241
 30
0.0
 10
14.71345
 20
-0.23834
 30
0.0
 10
14.71345
 20
-0.23834
 30
0.0
 10
13.84762
 20
-1.14795
 30
0.0
 10
13.90997
 20
-3.06204
 30
0.0
 10
13.90997
 20
-3.06204
 30
0.0
 10
13.90997
 20
-3.06204
 30
0.0
 10
12.61294
 20
-3.06245
 30
0.0
 10
12.61294
 20
-3.06245
 30
0.0
 10
12.61294
 20
-3.06245
 30
0.0
 10
12.61315
 20
-2.06252
 30
0.0
 10
12.61315
 20
-2.06252
 30
0.0
 10
12.61315
 20
-2.06252
 30
0.0
 10
10.21825
 20
-2.06252
 30
0.0
 10
10.21825
 20
-2.06252
 30
0.0
 10
10.21825
 20
-2.06252
 30
0.0
 10
10.21825
 20
-1.36394
 30
0.0
 10
10.21825
 20
-1.36394
 30
0.0
 10
10.21825
 20
-1.36394
 30
0.0
 10
9.86825
 20
-1.36394
 30
0.0
 10
9.86825
 20
-1.36394
 30
0.0
 10
9.86825
 20
-1.36394
 30
0.0
 10
9.86825
 20
-2.06252
 30
0.0
 10
9.86825
 20
-2.06252
 30
0.0
  0
SPLINE
  5
79
330
1F
100
AcDbEntity
  8
layer 1
 62
   250
370
    20
100
AcDbSpline
210
0.0
220
0.0
230
1.0
 70
    11
 71
     3
 72
    83
 73
    79
 74
     0
 42
0.0000000001
 43
0.0000000001
 40
0.0
 40
0.0
 40
0.0
 40
0.0
 40
0.0384615384615385
 40
0.0384615384615385
 40
0.0384615384615385
 40
0.0769230769230769
 40
0.0769230769230769
 40
0.0769230769230769
 40
0.1153846153846154
 40
0.1153846153846154
 40
0.1153846153846154
 40
0.1538461538461539
 40
0.1538461538461539
 40
0.1538461538461539
 40
0.1923076923076923
 40
0.1923076923076923
 40
0.1923076923076923
 40
0.2307692307692308
 40
0.2307692307692308
 40
0.2307692307692308
 40
0.2692307692307693
 40
0.2692307692307693
 40
0.2692307692307693
 40
0.3076923076923077
 40
0.3076923076923077
 40
0.3076923076923077
 40
0.3461538461538461
 40
0.3461538461538461
 40
0.3461538461538461
 40
0.3846153846153846
 40
0.3846153846153846
 40
0.3846153846153846
 40
0.4230769230769231
 40
0.4230769230769231
 40
0.4230769230769231
 40
0.4615384615384616
 40
0.4615384615384616
 40
0.4615384615384616
 40
0.5
 40
0.5
 40
0.5
 40
0.5384615384615385
 40
0.5384615384615385
 40
0.5384615384615385
 40
0.576923076923077
 40
0.576923076923077
 40
0.576923076923077
 40
0.6153846153846154
 40
0.6153846153846154
 40
0.6153846153846154
 40
0.6538461538461539
 40
0.6538461538461539
 40
0.6538461538461539
 40
0.6923076923076923
 40
0.6923076923076923
 40
0.6923076923076923
 40
0.7307692307692308
 40
0.7307692307692308
 40
0.7307692307692308
 40
0.7692307692307693
 40
0.7692307692307693
 40
0.7692307692307693
 40
0.8076923076923077
 40
0.8076923076923077
 40
0.8076923076923077
 40
0.8461538461538463
 40
0.8461538461538463
 40
0.8461538461538463
 40
0.8846153846153847
 40
0.8846153846153847
 40
0.8846153846153847
 40
0.9230769230769231
 40
0.9230769230769231
 40
0.9230769230769231
 40
0.9615384615384616
 40
0.9615384615384616
 40
0.9615384615384616
 40
1.0
 40
1.0
 40
1.0
 40
1.0
 10
10.04325
 20
-5.79813
 30
0.0
 10
10.04325
 20
-5.79813
 30
0.0
 10
7.47335
 20
-5.79813
 30
0.0
 10
7.47335
 20
-5.79813
 30
0.0
 10
7.47335
 20
-5.79813
 30
0.0
 10
7.47356
 20
-6.79806
 30
0.0
 10
7.47356
 20
-6.79806
 30
0.0
 10
7.47356
 20
-6.79806
 30
0.0
 10
6.17653
 20
-6.79765
 30
0.0
 10
6.17653
 20
-6.79765
 30
0.0
 10
6.17653
 20
-6.79765
 30
0.0
 10
6.23888
 20
-4.88358
 30
0.0
 10
5.37306
 20
-3.97396
 30
0.0
 10
5.37306
 20
-3.97396
 30
0.0
 10
5.37306
 20
-3.79802
 30
0.0
 10
5.37306
 20
-3.79802
 30
0.0
 10
5.37306
 20
-3.79802
 30
0.0
 10
6.17694
 20
-3.79836
 30
0.0
 10
6.17694
 20
-3.79836
 30
0.0
 10
6.17694
 20
-3.79836
 30
0.0
 10
6.17647
 20
-3.44878
 30
0.0
 10
6.17647
 20
-3.44878
 30
0.0
 10
6.17647
 20
-3.44878
 30
0.0
 10
7.47378
 20
-3.44878
 30
0.0
 10
7.47378
 20
-3.44878
 30
0.0
 10
7.47378
 20
-3.44878
 30
0.0
 10
7.47378
 20
-3.79877
 30
0.0
 10
7.47378
 20
-3.79877
 30
0.0
 10
7.47378
 20
-3.79877
 30
0.0
 10
8.54227
 20
-4.39803
 30
0.0
 10
8.54227
 20
-4.39803
 30
0.0
 10
8.54227
 20
-4.39803
 30
0.0
 10
9.86825
 20
-4.39803
 30
0.0
 10
9.86825
 20
-4.39803
 30
0.0
 10
9.86825
 20
-4.39803
 30
0.0
 10
9.86825
 20
-5.09955
 30
0.0
 10
9.86825
 20
-5.09955
 30
0.0
 10
9.86825
 20
-5.09955
 30
0.0
 10
10.04325
 20
-5.09955
 30
0.0
 10
10.04325
 20
-5.09955
 30
0.0
 10
10.04325
 20
-5.09955
 30
0.0
 10
10.21825
 20
-5.09955
 30
0.0
 10
10.21825
 20
-5.09955
 30
0.0
 10
10.21825
 20
-5.09955
 30
0.0
 10
10.21825
 20
-4.39803
 30
0.0
 10
10.21825
 20
-4.39803
 30
0.0
 10
10.21825
 20
-4.39803
 30
0.0
 10
11.54423
 20
-4.39803
 30
0.0
 10
11.54423
 20
-4.39803
 30
0.0
 10
11.54423
 20
-4.39803
 30
0.0
 10
12.61272
 20
-3.79877
 30
0.0
 10
12.61272
 20
-3.79877
 30
0.0
 10
12.61272
 20
-3.79877
 30
0.0
 10
12.61272
 20
-3.44878
 30
0.0
 10
12.61272
 20
-3.44878
 30
0.0
 10
12.61272
 20
-3.44878
 30
0.0
 10
13.91003
 20
-3.44878
 30
0.0
 10
13.91003
 20
-3.44878
 30
0.0
 10
13.91003
 20
-3.44878
 30
0.0
 10
13.90956
 20
-3.79836
 30
0.0
 10
13.90956
 20
-3.79836
 30
0.0
 10
13.90956
 20
-3.79836
 30
0.0
 10
14.71345
 20
-3.79802
 30
0.0
 10
14.71345
 20
-3.79802
 30
0.0
 10
14.71345
 20
-3.79802
 30
0.0
 10
14.71345
 20
-3.97395
 30
0.0
 10
14.71345
 20
-3.97395
 30
0.0
 10
13.84762
 20
-4.88356
 30
0.0
 10
13.90997
 20
-6.79765
 30
0.0
 10
13.90997
 20
-6.79765
 30
0.0
 10
13.90997
 20
-6.79765
 30
0.0
 10
12.61294
 20
-6.79806
 30
0.0
 10
12.61294
 20
-6.79806
 30
0.0
 10
12.61294
 20
-6.79806
 30
0.0
 10
12.61315
 20
-5.79813
 30
0.0
 10
12.61315
 20
-5.79813
 30
0.0
 10
12.61315
 20
-5.79813
 30
0.0
 10
10.04325
 20
-5.79813
 30
0.0
 10
10.04325
 20
-5.79813
 30
0.0
  0
SPLINE
  5
7A
330
1F
100
AcDbEntity
  8
layer 1
 62
   250
370
    50
100
AcDbSpline
210
0.0
220
0.0
230
1.0
 70
    11
 71
     3
 72
   158
 73
   154
 74
     0
 42
0.0000000001
 43
0.0000000001
 40
0.0
 40
0.0
 40
0.0
 40
0.0
 40
0.0196078431372549
 40
0.0196078431372549
 40
0.0196078431372549
 40
0.0392156862745098
 40
0.0392156862745098
 40
0.0392156862745098
 40
0.0588235294117647
 40
0.0588235294117647
 40
0.0588235294117647
 40
0.0784313725490196
 40
0.0784313725490196
 40
0.0784313725490196
 40
0.0980392156862745
 40
0.0980392156862745
 40
0.0980392156862745
 40
0.1176470588235294
 40
0.1176470588235294
 40
0.1176470588235294
 40
0.1372549019607843
 40
0.1372549019607843
 40
0.1372549019607843
 40
0.1568627450980392
 40
0.1568627450980392
 40
0.1568627450980392
 40
0.1764705882352941
 40
0.1764705882352941
 40
0.1764705882352941
 40
0.196078431372549
 40
0.196078431372549
 40
0.196078431372549
 40
0.2156862745098039
 40
0.2156862745098039
 40
0.2156862745098039
 40
0.2352941176470588
 40
0.2352941176470588
 40
0.2352941176470588
 40
0.2549019607843137
 40
0.2549019607843137
 40
0.2549019607843137
 40
0.2745098039215687
 40
0.2745098039215687
 40
0.2745098039215687
 40
0.2941176470588235
 40
0.2941176470588235
 40
0.2941176470588235
 40
0.3137254901960784
 40
0.3137254901960784
 40
0.3137254901960784
 40
0.3333333333333333
 40
0.3333333333333333
 40
0.3333333333333333
 40
0.3529411764705882
 40
0.3529411764705882
 40
0.3529411764705882
 40
0.3725490196078431
 40
0.3725490196078431
 40
0.3725490196078431
 40
0.392156862745098
 40
0.392156862745098
 40
0.392156862745098
 40
0.4117647058823529
 40
0.4117647058823529
 40
0.4117647058823529
 40
0.4313725490196079
 40
0.4313725490196079
 40
0.4313725490196079
 40
0.4509803921568628
 40
0.4509803921568628
 40
0.4509803921568628
 40
0.4705882352941176
 40
0.4705882352941176
 40
0.4705882352941176
 40
0.4901960784313725
 40
0.4901960784313725
 40
0.4901960784313725
 40
0.5098039215686274
 40
0.5098039215686274
 40
0.5098039215686274
 40
0.5294117647058824
 40
0.5294117647058824
 40
0.5294117647058824
 40
0.5490196078431373
 40
0.5490196078431373
 40
0.5490196078431373
 40
0.5686274509803921
 40
0.5686274509803921
 40
0.5686274509803921
 40
0.5882352941176471
 40
0.5882352941176471
 40
0.5882352941176471
 40
0.6078431372549019
 40
0.6078431372549019
 40
0.6078431372549019
 40
0.6274509803921569
 40
0.6274509803921569
 40
0.6274509803921569
 40
0.6470588235294118
 40
0.6470588235294118
 40
0.6470588235294118
 40
0.6666666666666666
 40
0.6666666666666666
 40
0.6666666666666666
 40
0.6862745098039216
 40
0.6862745098039216
 40
0.6862745098039216
 40
0.7058823529411764
 40
0.7058823529411764
 40
0.7058823529411764
 40
0.7254901960784313
 40
0.7254901960784313
 40
0.7254901960784313
 40
0.7450980392156863
 40
0.7450980392156863
 40
0.7450980392156863
 40
0.7647058823529411
 40
0.7647058823529411
 40
0.7647058823529411
 40
0.7843137254901961
 40
0.7843137254901961
 40
0.7843137254901961
 40
0.803921568627451
 40
0.803921568627451
 40
0.803921568627451
 40
0.8235294117647058
 40
0.8235294117647058
 40
0.8235294117647058
 40
0.8431372549019608
 40
0.8431372549019608
 40
0.8431372549019608
 40
0.8627450980392157
 40
0.8627450980392157
 40
0.8627450980392157
 40
0.8823529411764706
 40
0.8823529411764706
 40
0.8823529411764706
 40
0.9019607843137255
 40
0.9019607843137255
 40
0.9019607843137255
 40
0.9215686274509803
 40
0.9215686274509803
 40
0.9215686274509803
 40
0.9411764705882353
 40
0.9411764705882353
 40
0.9411764705882353
 40
0.9607843137254902
 40
0.9607843137254902
 40
0.9607843137254902
 40
0.9803921568627451
 40
0.9803921568627451
 40
0.9803921568627451
 40
1.0
 40
1.0
 40
1.0
 40
1.0
 10
10.90515
 20
5.10155
 30
0.0
 10
11.16115
 20
5.30248
 30
0.0
 10
11.32148
 20
5.5902
 30
0.0
 10
11.32148
 20
5.90975
 30
0.0
 10
11.32148
 20
6.22816
 30
0.0
 10
11.16228
 20
6.51496
 30
0.0
 10
10.90656
 20
6.71664
 30
0.0
 10
10.4707
 20
7.05994
 30
0.0
 10
10.18179
 20
7.57891
 30
0.0
 10
10.14667
 20
8.16622
 30
0.0
 10
10.24224
 20
8.18657
 30
0.0
 10
10.31397
 20
8.27146
 30
0.0
 10
10.31397
 20
8.37308
 30
0.0
 10
10.31397
 20
8.48988
 30
0.0
 10
10.21929
 20
8.58452
 30
0.0
 10
10.1025
 20
8.58452
 30
0.0
 10
10.1025
 20
8.58452
 30
0.0
 10
10.1025
 20
8.8111
 30
0.0
 10
10.1025
 20
8.8111
 30
0.0
 10
10.13272
 20
8.83376
 30
0.0
 10
10.15226
 20
8.86992
 30
0.0
 10
10.15226
 20
8.91061
 30
0.0
 10
10.15226
 20
8.95131
 30
0.0
 10
10.13272
 20
8.98744
 30
0.0
 10
10.1025
 20
9.01015
 30
0.0
 10
10.1025
 20
9.01015
 30
0.0
 10
10.1025
 20
9.37462
 30
0.0
 10
10.1025
 20
9.37462
 30
0.0
 10
10.1025
 20
9.37462
 30
0.0
 10
10.29675
 20
9.37462
 30
0.0
 10
10.29675
 20
9.37462
 30
0.0
 10
10.31943
 20
9.34441
 30
0.0
 10
10.35558
 20
9.32487
 30
0.0
 10
10.39626
 20
9.32487
 30
0.0
 10
10.46497
 20
9.32487
 30
0.0
 10
10.52066
 20
9.38053
 30
0.0
 10
10.52066
 20
9.44924
 30
0.0
 10
10.52066
 20
9.51794
 30
0.0
 10
10.46497
 20
9.57364
 30
0.0
 10
10.39626
 20
9.57364
 30
0.0
 10
10.35558
 20
9.57364
 30
0.0
 10
10.31943
 20
9.5541
 30
0.0
 10
10.29675
 20
9.52385
 30
0.0
 10
10.29675
 20
9.52385
 30
0.0
 10
10.1025
 20
9.52385
 30
0.0
 10
10.1025
 20
9.52385
 30
0.0
 10
10.1025
 20
9.52385
 30
0.0
 10
10.1025
 20
9.79951
 30
0.0
 10
10.1025
 20
9.79951
 30
0.0
 10
10.13272
 20
9.82218
 30
0.0
 10
10.15226
 20
9.85833
 30
0.0
 10
10.15226
 20
9.89902
 30
0.0
 10
10.15226
 20
9.96769
 30
0.0
 10
10.09657
 20
10.02341
 30
0.0
 10
10.02786
 20
10.02341
 30
0.0
 10
9.95919
 20
10.02341
 30
0.0
 10
9.90349
 20
9.96769
 30
0.0
 10
9.90349
 20
9.89902
 30
0.0
 10
9.90349
 20
9.85833
 30
0.0
 10
9.92302
 20
9.82218
 30
0.0
 10
9.95323
 20
9.79951
 30
0.0
 10
9.95323
 20
9.79951
 30
0.0
 10
9.95323
 20
9.52385
 30
0.0
 10
9.95323
 20
9.52385
 30
0.0
 10
9.95323
 20
9.52385
 30
0.0
 10
9.75899
 20
9.52385
 30
0.0
 10
9.75899
 20
9.52385
 30
0.0
 10
9.7363
 20
9.5541
 30
0.0
 10
9.70017
 20
9.57364
 30
0.0
 10
9.65948
 20
9.57364
 30
0.0
 10
9.59078
 20
9.57364
 30
0.0
 10
9.5351
 20
9.51794
 30
0.0
 10
9.5351
 20
9.44924
 30
0.0
 10
9.5351
 20
9.38053
 30
0.0
 10
9.59078
 20
9.32487
 30
0.0
 10
9.65948
 20
9.32487
 30
0.0
 10
9.70017
 20
9.32487
 30
0.0
 10
9.7363
 20
9.34441
 30
0.0
 10
9.75899
 20
9.37462
 30
0.0
 10
9.75899
 20
9.37462
 30
0.0
 10
9.95323
 20
9.37462
 30
0.0
 10
9.95323
 20
9.37462
 30
0.0
 10
9.95323
 20
9.37462
 30
0.0
 10
9.95323
 20
9.01015
 30
0.0
 10
9.95323
 20
9.01015
 30
0.0
 10
9.92302
 20
8.98744
 30
0.0
 10
9.90349
 20
8.95131
 30
0.0
 10
9.90349
 20
8.91061
 30
0.0
 10
9.90349
 20
8.86992
 30
0.0
 10
9.92302
 20
8.83376
 30
0.0
 10
9.95323
 20
8.8111
 30
0.0
 10
9.95323
 20
8.8111
 30
0.0
 10
9.95323
 20
8.58452
 30
0.0
 10
9.95323
 20
8.58452
 30
0.0
 10
9.83647
 20
8.58452
 30
0.0
 10
9.74179
 20
8.48988
 30
0.0
 10
9.74179
 20
8.37308
 30
0.0
 10
9.74179
 20
8.27146
 30
0.0
 10
9.8135
 20
8.18657
 30
0.0
 10
9.90909
 20
8.16622
 30
0.0
 10
9.87389
 20
7.57759
 30
0.0
 10
9.58374
 20
7.05759
 30
0.0
 10
9.14802
 20
6.7157
 30
0.0
 10
8.89372
 20
6.51539
 30
0.0
 10
8.73427
 20
6.22841
 30
0.0
 10
8.73427
 20
5.90975
 30
0.0
 10
8.73427
 20
5.5902
 30
0.0
 10
8.89459
 20
5.30248
 30
0.0
 10
9.15059
 20
5.10155
 30
0.0
 10
8.75131
 20
4.98219
 30
0.0
 10
8.40228
 20
4.78382
 30
0.0
 10
8.13512
 20
4.53091
 30
0.0
 10
7.96385
 20
4.65938
 30
0.0
 10
7.75109
 20
4.73551
 30
0.0
 10
7.52051
 20
4.73551
 30
0.0
 10
7.22494
 20
4.73551
 30
0.0
 10
6.95863
 20
4.61042
 30
0.0
 10
6.7715
 20
4.41034
 30
0.0
 10
6.7715
 20
4.41034
 30
0.0
 10
6.03971
 20
4.41034
 30
0.0
 10
6.03971
 20
4.41034
 30
0.0
 10
6.03971
 20
4.41034
 30
0.0
 10
6.03971
 20
1.24906
 30
0.0
 10
6.03971
 20
1.24906
 30
0.0
 10
6.03971
 20
1.24906
 30
0.0
 10
7.54231
 20
1.24906
 30
0.0
 10
7.54231
 20
1.24906
 30
0.0
 10
7.73713
 20
2.31847
 30
0.0
 10
8.67886
 20
3.13585
 30
0.0
 10
9.80228
 20
3.13585
 30
0.0
 10
9.80228
 20
3.13585
 30
0.0
 10
10.25346
 20
3.13585
 30
0.0
 10
10.25346
 20
3.13585
 30
0.0
 10
11.37688
 20
3.13585
 30
0.0
 10
12.31861
 20
2.31846
 30
0.0
 10
12.51343
 20
1.24906
 30
0.0
 10
12.51343
 20
1.24906
 30
0.0
 10
14.01603
 20
1.24906
 30
0.0
 10
14.01603
 20
1.24906
 30
0.0
 10
14.01603
 20
1.24906
 30
0.0
 10
14.01603
 20
4.41034
 30
0.0
 10
14.01603
 20
4.41034
 30
0.0
 10
14.01603
 20
4.41034
 30
0.0
 10
13.28424
 20
4.41034
 30
0.0
 10
13.28424
 20
4.41034
 30
0.0
 10
13.09711
 20
4.61042
 30
0.0
 10
12.8308
 20
4.73551
 30
0.0
 10
12.53523
 20
4.73551
 30
0.0
 10
12.30465
 20
4.73551
 30
0.0
 10
12.09189
 20
4.65938
 30
0.0
 10
11.92062
 20
4.53091
 30
0.0
 10
11.65346
 20
4.78382
 30
0.0
 10
11.30443
 20
4.98219
 30
0.0
 10
10.90515
 20
5.10155
 30
0.0
  0
SPLINE
  5
7B
330
1F
100
AcDbEntity
  8
layer 1
 62
   250
370
    50
100
AcDbSpline
210
0.0
220
0.0
230
1.0
 70
    11
 71
     3
 72
    17
 73
    13
 74
     0
 42
0.0000000001
 43
0.0000000001
 40
0.0
 40
0.0
 40
0.0
 40
0.0
 40
0.25
 40
0.25
 40
0.25
 40
0.5
 40
0.5
 40
0.5
 40
0.75
 40
0.75
 40
0.75
 40
1.0
 40
1.0
 40
1.0
 40
1.0
 10
6.40787
 20
3.72802
 30
0.0
 10
6.40787
 20
3.72802
 30
0.0
 10
6.77787
 20
3.72802
 30
0.0
 10
6.77787
 20
3.72802
 30
0.0
 10
6.77787
 20
3.72802
 30
0.0
 10
6.77787
 20
3.18062
 30
0.0
 10
6.77787
 20
3.18062
 30
0.0
 10
6.77787
 20
3.18062
 30
0.0
 10
6.40787
 20
3.18062
 30
0.0
 10
6.40787
 20
3.18062
 30
0.0
 10
6.40787
 20
3.18062
 30
0.0
 10
6.40787
 20
3.72802
 30
0.0
 10
6.40787
 20
3.72802
 30
0.0
  0
SPLINE
  5
7C
330
1F
100
AcDbEntity
  8
layer 1
 62
   250
370
    50
100
AcDbSpline
210
0.0
220
0.0
230
1.0
 70
    11
 71
     3
 72
    17
 73
    13
 74
     0
 42
0.0000000001
 43
0.0000000001
 40
0.0
 40
0.0
 40
0.0
 40
0.0
 40
0.25
 40
0.25
 40
0.25
 40
0.5
 40
0.5
 40
0.5
 40
0.75
 40
0.75
 40
0.75
 40
1.0
 40
1.0
 40
1.0
 40
1.0
 10
13.27787
 20
3.72802
 30
0.0
 10
13.27787
 20
3.72802
 30
0.0
 10
13.64787
 20
3.72802
 30
0.0
 10
13.64787
 20
3.72802
 30
0.0
 10
13.64787
 20
3.72802
 30
0.0
 10
13.64787
 20
3.18062
 30
0.0
 10
13.64787
 20
3.18062
 30
0.0
 10
13.64787
 20
3.18062
 30
0.0
 10
13.27787
 20
3.18062
 30
0.0
 10
13.27787
 20
3.18062
 30
0.0
 10
13.27787
 20
3.18062
 30
0.0
 10
13.27787
 20
3.72802
 30
0.0
 10
13.27787
 20
3.72802
 30
0.0
  0
SPLINE
  5
7D
330
1F
100
AcDbEntity
  8
layer 1
 62
   250
370
    50
100
AcDbSpline
210
0.0
220
0.0
230
1.0
 70
    11
 71
     3
 72
   392
 73
   388
 74
     0
 42
0.0000000001
 43
0.0000000001
 40
0.0
 40
0.0
 40
0.0
 40
0.0
 40
0.0077519379844961
 40
0.0077519379844961
 40
0.0077519379844961
 40
0.0155038759689922
 40
0.0155038759689922
 40
0.0155038759689922
 40
0.0232558139534884
 40
0.0232558139534884
 40
0.0232558139534884
 40
0.0310077519379845
 40
0.0310077519379845
 40
0.0310077519379845
 40
0.0387596899224806
 40
0.0387596899224806
 40
0.0387596899224806
 40
0.0465116279069767
 40
0.0465116279069767
 40
0.0465116279069767
 40
0.0542635658914729
 40
0.0542635658914729
 40
0.0542635658914729
 40
0.062015503875969
 40
0.062015503875969
 40
0.062015503875969
 40
0.0697674418604651
 40
0.0697674418604651
 40
0.0697674418604651
 40
0.0775193798449612
 40
0.0775193798449612
 40
0.0775193798449612
 40
0.0852713178294574
 40
0.0852713178294574
 40
0.0852713178294574
 40
0.0930232558139535
 40
0.0930232558139535
 40
0.0930232558139535
 40
0.1007751937984496
 40
0.1007751937984496
 40
0.1007751937984496
 40
0.1085271317829457
 40
0.1085271317829457
 40
0.1085271317829457
 40
0.1162790697674419
 40
0.1162790697674419
 40
0.1162790697674419
 40
0.124031007751938
 40
0.124031007751938
 40
0.124031007751938
 40
0.1317829457364341
 40
0.1317829457364341
 40
0.1317829457364341
 40
0.1395348837209302
 40
0.1395348837209302
 40
0.1395348837209302
 40
0.1472868217054263
 40
0.1472868217054263
 40
0.1472868217054263
 40
0.1550387596899225
 40
0.1550387596899225
 40
0.1550387596899225
 40
0.1627906976744186
 40
0.1627906976744186
 40
0.1627906976744186
 40
0.1705426356589147
 40
0.1705426356589147
 40
0.1705426356589147
 40
0.1782945736434108
 40
0.1782945736434108
 40
0.1782945736434108
 40
0.186046511627907
 40
0.186046511627907
 40
0.186046511627907
 40
0.1937984496124031
 40
0.1937984496124031
 40
0.1937984496124031
 40
0.2015503875968992
 40
0.2015503875968992
 40
0.2015503875968992
 40
0.2093023255813953
 40
0.2093023255813953
 40
0.2093023255813953
 40
0.2170542635658915
 40
0.2170542635658915
 40
0.2170542635658915
 40
0.2248062015503876
 40
0.2248062015503876
 40
0.2248062015503876
 40
0.2325581395348837
 40
0.2325581395348837
 40
0.2325581395348837
 40
0.2403100775193798
 40
0.2403100775193798
 40
0.2403100775193798
 40
0.248062015503876
 40
0.248062015503876
 40
0.248062015503876
 40
0.2558139534883721
 40
0.2558139534883721
 40
0.2558139534883721
 40
0.2635658914728682
 40
0.2635658914728682
 40
0.2635658914728682
 40
0.2713178294573643
 40
0.2713178294573643
 40
0.2713178294573643
 40
0.2790697674418605
 40
0.2790697674418605
 40
0.2790697674418605
 40
0.2868217054263566
 40
0.2868217054263566
 40
0.2868217054263566
 40
0.2945736434108527
 40
0.2945736434108527
 40
0.2945736434108527
 40
0.3023255813953488
 40
0.3023255813953488
 40
0.3023255813953488
 40
0.310077519379845
 40
0.310077519379845
 40
0.310077519379845
 40
0.3178294573643411
 40
0.3178294573643411
 40
0.3178294573643411
 40
0.3255813953488372
 40
0.3255813953488372
 40
0.3255813953488372
 40
0.3333333333333333
 40
0.3333333333333333
 40
0.3333333333333333
 40
0.3410852713178295
 40
0.3410852713178295
 40
0.3410852713178295
 40
0.3488372093023256
 40
0.3488372093023256
 40
0.3488372093023256
 40
0.3565891472868217
 40
0.3565891472868217
 40
0.3565891472868217
 40
0.3643410852713178
 40
0.3643410852713178
 40
0.3643410852713178
 40
0.3720930232558139
 40
0.3720930232558139
 40
0.3720930232558139
 40
0.3798449612403101
 40
0.3798449612403101
 40
0.3798449612403101
 40
0.3875968992248062
 40
0.3875968992248062
 40
0.3875968992248062
 40
0.3953488372093023
 40
0.3953488372093023
 40
0.3953488372093023
 40
0.4031007751937984
 40
0.4031007751937984
 40
0.4031007751937984
 40
0.4108527131782946
 40
0.4108527131782946
 40
0.4108527131782946
 40
0.4186046511627907
 40
0.4186046511627907
 40
0.4186046511627907
 40
0.4263565891472868
 40
0.4263565891472868
 40
0.4263565891472868
 40
0.4341085271317829
 40
0.4341085271317829
 40
0.4341085271317829
 40
0.4418604651162791
 40
0.4418604651162791
 40
0.4418604651162791
 40
0.4496124031007752
 40
0.4496124031007752
 40
0.4496124031007752
 40
0.4573643410852713
 40
0.4573643410852713
 40
0.4573643410852713
 40
0.4651162790697674
 40
0.4651162790697674
 40
0.4651162790697674
 40
0.4728682170542636
 40
0.4728682170542636
 40
0.4728682170542636
 40
0.4806201550387597
 40
0.4806201550387597
 40
0.4806201550387597
 40
0.4883720930232558
 40
0.4883720930232558
 40
0.4883720930232558
 40
0.4961240310077519
 40
0.4961240310077519
 40
0.4961240310077519
 40
0.5038759689922481
 40
0.5038759689922481
 40
0.5038759689922481
 40
0.5116279069767442
 40
0.5116279069767442
 40
0.5116279069767442
 40
0.5193798449612403
 40
0.5193798449612403
 40
0.5193798449612403
 40
0.5271317829457365
 40
0.5271317829457365
 40
0.5271317829457365
 40
0.5348837209302325
 40
0.5348837209302325
 40
0.5348837209302325
 40
0.5426356589147286
 40
0.5426356589147286
 40
0.5426356589147286
 40
0.5503875968992248
 40
0.5503875968992248
 40
0.5503875968992248
 40
0.5581395348837209
 40
0.5581395348837209
 40
0.5581395348837209
 40
0.5658914728682171
 40
0.5658914728682171
 40
0.5658914728682171
 40
0.5736434108527132
 40
0.5736434108527132
 40
0.5736434108527132
 40
0.5813953488372093
 40
0.5813953488372093
 40
0.5813953488372093
 40
0.5891472868217054
 40
0.5891472868217054
 40
0.5891472868217054
 40
0.5968992248062015
 40
0.5968992248062015
 40
0.5968992248062015
 40
0.6046511627906976
 40
0.6046511627906976
 40
0.6046511627906976
 40
0.6124031007751938
 40
0.6124031007751938
 40
0.6124031007751938
 40
0.6201550387596899
 40
0.6201550387596899
 40
0.6201550387596899
 40
0.627906976744186
 40
0.627906976744186
 40
0.627906976744186
 40
0.6356589147286822
 40
0.6356589147286822
 40
0.6356589147286822
 40
0.6434108527131783
 40
0.6434108527131783
 40
0.6434108527131783
 40
0.6511627906976745
 40
0.6511627906976745
 40
0.6511627906976745
 40
0.6589147286821705
 40
0.6589147286821705
 40
0.6589147286821705
 40
0.6666666666666666
 40
0.6666666666666666
 40
0.6666666666666666
 40
0.6744186046511628
 40
0.6744186046511628
 40
0.6744186046511628
 40
0.6821705426356589
 40
0.6821705426356589
 40
0.6821705426356589
 40
0.689922480620155
 40
0.689922480620155
 40
0.689922480620155
 40
0.6976744186046512
 40
0.6976744186046512
 40
0.6976744186046512
 40
0.7054263565891473
 40
0.7054263565891473
 40
0.7054263565891473
 40
0.7131782945736433
 40
0.7131782945736433
 40
0.7131782945736433
 40
0.7209302325581395
 40
0.7209302325581395
 40
0.7209302325581395
 40
0.7286821705426356
 40
0.7286821705426356
 40
0.7286821705426356
 40
0.7364341085271318
 40
0.7364341085271318
 40
0.7364341085271318
 40
0.7441860465116279
 40
0.7441860465116279
 40
0.7441860465116279
 40
0.751937984496124
 40
0.751937984496124
 40
0.751937984496124
 40
0.7596899224806202
 40
0.7596899224806202
 40
0.7596899224806202
 40
0.7674418604651163
 40
0.7674418604651163
 40
0.7674418604651163
 40
0.7751937984496124
 40
0.7751937984496124
 40
0.7751937984496124
 40
0.7829457364341085
 40
0.7829457364341085
 40
0.7829457364341085
 40
0.7906976744186046
 40
0.7906976744186046
 40
0.7906976744186046
 40
0.7984496124031008
 40
0.7984496124031008
 40
0.7984496124031008
 40
0.8062015503875969
 40
0.8062015503875969
 40
0.8062015503875969
 40
0.813953488372093
 40
0.813953488372093
 40
0.813953488372093
 40
0.8217054263565892
 40
0.8217054263565892
 40
0.8217054263565892
 40
0.8294573643410853
 40
0.8294573643410853
 40
0.8294573643410853
 40
0.8372093023255813
 40
0.8372093023255813
 40
0.8372093023255813
 40
0.8449612403100775
 40
0.8449612403100775
 40
0.8449612403100775
 40
0.8527131782945736
 40
0.8527131782945736
 40
0.8527131782945736
 40
0.8604651162790697
 40
0.8604651162790697
 40
0.8604651162790697
 40
0.8682170542635659
 40
0.8682170542635659
 40
0.8682170542635659
 40
0.875968992248062
 40
0.875968992248062
 40
0.875968992248062
 40
0.8837209302325582
 40
0.8837209302325582
 40
0.8837209302325582
 40
0.8914728682170543
 40
0.8914728682170543
 40
0.8914728682170543
 40
0.8992248062015504
 40
0.8992248062015504
 40
0.8992248062015504
 40
0.9069767441860465
 40
0.9069767441860465
 40
0.9069767441860465
 40
0.9147286821705426
 40
0.9147286821705426
 40
0.9147286821705426
 40
0.9224806201550387
 40
0.9224806201550387
 40
0.9224806201550387
 40
0.9302325581395349
 40
0.9302325581395349
 40
0.9302325581395349
 40
0.937984496124031
 40
0.937984496124031
 40
0.937984496124031
 40
0.9457364341085271
 40
0.9457364341085271
 40
0.9457364341085271
 40
0.9534883720930233
 40
0.9534883720930233
 40
0.9534883720930233
 40
0.9612403100775193
 40
0.9612403100775193
 40
0.9612403100775193
 40
0.9689922480620154
 40
0.9689922480620154
 40
0.9689922480620154
 40
0.9767441860465116
 40
0.9767441860465116
 40
0.9767441860465116
 40
0.9844961240310077
 40
0.9844961240310077
 40
0.9844961240310077
 40
0.9922480620155039
 40
0.9922480620155039
 40
0.9922480620155039
 40
1.0
 40
1.0
 40
1.0
 40
1.0
 10
-1.91156
 20
6.99154
 30
0.0
 10
-1.91156
 20
6.99154
 30
0.0
 10
-3.08979
 20
6.99154
 30
0.0
 10
-3.08979
 20
6.99154
 30
0.0
 10
-3.08979
 20
6.99154
 30
0.0
 10
-3.08979
 20
6.57029
 30
0.0
 10
-3.08979
 20
6.57029
 30
0.0
 10
-3.55968
 20
6.94396
 30
0.0
 10
-3.87178
 20
7.50759
 30
0.0
 10
-3.90991
 20
8.14501
 30
0.0
 10
-3.80561
 20
8.16724
 30
0.0
 10
-3.72734
 20
8.25986
 30
0.0
 10
-3.72734
 20
8.37075
 30
0.0
 10
-3.72734
 20
8.49817
 30
0.0
 10
-3.83066
 20
8.60146
 30
0.0
 10
-3.95808
 20
8.60146
 30
0.0
 10
-3.95808
 20
8.60146
 30
0.0
 10
-3.95808
 20
8.8487
 30
0.0
 10
-3.95808
 20
8.8487
 30
0.0
 10
-3.92511
 20
8.87344
 30
0.0
 10
-3.9038
 20
8.91286
 30
0.0
 10
-3.9038
 20
8.95728
 30
0.0
 10
-3.9038
 20
9.00172
 30
0.0
 10
-3.92511
 20
9.04115
 30
0.0
 10
-3.95808
 20
9.06592
 30
0.0
 10
-3.95808
 20
9.06592
 30
0.0
 10
-3.95808
 20
9.4636
 30
0.0
 10
-3.95808
 20
9.4636
 30
0.0
 10
-3.95808
 20
9.4636
 30
0.0
 10
-3.74613
 20
9.4636
 30
0.0
 10
-3.74613
 20
9.4636
 30
0.0
 10
-3.72136
 20
9.43063
 30
0.0
 10
-3.68194
 20
9.4093
 30
0.0
 10
-3.63751
 20
9.4093
 30
0.0
 10
-3.56257
 20
9.4093
 30
0.0
 10
-3.50181
 20
9.47008
 30
0.0
 10
-3.50181
 20
9.54501
 30
0.0
 10
-3.50181
 20
9.62001
 30
0.0
 10
-3.56257
 20
9.68078
 30
0.0
 10
-3.63751
 20
9.68078
 30
0.0
 10
-3.68194
 20
9.68078
 30
0.0
 10
-3.72136
 20
9.65944
 30
0.0
 10
-3.74613
 20
9.62648
 30
0.0
 10
-3.74613
 20
9.62648
 30
0.0
 10
-3.95808
 20
9.62648
 30
0.0
 10
-3.95808
 20
9.62648
 30
0.0
 10
-3.95808
 20
9.62648
 30
0.0
 10
-3.95808
 20
9.9272
 30
0.0
 10
-3.95808
 20
9.9272
 30
0.0
 10
-3.92511
 20
9.95199
 30
0.0
 10
-3.9038
 20
9.99141
 30
0.0
 10
-3.9038
 20
10.03584
 30
0.0
 10
-3.9038
 20
10.11077
 30
0.0
 10
-3.96457
 20
10.17151
 30
0.0
 10
-4.03952
 20
10.17151
 30
0.0
 10
-4.11447
 20
10.17151
 30
0.0
 10
-4.17524
 20
10.11077
 30
0.0
 10
-4.17524
 20
10.03584
 30
0.0
 10
-4.17524
 20
9.99141
 30
0.0
 10
-4.15393
 20
9.95199
 30
0.0
 10
-4.12095
 20
9.9272
 30
0.0
 10
-4.12095
 20
9.9272
 30
0.0
 10
-4.12095
 20
9.62648
 30
0.0
 10
-4.12095
 20
9.62648
 30
0.0
 10
-4.12095
 20
9.62648
 30
0.0
 10
-4.33293
 20
9.62648
 30
0.0
 10
-4.33293
 20
9.62648
 30
0.0
 10
-4.35768
 20
9.65944
 30
0.0
 10
-4.39709
 20
9.68078
 30
0.0
 10
-4.4415
 20
9.68078
 30
0.0
 10
-4.51646
 20
9.68078
 30
0.0
 10
-4.57723
 20
9.62001
 30
0.0
 10
-4.57723
 20
9.54501
 30
0.0
 10
-4.57723
 20
9.47008
 30
0.0
 10
-4.51646
 20
9.4093
 30
0.0
 10
-4.4415
 20
9.4093
 30
0.0
 10
-4.39709
 20
9.4093
 30
0.0
 10
-4.35768
 20
9.43063
 30
0.0
 10
-4.33293
 20
9.4636
 30
0.0
 10
-4.33293
 20
9.4636
 30
0.0
 10
-4.12095
 20
9.4636
 30
0.0
 10
-4.12095
 20
9.4636
 30
0.0
 10
-4.12095
 20
9.4636
 30
0.0
 10
-4.12095
 20
9.06592
 30
0.0
 10
-4.12095
 20
9.06592
 30
0.0
 10
-4.15393
 20
9.04115
 30
0.0
 10
-4.17524
 20
9.00172
 30
0.0
 10
-4.17524
 20
8.95728
 30
0.0
 10
-4.17524
 20
8.91286
 30
0.0
 10
-4.15393
 20
8.87344
 30
0.0
 10
-4.12095
 20
8.8487
 30
0.0
 10
-4.12095
 20
8.8487
 30
0.0
 10
-4.12095
 20
8.60146
 30
0.0
 10
-4.12095
 20
8.60146
 30
0.0
 10
-4.24838
 20
8.60146
 30
0.0
 10
-4.35167
 20
8.49817
 30
0.0
 10
-4.35167
 20
8.37075
 30
0.0
 10
-4.35167
 20
8.25986
 30
0.0
 10
-4.27343
 20
8.16724
 30
0.0
 10
-4.16914
 20
8.14501
 30
0.0
 10
-4.20746
 20
7.50439
 30
0.0
 10
-4.52246
 20
6.9384
 30
0.0
 10
-4.99706
 20
6.56424
 30
0.0
 10
-5.27658
 20
6.34463
 30
0.0
 10
-5.45107
 20
6.03103
 30
0.0
 10
-5.45107
 20
5.68282
 30
0.0
 10
-5.45107
 20
5.24284
 30
0.0
 10
-5.17256
 20
4.85821
 30
0.0
 10
-4.75728
 20
4.64931
 30
0.0
 10
-4.75728
 20
4.64931
 30
0.0
 10
-4.75728
 20
3.96699
 30
0.0
 10
-4.75728
 20
3.96699
 30
0.0
 10
-4.75728
 20
3.96699
 30
0.0
 10
-5.28865
 20
3.96699
 30
0.0
 10
-5.28865
 20
3.96699
 30
0.0
 10
-5.28865
 20
3.96699
 30
0.0
 10
-5.28865
 20
3.41959
 30
0.0
 10
-5.28865
 20
3.41959
 30
0.0
 10
-5.28865
 20
3.41959
 30
0.0
 10
-4.75728
 20
3.41959
 30
0.0
 10
-4.75728
 20
3.41959
 30
0.0
 10
-4.75728
 20
3.41959
 30
0.0
 10
-4.75728
 20
3.04654
 30
0.0
 10
-4.75728
 20
3.04654
 30
0.0
 10
-4.75728
 20
3.04654
 30
0.0
 10
-4.75728
 20
2.15702
 30
0.0
 10
-4.75728
 20
2.15702
 30
0.0
 10
-4.75728
 20
2.15702
 30
0.0
 10
-4.75728
 20
-1.35142
 30
0.0
 10
-4.75728
 20
-1.35142
 30
0.0
 10
-4.75728
 20
-1.35142
 30
0.0
 10
-2.60631
 20
-1.35142
 30
0.0
 10
-2.60631
 20
-1.35142
 30
0.0
 10
-2.60631
 20
-1.35142
 30
0.0
 10
-2.60631
 20
-1.72143
 30
0.0
 10
-2.60631
 20
-1.72143
 30
0.0
 10
-2.60631
 20
-1.72143
 30
0.0
 10
1.39369
 20
-1.72143
 30
0.0
 10
1.39369
 20
-1.72143
 30
0.0
 10
1.39369
 20
-1.72143
 30
0.0
 10
1.39368
 20
-1.35142
 30
0.0
 10
1.39368
 20
-1.35142
 30
0.0
 10
1.39368
 20
-1.35142
 30
0.0
 10
3.54469
 20
-1.35142
 30
0.0
 10
3.54469
 20
-1.35142
 30
0.0
 10
3.54469
 20
-1.35142
 30
0.0
 10
3.54469
 20
2.15702
 30
0.0
 10
3.54469
 20
2.15702
 30
0.0
 10
3.54469
 20
2.15702
 30
0.0
 10
3.54469
 20
3.2433
 30
0.0
 10
3.54469
 20
3.2433
 30
0.0
 10
3.54469
 20
3.2433
 30
0.0
 10
3.54469
 20
3.41959
 30
0.0
 10
3.54469
 20
3.41959
 30
0.0
 10
3.54469
 20
3.41959
 30
0.0
 10
4.07605
 20
3.41959
 30
0.0
 10
4.07605
 20
3.41959
 30
0.0
 10
4.07605
 20
3.41959
 30
0.0
 10
4.07605
 20
3.96699
 30
0.0
 10
4.07605
 20
3.96699
 30
0.0
 10
4.07605
 20
3.96699
 30
0.0
 10
3.54469
 20
3.96699
 30
0.0
 10
3.54469
 20
3.96699
 30
0.0
 10
3.54469
 20
3.96699
 30
0.0
 10
3.54469
 20
4.64931
 30
0.0
 10
3.54469
 20
4.64931
 30
0.0
 10
3.95997
 20
4.85821
 30
0.0
 10
4.23846
 20
5.24284
 30
0.0
 10
4.23846
 20
5.68282
 30
0.0
 10
4.23846
 20
6.0301
 30
0.0
 10
4.06489
 20
6.34296
 30
0.0
 10
3.78768
 20
6.56171
 30
0.0
 10
3.31171
 20
6.93501
 30
0.0
 10
2.99496
 20
7.5025
 30
0.0
 10
2.95655
 20
8.14501
 30
0.0
 10
3.06084
 20
8.16724
 30
0.0
 10
3.13909
 20
8.25986
 30
0.0
 10
3.13909
 20
8.37075
 30
0.0
 10
3.13909
 20
8.49817
 30
0.0
 10
3.03578
 20
8.60146
 30
0.0
 10
2.90835
 20
8.60146
 30
0.0
 10
2.90835
 20
8.60146
 30
0.0
 10
2.90835
 20
8.8487
 30
0.0
 10
2.90835
 20
8.8487
 30
0.0
 10
2.94131
 20
8.87344
 30
0.0
 10
2.96264
 20
8.91286
 30
0.0
 10
2.96264
 20
8.95728
 30
0.0
 10
2.96264
 20
9.00172
 30
0.0
 10
2.94131
 20
9.04115
 30
0.0
 10
2.90835
 20
9.06592
 30
0.0
 10
2.90835
 20
9.06592
 30
0.0
 10
2.90835
 20
9.4636
 30
0.0
 10
2.90835
 20
9.4636
 30
0.0
 10
2.90835
 20
9.4636
 30
0.0
 10
3.12032
 20
9.4636
 30
0.0
 10
3.12032
 20
9.4636
 30
0.0
 10
3.14506
 20
9.43063
 30
0.0
 10
3.1845
 20
9.4093
 30
0.0
 10
3.22891
 20
9.4093
 30
0.0
 10
3.30386
 20
9.4093
 30
0.0
 10
3.36461
 20
9.47008
 30
0.0
 10
3.36461
 20
9.54501
 30
0.0
 10
3.36461
 20
9.62001
 30
0.0
 10
3.30386
 20
9.68078
 30
0.0
 10
3.22891
 20
9.68078
 30
0.0
 10
3.1845
 20
9.68078
 30
0.0
 10
3.14506
 20
9.65944
 30
0.0
 10
3.12032
 20
9.62648
 30
0.0
 10
3.12032
 20
9.62648
 30
0.0
 10
2.90835
 20
9.62648
 30
0.0
 10
2.90835
 20
9.62648
 30
0.0
 10
2.90835
 20
9.62648
 30
0.0
 10
2.90835
 20
9.9272
 30
0.0
 10
2.90835
 20
9.9272
 30
0.0
 10
2.94131
 20
9.95199
 30
0.0
 10
2.96264
 20
9.99141
 30
0.0
 10
2.96264
 20
10.03584
 30
0.0
 10
2.96264
 20
10.11077
 30
0.0
 10
2.90185
 20
10.17151
 30
0.0
 10
2.82691
 20
10.17151
 30
0.0
 10
2.75196
 20
10.17151
 30
0.0
 10
2.69121
 20
10.11077
 30
0.0
 10
2.69121
 20
10.03584
 30
0.0
 10
2.69121
 20
9.99141
 30
0.0
 10
2.71252
 20
9.95199
 30
0.0
 10
2.74547
 20
9.9272
 30
0.0
 10
2.74547
 20
9.9272
 30
0.0
 10
2.74547
 20
9.62648
 30
0.0
 10
2.74547
 20
9.62648
 30
0.0
 10
2.74547
 20
9.62648
 30
0.0
 10
2.53354
 20
9.62648
 30
0.0
 10
2.53354
 20
9.62648
 30
0.0
 10
2.50877
 20
9.65944
 30
0.0
 10
2.46934
 20
9.68078
 30
0.0
 10
2.42493
 20
9.68078
 30
0.0
 10
2.34999
 20
9.68078
 30
0.0
 10
2.28922
 20
9.62001
 30
0.0
 10
2.28922
 20
9.54501
 30
0.0
 10
2.28922
 20
9.47008
 30
0.0
 10
2.34999
 20
9.4093
 30
0.0
 10
2.42493
 20
9.4093
 30
0.0
 10
2.46934
 20
9.4093
 30
0.0
 10
2.50877
 20
9.43063
 30
0.0
 10
2.53354
 20
9.4636
 30
0.0
 10
2.53354
 20
9.4636
 30
0.0
 10
2.74547
 20
9.4636
 30
0.0
 10
2.74547
 20
9.4636
 30
0.0
 10
2.74547
 20
9.4636
 30
0.0
 10
2.74547
 20
9.06592
 30
0.0
 10
2.74547
 20
9.06592
 30
0.0
 10
2.71252
 20
9.04115
 30
0.0
 10
2.69121
 20
9.00172
 30
0.0
 10
2.69121
 20
8.95728
 30
0.0
 10
2.69121
 20
8.91286
 30
0.0
 10
2.71252
 20
8.87344
 30
0.0
 10
2.74547
 20
8.8487
 30
0.0
 10
2.74547
 20
8.8487
 30
0.0
 10
2.74547
 20
8.60146
 30
0.0
 10
2.74547
 20
8.60146
 30
0.0
 10
2.61805
 20
8.60146
 30
0.0
 10
2.51475
 20
8.49817
 30
0.0
 10
2.51475
 20
8.37075
 30
0.0
 10
2.51475
 20
8.25986
 30
0.0
 10
2.59299
 20
8.16724
 30
0.0
 10
2.69731
 20
8.14501
 30
0.0
 10
2.65918
 20
7.50759
 30
0.0
 10
2.34706
 20
6.94431
 30
0.0
 10
1.8772
 20
6.57062
 30
0.0
 10
1.8772
 20
6.57062
 30
0.0
 10
1.8772
 20
6.99154
 30
0.0
 10
1.8772
 20
6.99154
 30
0.0
 10
1.8772
 20
6.99154
 30
0.0
 10
0.69894
 20
6.99154
 30
0.0
 10
0.69894
 20
6.99154
 30
0.0
 10
0.69894
 20
6.99154
 30
0.0
 10
0.69894
 20
8.38628
 30
0.0
 10
0.69894
 20
8.38628
 30
0.0
 10
1.55071
 20
8.78022
 30
0.0
 10
2.1288
 20
9.5478
 30
0.0
 10
2.1288
 20
10.43008
 30
0.0
 10
2.1288
 20
11.10334
 30
0.0
 10
1.79221
 20
11.70971
 30
0.0
 10
1.25151
 20
12.13614
 30
0.0
 10
0.32998
 20
12.862
 30
0.0
 10
-0.28088
 20
13.95927
 30
0.0
 10
-0.35512
 20
15.20108
 30
0.0
 10
-0.15304
 20
15.24406
 30
0.0
 10
-0.00142
 20
15.42355
 30
0.0
 10
-0.00142
 20
15.63842
 30
0.0
 10
-0.00142
 20
15.88538
 30
0.0
 10
-0.20158
 20
16.08549
 30
0.0
 10
-0.44852
 20
16.08549
 30
0.0
 10
-0.44852
 20
16.08549
 30
0.0
 10
-0.44852
 20
16.56457
 30
0.0
 10
-0.44852
 20
16.56457
 30
0.0
 10
-0.38462
 20
16.61247
 30
0.0
 10
-0.34333
 20
16.68894
 30
0.0
 10
-0.34333
 20
16.77493
 30
0.0
 10
-0.34333
 20
16.861
 30
0.0
 10
-0.38462
 20
16.9374
 30
0.0
 10
-0.44852
 20
16.9854
 30
0.0
 10
-0.44852
 20
16.9854
 30
0.0
 10
-0.44852
 20
17.75601
 30
0.0
 10
-0.44852
 20
17.75601
 30
0.0
 10
-0.44852
 20
17.75601
 30
0.0
 10
-0.0378
 20
17.75601
 30
0.0
 10
-0.0378
 20
17.75601
 30
0.0
 10
0.01015
 20
17.69214
 30
0.0
 10
0.08658
 20
17.65082
 30
0.0
 10
0.1726
 20
17.65082
 30
0.0
 10
0.31787
 20
17.65082
 30
0.0
 10
0.43561
 20
17.76851
 30
0.0
 10
0.43561
 20
17.9138
 30
0.0
 10
0.43561
 20
18.05904
 30
0.0
 10
0.31787
 20
18.17682
 30
0.0
 10
0.1726
 20
18.17682
 30
0.0
 10
0.08658
 20
18.17682
 30
0.0
 10
0.01015
 20
18.13549
 30
0.0
 10
-0.0378
 20
18.07155
 30
0.0
 10
-0.0378
 20
18.07155
 30
0.0
 10
-0.44852
 20
18.07155
 30
0.0
 10
-0.44852
 20
18.07155
 30
0.0
 10
-0.44852
 20
18.07155
 30
0.0
 10
-0.44852
 20
18.65438
 30
0.0
 10
-0.44852
 20
18.65438
 30
0.0
 10
-0.38462
 20
18.70234
 30
0.0
 10
-0.34333
 20
18.77876
 30
0.0
 10
-0.34333
 20
18.86477
 30
0.0
 10
-0.34333
 20
19.00997
 30
0.0
 10
-0.46106
 20
19.12777
 30
0.0
 10
-0.60631
 20
19.12777
 30
0.0
 10
-0.75154
 20
19.12777
 30
0.0
 10
-0.86929
 20
19.00997
 30
0.0
 10
-0.86929
 20
18.86477
 30
0.0
 10
-0.86929
 20
18.77876
 30
0.0
 10
-0.82799
 20
18.70234
 30
0.0
 10
-0.7641
 20
18.65438
 30
0.0
 10
-0.7641
 20
18.65438
 30
0.0
 10
-0.7641
 20
18.07155
 30
0.0
 10
-0.7641
 20
18.07155
 30
0.0
 10
-0.7641
 20
18.07155
 30
0.0
 10
-1.17481
 20
18.07155
 30
0.0
 10
-1.17481
 20
18.07155
 30
0.0
 10
-1.22277
 20
18.13549
 30
0.0
 10
-1.29918
 20
18.17682
 30
0.0
 10
-1.38522
 20
18.17682
 30
0.0
 10
-1.53046
 20
18.17682
 30
0.0
 10
-1.64821
 20
18.05904
 30
0.0
 10
-1.64821
 20
17.9138
 30
0.0
 10
-1.64821
 20
17.76851
 30
0.0
 10
-1.53046
 20
17.65082
 30
0.0
 10
-1.38522
 20
17.65082
 30
0.0
 10
-1.29918
 20
17.65082
 30
0.0
 10
-1.22277
 20
17.69214
 30
0.0
 10
-1.17481
 20
17.75601
 30
0.0
 10
-1.17481
 20
17.75601
 30
0.0
 10
-0.7641
 20
17.75601
 30
0.0
 10
-0.7641
 20
17.75601
 30
0.0
 10
-0.7641
 20
17.75601
 30
0.0
 10
-0.7641
 20
16.9854
 30
0.0
 10
-0.7641
 20
16.9854
 30
0.0
 10
-0.82799
 20
16.9374
 30
0.0
 10
-0.86929
 20
16.861
 30
0.0
 10
-0.86929
 20
16.77493
 30
0.0
 10
-0.86929
 20
16.68894
 30
0.0
 10
-0.82799
 20
16.61247
 30
0.0
 10
-0.7641
 20
16.56457
 30
0.0
 10
-0.7641
 20
16.56457
 30
0.0
 10
-0.7641
 20
16.08549
 30
0.0
 10
-0.7641
 20
16.08549
 30
0.0
 10
-1.01101
 20
16.08549
 30
0.0
 10
-1.21118
 20
15.88538
 30
0.0
 10
-1.21118
 20
15.63842
 30
0.0
 10
-1.21118
 20
15.42355
 30
0.0
 10
-1.05956
 20
15.24406
 30
0.0
 10
-0.85746
 20
15.20108
 30
0.0
 10
-0.93189
 20
13.95647
 30
0.0
 10
-1.54534
 20
12.85703
 30
0.0
 10
-2.46663
 20
12.13417
 30
0.0
 10
-3.00429
 20
11.71065
 30
0.0
 10
-3.34142
 20
11.10386
 30
0.0
 10
-3.34142
 20
10.43008
 30
0.0
 10
-3.34142
 20
9.5478
 30
0.0
 10
-2.76332
 20
8.78022
 30
0.0
 10
-1.91156
 20
8.38628
 30
0.0
 10
-1.91156
 20
8.38628
 30
0.0
 10
-1.91156
 20
6.99154
 30
0.0
 10
-1.91156
 20
6.99154
 30
0.0
  0
SPLINE
  5
7E
330
1F
100
AcDbEntity
  8
layer 1
 62
   250
370
    50
100
AcDbSpline
210
0.0
220
0.0
230
1.0
 70
    11
 71
     3
 72
   110
 73
   106
 74
     0
 42
0.0000000001
 43
0.0000000001
 40
0.0
 40
0.0
 40
0.0
 40
0.0
 40
0.0285714285714286
 40
0.0285714285714286
 40
0.0285714285714286
 40
0.0571428571428571
 40
0.0571428571428571
 40
0.0571428571428571
 40
0.0857142857142857
 40
0.0857142857142857
 40
0.0857142857142857
 40
0.1142857142857143
 40
0.1142857142857143
 40
0.1142857142857143
 40
0.1428571428571428
 40
0.1428571428571428
 40
0.1428571428571428
 40
0.1714285714285714
 40
0.1714285714285714
 40
0.1714285714285714
 40
0.2
 40
0.2
 40
0.2
 40
0.2285714285714286
 40
0.2285714285714286
 40
0.2285714285714286
 40
0.2571428571428571
 40
0.2571428571428571
 40
0.2571428571428571
 40
0.2857142857142857
 40
0.2857142857142857
 40
0.2857142857142857
 40
0.3142857142857143
 40
0.3142857142857143
 40
0.3142857142857143
 40
0.3428571428571429
 40
0.3428571428571429
 40
0.3428571428571429
 40
0.3714285714285714
 40
0.3714285714285714
 40
0.3714285714285714
 40
0.4
 40
0.4
 40
0.4
 40
0.4285714285714285
 40
0.4285714285714285
 40
0.4285714285714285
 40
0.4571428571428571
 40
0.4571428571428571
 40
0.4571428571428571
 40
0.4857142857142857
 40
0.4857142857142857
 40
0.4857142857142857
 40
0.5142857142857142
 40
0.5142857142857142
 40
0.5142857142857142
 40
0.5428571428571428
 40
0.5428571428571428
 40
0.5428571428571428
 40
0.5714285714285714
 40
0.5714285714285714
 40
0.5714285714285714
 40
0.6
 40
0.6
 40
0.6
 40
0.6285714285714286
 40
0.6285714285714286
 40
0.6285714285714286
 40
0.6571428571428571
 40
0.6571428571428571
 40
0.6571428571428571
 40
0.6857142857142857
 40
0.6857142857142857
 40
0.6857142857142857
 40
0.7142857142857143
 40
0.7142857142857143
 40
0.7142857142857143
 40
0.7428571428571429
 40
0.7428571428571429
 40
0.7428571428571429
 40
0.7714285714285714
 40
0.7714285714285714
 40
0.7714285714285714
 40
0.7999999999999999
 40
0.7999999999999999
 40
0.7999999999999999
 40
0.8285714285714285
 40
0.8285714285714285
 40
0.8285714285714285
 40
0.8571428571428571
 40
0.8571428571428571
 40
0.8571428571428571
 40
0.8857142857142857
 40
0.8857142857142857
 40
0.8857142857142857
 40
0.9142857142857143
 40
0.9142857142857143
 40
0.9142857142857143
 40
0.9428571428571428
 40
0.9428571428571428
 40
0.9428571428571428
 40
0.9714285714285714
 40
0.9714285714285714
 40
0.9714285714285714
 40
1.0
 40
1.0
 40
1.0
 40
1.0
 10
1.44498
 20
1.07027
 30
0.0
 10
1.44498
 20
1.07027
 30
0.0
 10
1.44498
 20
1.47954
 30
0.0
 10
1.44498
 20
1.47954
 30
0.0
 10
1.44498
 20
1.47954
 30
0.0
 10
1.74704
 20
1.47954
 30
0.0
 10
1.74704
 20
1.47954
 30
0.0
 10
1.80487
 20
1.48595
 30
0.0
 10
1.8499
 20
1.53745
 30
0.0
 10
1.8499
 20
1.60004
 30
0.0
 10
1.8499
 20
1.60004
 30
0.0
 10
1.8499
 20
2.25793
 30
0.0
 10
1.8499
 20
2.25793
 30
0.0
 10
1.8499
 20
2.30994
 30
0.0
 10
1.81873
 20
2.35433
 30
0.0
 10
1.77498
 20
2.3715
 30
0.0
 10
1.66034
 20
2.39989
 30
0.0
 10
1.55749
 20
2.46043
 30
0.0
 10
1.47551
 20
2.54363
 30
0.0
 10
1.47551
 20
2.54363
 30
0.0
 10
1.47551
 20
2.94542
 30
0.0
 10
1.47551
 20
2.94542
 30
0.0
 10
1.66789
 20
2.79356
 30
0.0
 10
1.9069
 20
2.70354
 30
0.0
 10
2.16589
 20
2.70354
 30
0.0
 10
2.25362
 20
2.70354
 30
0.0
 10
2.33902
 20
2.7139
 30
0.0
 10
2.4211
 20
2.73344
 30
0.0
 10
2.42939
 20
2.73455
 30
0.0
 10
2.43787
 20
2.73512
 30
0.0
 10
2.44644
 20
2.73512
 30
0.0
 10
2.55615
 20
2.73512
 30
0.0
 10
2.64506
 20
2.64157
 30
0.0
 10
2.64506
 20
2.52603
 30
0.0
 10
2.64506
 20
2.52603
 30
0.0
 10
2.64506
 20
1.93015
 30
0.0
 10
2.64506
 20
1.93015
 30
0.0
 10
2.7853
 20
2.21491
 30
0.0
 10
2.86212
 20
2.52303
 30
0.0
 10
2.86212
 20
2.84472
 30
0.0
 10
2.86212
 20
3.16638
 30
0.0
 10
2.78534
 20
3.47445
 30
0.0
 10
2.64513
 20
3.75919
 30
0.0
 10
2.60353
 20
3.34785
 30
0.0
 10
2.25296
 20
3.02664
 30
0.0
 10
1.82666
 20
3.02664
 30
0.0
 10
1.70103
 20
3.02664
 30
0.0
 10
1.58203
 20
3.05457
 30
0.0
 10
1.47551
 20
3.10443
 30
0.0
 10
1.47551
 20
3.10443
 30
0.0
 10
1.47551
 20
3.45556
 30
0.0
 10
1.47551
 20
3.45556
 30
0.0
 10
1.70209
 20
3.45556
 30
0.0
 10
1.88577
 20
3.62763
 30
0.0
 10
1.88577
 20
3.83993
 30
0.0
 10
1.88577
 20
4.0522
 30
0.0
 10
1.70209
 20
4.2243
 30
0.0
 10
1.47551
 20
4.2243
 30
0.0
 10
1.47551
 20
4.2243
 30
0.0
 10
1.01688
 20
4.2243
 30
0.0
 10
1.01688
 20
4.2243
 30
0.0
 10
1.01688
 20
4.2243
 30
0.0
 10
1.01688
 20
1.47954
 30
0.0
 10
1.01688
 20
1.47954
 30
0.0
 10
1.01688
 20
1.47954
 30
0.0
 10
1.01688
 20
1.07027
 30
0.0
 10
1.01688
 20
1.07027
 30
0.0
 10
1.01688
 20
1.07027
 30
0.0
 10
0.30453
 20
1.07027
 30
0.0
 10
0.30453
 20
1.07027
 30
0.0
 10
0.30453
 20
1.07027
 30
0.0
 10
-0.01916
 20
1.07027
 30
0.0
 10
-0.01916
 20
1.07027
 30
0.0
 10
-0.01916
 20
1.07027
 30
0.0
 10
-2.08743
 20
1.07027
 30
0.0
 10
-2.08743
 20
1.07027
 30
0.0
 10
-2.08743
 20
1.07027
 30
0.0
 10
-2.08738
 20
1.4795
 30
0.0
 10
-2.08738
 20
1.4795
 30
0.0
 10
-2.08738
 20
1.4795
 30
0.0
 10
-1.82376
 20
1.47955
 30
0.0
 10
-1.82376
 20
1.47955
 30
0.0
 10
-1.82376
 20
1.47955
 30
0.0
 10
-2.33508
 20
2.37229
 30
0.0
 10
-2.33508
 20
2.37229
 30
0.0
 10
-2.33508
 20
2.37229
 30
0.0
 10
-2.84641
 20
1.47955
 30
0.0
 10
-2.84641
 20
1.47955
 30
0.0
 10
-2.84641
 20
1.47955
 30
0.0
 10
-2.51408
 20
1.47955
 30
0.0
 10
-2.51408
 20
1.47955
 30
0.0
 10
-2.51408
 20
1.47955
 30
0.0
 10
-2.51408
 20
1.07027
 30
0.0
 10
-2.51408
 20
1.07027
 30
0.0
 10
-2.51408
 20
1.07027
 30
0.0
 10
-3.15945
 20
1.07027
 30
0.0
 10
-3.15945
 20
1.07027
 30
0.0
 10
-2.52556
 20
0.54936
 30
0.0
 10
-1.61642
 20
0.22285
 30
0.0
 10
-0.60631
 20
0.22285
 30
0.0
 10
0.4038
 20
0.22285
 30
0.0
 10
1.31299
 20
0.54934
 30
0.0
 10
1.94683
 20
1.07027
 30
0.0
 10
1.94683
 20
1.07027
 30
0.0
 10
1.44498
 20
1.07027
 30
0.0
 10
1.44498
 20
1.07027
 30
0.0
  0
SPLINE
  5
7F
330
1F
100
AcDbEntity
  8
layer 1
 62
   250
370
    50
100
AcDbSpline
210
0.0
220
0.0
230
1.0
 70
    11
 71
     3
 72
    26
 73
    22
 74
     0
 42
0.0000000001
 43
0.0000000001
 40
0.0
 40
0.0
 40
0.0
 40
0.0
 40
0.1428571428571428
 40
0.1428571428571428
 40
0.1428571428571428
 40
0.2857142857142857
 40
0.2857142857142857
 40
0.2857142857142857
 40
0.4285714285714285
 40
0.4285714285714285
 40
0.4285714285714285
 40
0.5714285714285714
 40
0.5714285714285714
 40
0.5714285714285714
 40
0.7142857142857142
 40
0.7142857142857142
 40
0.7142857142857142
 40
0.8571428571428571
 40
0.8571428571428571
 40
0.8571428571428571
 40
1.0
 40
1.0
 40
1.0
 40
1.0
 10
-3.56794
 20
1.47955
 30
0.0
 10
-3.56794
 20
1.47955
 30
0.0
 10
-3.39705
 20
1.47955
 30
0.0
 10
-3.39705
 20
1.47955
 30
0.0
 10
-3.31761
 20
1.47955
 30
0.0
 10
-3.24753
 20
1.52187
 30
0.0
 10
-3.20613
 20
1.58629
 30
0.0
 10
-3.20613
 20
1.58629
 30
0.0
 10
-2.58017
 20
2.80016
 30
0.0
 10
-2.58017
 20
2.80016
 30
0.0
 10
-2.58017
 20
2.80016
 30
0.0
 10
-3.4087
 20
4.24671
 30
0.0
 10
-3.4087
 20
4.24671
 30
0.0
 10
-3.4087
 20
4.24671
 30
0.0
 10
-3.53755
 20
4.24671
 30
0.0
 10
-3.53755
 20
4.24671
 30
0.0
 10
-3.87766
 20
3.84122
 30
0.0
 10
-4.07473
 20
3.36039
 30
0.0
 10
-4.07473
 20
2.84472
 30
0.0
 10
-4.07473
 20
2.34459
 30
0.0
 10
-3.88944
 20
1.87717
 30
0.0
 10
-3.56794
 20
1.47955
 30
0.0
  0
SPLINE
  5
80
330
1F
100
AcDbEntity
  8
layer 1
 62
   250
370
    50
100
AcDbSpline
210
0.0
220
0.0
230
1.0
 70
    11
 71
     3
 72
    89
 73
    85
 74
     0
 42
0.0000000001
 43
0.0000000001
 40
0.0
 40
0.0
 40
0.0
 40
0.0
 40
0.0357142857142857
 40
0.0357142857142857
 40
0.0357142857142857
 40
0.0714285714285714
 40
0.0714285714285714
 40
0.0714285714285714
 40
0.1071428571428571
 40
0.1071428571428571
 40
0.1071428571428571
 40
0.1428571428571428
 40
0.1428571428571428
 40
0.1428571428571428
 40
0.1785714285714285
 40
0.1785714285714285
 40
0.1785714285714285
 40
0.2142857142857143
 40
0.2142857142857143
 40
0.2142857142857143
 40
0.25
 40
0.25
 40
0.25
 40
0.2857142857142857
 40
0.2857142857142857
 40
0.2857142857142857
 40
0.3214285714285714
 40
0.3214285714285714
 40
0.3214285714285714
 40
0.3571428571428571
 40
0.3571428571428571
 40
0.3571428571428571
 40
0.3928571428571428
 40
0.3928571428571428
 40
0.3928571428571428
 40
0.4285714285714285
 40
0.4285714285714285
 40
0.4285714285714285
 40
0.4642857142857142
 40
0.4642857142857142
 40
0.4642857142857142
 40
0.5
 40
0.5
 40
0.5
 40
0.5357142857142857
 40
0.5357142857142857
 40
0.5357142857142857
 40
0.5714285714285714
 40
0.5714285714285714
 40
0.5714285714285714
 40
0.6071428571428571
 40
0.6071428571428571
 40
0.6071428571428571
 40
0.6428571428571428
 40
0.6428571428571428
 40
0.6428571428571428
 40
0.6785714285714285
 40
0.6785714285714285
 40
0.6785714285714285
 40
0.7142857142857142
 40
0.7142857142857142
 40
0.7142857142857142
 40
0.75
 40
0.75
 40
0.75
 40
0.7857142857142857
 40
0.7857142857142857
 40
0.7857142857142857
 40
0.8214285714285714
 40
0.8214285714285714
 40
0.8214285714285714
 40
0.8571428571428571
 40
0.8571428571428571
 40
0.8571428571428571
 40
0.8928571428571428
 40
0.8928571428571428
 40
0.8928571428571428
 40
0.9285714285714285
 40
0.9285714285714285
 40
0.9285714285714285
 40
0.9642857142857142
 40
0.9642857142857142
 40
0.9642857142857142
 40
1.0
 40
1.0
 40
1.0
 40
1.0
 10
-3.11398
 20
4.656
 30
0.0
 10
-3.11398
 20
4.656
 30
0.0
 10
-2.1135
 20
4.656
 30
0.0
 10
-2.1135
 20
4.656
 30
0.0
 10
-2.1135
 20
4.656
 30
0.0
 10
-2.1135
 20
4.24671
 30
0.0
 10
-2.1135
 20
4.24671
 30
0.0
 10
-2.1135
 20
4.24671
 30
0.0
 10
-2.4168
 20
4.24671
 30
0.0
 10
-2.4168
 20
4.24671
 30
0.0
 10
-2.4168
 20
4.24671
 30
0.0
 10
-2.11023
 20
3.71149
 30
0.0
 10
-2.11023
 20
3.71149
 30
0.0
 10
-2.11023
 20
3.71149
 30
0.0
 10
-1.8767
 20
4.16437
 30
0.0
 10
-1.8767
 20
4.16437
 30
0.0
 10
-1.72601
 20
4.45626
 30
0.0
 10
-1.43261
 20
4.65412
 30
0.0
 10
-1.09527
 20
4.65412
 30
0.0
 10
-0.93289
 20
4.65412
 30
0.0
 10
-0.78069
 20
4.60829
 30
0.0
 10
-0.64972
 20
4.52817
 30
0.0
 10
-0.64874
 20
4.5276
 30
0.0
 10
-0.64778
 20
4.527
 30
0.0
 10
-0.64682
 20
4.52641
 30
0.0
 10
-0.57821
 20
4.48383
 30
0.0
 10
-0.53489
 20
4.4213
 30
0.0
 10
-0.53489
 20
4.35165
 30
0.0
 10
-0.53489
 20
4.27978
 30
0.0
 10
-0.58091
 20
4.21554
 30
0.0
 10
-0.65326
 20
4.17287
 30
0.0
 10
-0.68937
 20
4.15245
 30
0.0
 10
-0.71392
 20
4.11228
 30
0.0
 10
-0.71392
 20
4.06608
 30
0.0
 10
-0.71392
 20
4.05262
 30
0.0
 10
-0.71181
 20
4.03965
 30
0.0
 10
-0.70796
 20
4.02749
 30
0.0
 10
-0.65425
 20
3.91463
 30
0.0
 10
-0.6536
 20
3.79799
 30
0.0
 10
-0.71679
 20
3.72713
 30
0.0
 10
-0.80257
 20
3.63081
 30
0.0
 10
-0.9759
 20
3.65278
 30
0.0
 10
-1.10927
 20
3.76582
 30
0.0
 10
-1.15785
 20
3.80839
 30
0.0
 10
-1.23061
 20
3.83792
 30
0.0
 10
-1.30996
 20
3.83792
 30
0.0
 10
-1.43274
 20
3.83792
 30
0.0
 10
-1.53982
 20
3.76716
 30
0.0
 10
-1.59169
 20
3.67019
 30
0.0
 10
-1.59169
 20
3.67019
 30
0.0
 10
-1.83914
 20
3.23817
 30
0.0
 10
-1.83914
 20
3.23817
 30
0.0
 10
-1.83914
 20
3.23817
 30
0.0
 10
-0.83187
 20
1.47955
 30
0.0
 10
-0.83187
 20
1.47955
 30
0.0
 10
-0.83187
 20
1.47955
 30
0.0
 10
0.30453
 20
1.47955
 30
0.0
 10
0.30453
 20
1.47955
 30
0.0
 10
0.30453
 20
1.47955
 30
0.0
 10
0.30453
 20
1.47954
 30
0.0
 10
0.30453
 20
1.47954
 30
0.0
 10
0.30453
 20
1.47954
 30
0.0
 10
0.31025
 20
1.47954
 30
0.0
 10
0.31025
 20
1.47954
 30
0.0
 10
0.31025
 20
1.47954
 30
0.0
 10
0.31025
 20
3.911
 30
0.0
 10
0.31025
 20
3.911
 30
0.0
 10
0.31025
 20
4.32073
 30
0.0
 10
0.62625
 20
4.65296
 30
0.0
 10
1.01606
 20
4.65296
 30
0.0
 10
1.01606
 20
4.65296
 30
0.0
 10
1.47551
 20
4.65604
 30
0.0
 10
1.47551
 20
4.65604
 30
0.0
 10
1.47551
 20
4.65604
 30
0.0
 10
1.82666
 20
4.65604
 30
0.0
 10
1.82666
 20
4.65604
 30
0.0
 10
1.85347
 20
4.65604
 30
0.0
 10
1.87998
 20
4.65471
 30
0.0
 10
1.90614
 20
4.65223
 30
0.0
 10
1.27435
 20
5.15391
 30
0.0
 10
0.38234
 20
5.46661
 30
0.0
 10
-0.60631
 20
5.46661
 30
0.0
 10
-1.59247
 20
5.46661
 30
0.0
 10
-2.48249
 20
5.15549
 30
0.0
 10
-3.11398
 20
4.656
 30
0.0
  0
SPLINE
  5
81
330
1F
100
AcDbEntity
  8
layer 1
 62
   250
370
    50
100
AcDbSpline
210
0.0
220
0.0
230
1.0
 70
    27
 71
     3
 72
     8
 73
     4
 74
     0
 42
0.0000000001
 43
0.0000000001
 40
0.0
 40
0.0
 40
0.0
 40
0.0
 40
1.0
 40
1.0
 40
1.0
 40
1.0
 10
2.6973
 20
8.14501
 30
0.0
 10
2.6973
 20
8.14501
 30
0.0
 10
2.6973
 20
8.14501
 30
0.0
 10
2.6973
 20
8.14501
 30
0.0
  0
SPLINE
  5
82
330
1F
100
AcDbEntity
  8
layer 1
 62
   250
370
    50
100
AcDbSpline
210
0.0
220
0.0
230
1.0
 70
    11
 71
     3
 72
    23
 73
    19
 74
     0
 42
0.0000000001
 43
0.0000000001
 40
0.0
 40
0.0
 40
0.0
 40
0.0
 40
0.1666666666666667
 40
0.1666666666666667
 40
0.1666666666666667
 40
0.3333333333333333
 40
0.3333333333333333
 40
0.3333333333333333
 40
0.5
 40
0.5
 40
0.5
 40
0.6666666666666666
 40
0.6666666666666666
 40
0.6666666666666666
 40
0.8333333333333333
 40
0.8333333333333333
 40
0.8333333333333333
 40
1.0
 40
1.0
 40
1.0
 40
1.0
 10
-0.60631
 20
8.6392
 30
0.0
 10
-0.60631
 20
8.6392
 30
0.0
 10
-0.60631
 20
8.6392
 30
0.0
 10
-0.60631
 20
8.6392
 30
0.0
 10
-0.3996
 20
8.6392
 30
0.0
 10
-0.23047
 20
8.47008
 30
0.0
 10
-0.23047
 20
8.26336
 30
0.0
 10
-0.23047
 20
8.26336
 30
0.0
 10
-0.23047
 20
5.98856
 30
0.0
 10
-0.23047
 20
5.98856
 30
0.0
 10
-0.23047
 20
5.98856
 30
0.0
 10
-0.98215
 20
5.98856
 30
0.0
 10
-0.98215
 20
5.98856
 30
0.0
 10
-0.98215
 20
5.98856
 30
0.0
 10
-0.98215
 20
8.26336
 30
0.0
 10
-0.98215
 20
8.26336
 30
0.0
 10
-0.98215
 20
8.47008
 30
0.0
 10
-0.81302
 20
8.6392
 30
0.0
 10
-0.60631
 20
8.6392
 30
0.0
  0
SPLINE
  5
83
330
1F
100
AcDbEntity
  8
layer 1
 62
   250
370
    50
100
AcDbSpline
210
0.0
220
0.0
230
1.0
 70
    11
 71
     3
 72
    17
 73
    13
 74
     0
 42
0.0000000001
 43
0.0000000001
 40
0.0
 40
0.0
 40
0.0
 40
0.0
 40
0.25
 40
0.25
 40
0.25
 40
0.5
 40
0.5
 40
0.5
 40
0.75
 40
0.75
 40
0.75
 40
1.0
 40
1.0
 40
1.0
 40
1.0
 10
-0.80557
 20
9.13119
 30
0.0
 10
-1.33771
 20
9.46492
 30
0.0
 10
-1.67761
 20
9.97358
 30
0.0
 10
-1.67761
 20
10.54342
 30
0.0
 10
-1.67761
 20
11.06782
 30
0.0
 10
-1.38973
 20
11.54043
 30
0.0
 10
-0.92909
 20
11.87249
 30
0.0
 10
-1.17463
 20
11.54785
 30
0.0
 10
-1.32807
 20
11.0861
 30
0.0
 10
-1.32807
 20
10.57375
 30
0.0
 10
-1.32807
 20
9.98013
 30
0.0
 10
-1.12212
 20
9.45441
 30
0.0
 10
-0.80557
 20
9.13119
 30
0.0
  0
SPLINE
  5
84
330
1F
100
AcDbEntity
  8
layer 1
 62
   250
370
    50
100
AcDbSpline
210
0.0
220
0.0
230
1.0
 70
    11
 71
     3
 72
    17
 73
    13
 74
     0
 42
0.0000000001
 43
0.0000000001
 40
0.0
 40
0.0
 40
0.0
 40
0.0
 40
0.25
 40
0.25
 40
0.25
 40
0.5
 40
0.5
 40
0.5
 40
0.75
 40
0.75
 40
0.75
 40
1.0
 40
1.0
 40
1.0
 40
1.0
 10
-0.60368
 20
9.07178
 30
0.0
 10
-0.74681
 20
9.43034
 30
0.0
 10
-0.83624
 20
9.94039
 30
0.0
 10
-0.83624
 20
10.50629
 30
0.0
 10
-0.83624
 20
11.07223
 30
0.0
 10
-0.74681
 20
11.58228
 30
0.0
 10
-0.60368
 20
11.94086
 30
0.0
 10
-0.46057
 20
11.58228
 30
0.0
 10
-0.37115
 20
11.07223
 30
0.0
 10
-0.37115
 20
10.50629
 30
0.0
 10
-0.37115
 20
9.94039
 30
0.0
 10
-0.46057
 20
9.43034
 30
0.0
 10
-0.60368
 20
9.07178
 30
0.0
  0
SPLINE
  5
85
330
1F
100
AcDbEntity
  8
layer 1
 62
   250
370
    50
100
AcDbSpline
210
0.0
220
0.0
230
1.0
 70
    11
 71
     3
 72
    17
 73
    13
 74
     0
 42
0.0000000001
 43
0.0000000001
 40
0.0
 40
0.0
 40
0.0
 40
0.0
 40
0.25
 40
0.25
 40
0.25
 40
0.5
 40
0.5
 40
0.5
 40
0.75
 40
0.75
 40
0.75
 40
1.0
 40
1.0
 40
1.0
 40
1.0
 10
-1.54409
 20
9.13286
 30
0.0
 10
-2.14716
 20
9.46657
 30
0.0
 10
-2.53239
 20
9.97524
 30
0.0
 10
-2.53239
 20
10.54508
 30
0.0
 10
-2.53239
 20
11.06948
 30
0.0
 10
-2.20612
 20
11.54208
 30
0.0
 10
-1.68407
 20
11.87416
 30
0.0
 10
-1.96235
 20
11.54956
 30
0.0
 10
-2.13625
 20
11.08776
 30
0.0
 10
-2.13625
 20
10.5754
 30
0.0
 10
-2.13625
 20
9.9818
 30
0.0
 10
-1.90285
 20
9.45608
 30
0.0
 10
-1.54409
 20
9.13286
 30
0.0
  0
SPLINE
  5
86
330
1F
100
AcDbEntity
  8
layer 1
 62
   250
370
    50
100
AcDbSpline
210
0.0
220
0.0
230
1.0
 70
    11
 71
     3
 72
    17
 73
    13
 74
     0
 42
0.0000000001
 43
0.0000000001
 40
0.0
 40
0.0
 40
0.0
 40
0.0
 40
0.25
 40
0.25
 40
0.25
 40
0.5
 40
0.5
 40
0.5
 40
0.75
 40
0.75
 40
0.75
 40
1.0
 40
1.0
 40
1.0
 40
1.0
 10
0.11238
 20
10.57341
 30
0.0
 10
0.11238
 20
11.08581
 30
0.0
 10
-0.04108
 20
11.54759
 30
0.0
 10
-0.28661
 20
11.87222
 30
0.0
 10
0.17401
 20
11.54015
 30
0.0
 10
0.46192
 20
11.06749
 30
0.0
 10
0.46192
 20
10.54308
 30
0.0
 10
0.46192
 20
9.97324
 30
0.0
 10
0.122
 20
9.46457
 30
0.0
 10
-0.41012
 20
9.13093
 30
0.0
 10
-0.09358
 20
9.45408
 30
0.0
 10
0.11238
 20
9.97984
 30
0.0
 10
0.11238
 20
10.57341
 30
0.0
  0
SPLINE
  5
87
330
1F
100
AcDbEntity
  8
layer 1
 62
   250
370
    50
100
AcDbSpline
210
0.0
220
0.0
230
1.0
 70
    11
 71
     3
 72
    17
 73
    13
 74
     0
 42
0.0000000001
 43
0.0000000001
 40
0.0
 40
0.0
 40
0.0
 40
0.0
 40
0.25
 40
0.25
 40
0.25
 40
0.5
 40
0.5
 40
0.5
 40
0.75
 40
0.75
 40
0.75
 40
1.0
 40
1.0
 40
1.0
 40
1.0
 10
1.31977
 20
10.54308
 30
0.0
 10
1.31977
 20
9.97324
 30
0.0
 10
0.93454
 20
9.46457
 30
0.0
 10
0.33147
 20
9.13093
 30
0.0
 10
0.69023
 20
9.45408
 30
0.0
 10
0.92363
 20
9.97984
 30
0.0
 10
0.92363
 20
10.57341
 30
0.0
 10
0.92363
 20
11.08581
 30
0.0
 10
0.74974
 20
11.54759
 30
0.0
 10
0.47145
 20
11.87222
 30
0.0
 10
0.9935
 20
11.54015
 30
0.0
 10
1.31977
 20
11.06749
 30
0.0
 10
1.31977
 20
10.54308
 30
0.0
  0
SPLINE
  5
88
330
1F
100
AcDbEntity
  8
layer 1
 62
   250
370
    50
100
AcDbSpline
210
0.0
220
0.0
230
1.0
 70
    11
 71
     3
 72
    17
 73
    13
 74
     0
 42
0.0000000001
 43
0.0000000001
 40
0.0
 40
0.0
 40
0.0
 40
0.0
 40
0.25
 40
0.25
 40
0.25
 40
0.5
 40
0.5
 40
0.5
 40
0.75
 40
0.75
 40
0.75
 40
1.0
 40
1.0
 40
1.0
 40
1.0
 10
3.67568
 20
5.79145
 30
0.0
 10
3.67568
 20
6.0618
 30
0.0
 10
3.58305
 20
6.30543
 30
0.0
 10
3.43484
 20
6.47671
 30
0.0
 10
3.71288
 20
6.30151
 30
0.0
 10
3.88666
 20
6.05213
 30
0.0
 10
3.88666
 20
5.77545
 30
0.0
 10
3.88666
 20
5.47479
 30
0.0
 10
3.68148
 20
5.20642
 30
0.0
 10
3.36029
 20
5.03038
 30
0.0
 10
3.55136
 20
5.20088
 30
0.0
 10
3.67568
 20
5.47827
 30
0.0
 10
3.67568
 20
5.79145
 30
0.0
  0
SPLINE
  5
89
330
1F
100
AcDbEntity
  8
layer 1
 62
   250
370
    50
100
AcDbSpline
210
0.0
220
0.0
230
1.0
 70
    11
 71
     3
 72
    17
 73
    13
 74
     0
 42
0.0000000001
 43
0.0000000001
 40
0.0
 40
0.0
 40
0.0
 40
0.0
 40
0.25
 40
0.25
 40
0.25
 40
0.5
 40
0.5
 40
0.5
 40
0.75
 40
0.75
 40
0.75
 40
1.0
 40
1.0
 40
1.0
 40
1.0
 10
-3.29876
 20
5.79145
 30
0.0
 10
-3.29876
 20
6.0618
 30
0.0
 10
-3.39139
 20
6.30543
 30
0.0
 10
-3.5396
 20
6.47671
 30
0.0
 10
-3.26156
 20
6.30151
 30
0.0
 10
-3.08778
 20
6.05213
 30
0.0
 10
-3.08778
 20
5.77545
 30
0.0
 10
-3.08778
 20
5.47479
 30
0.0
 10
-3.29296
 20
5.20642
 30
0.0
 10
-3.61415
 20
5.03038
 30
0.0
 10
-3.42308
 20
5.20088
 30
0.0
 10
-3.29876
 20
5.47827
 30
0.0
 10
-3.29876
 20
5.79145
 30
0.0
  0
ENDSEC
  0
SECTION
  2
OBJECTS
  0
DICTIONARY
  5
C
330
0
100
AcDbDictionary
281
     1
  3
ACAD_DETAILVIEWSTYLE
350
91
  3
ACAD_GROUP
350
D
  3
ACAD_LAYOUT
350
1A
  3
ACAD_MATERIAL
350
43
  3
ACAD_MLEADERSTYLE
350
5B
  3
ACAD_MLINESTYLE
350
17
  3
ACAD_PLOTSETTINGS
350
19
  3
ACAD_PLOTSTYLENAME
350
E
  3
ACAD_SCALELIST
350
47
  3
ACAD_SECTIONVIEWSTYLE
350
92
  3
ACAD_TABLESTYLE
350
59
  3
ACAD_VISUALSTYLE
350
2A
  3
ACDB_RECOMPOSE_DATA
350
8E
  3
AcDbVariableDictionary
350
8A
  0
SUN
  5
5D
330
29
100
AcDbSun
 90
        1
290
     0
 63
     7
421
 16777215
 40
1.0
291
     1
 91
  2455826
 92
 54000000
292
     0
 70
     2
 71
   256
280
     1
  0
DICTIONARY
  5
91
102
{ACAD_REACTORS
330
C
102
}
330
C
100
AcDbDictionary
281
     1
  0
DICTIONARY
  5
D
102
{ACAD_REACTORS
330
C
102
}
330
C
100
AcDbDictionary
281
     1
  0
DICTIONARY
  5
1A
102
{ACAD_REACTORS
330
C
102
}
330
C
100
AcDbDictionary
281
     1
  3
Layout1
350
1E
  3
Layout2
350
26
  3
Model
350
22
  0
DICTIONARY
  5
43
102
{ACAD_REACTORS
330
C
102
}
330
C
100
AcDbDictionary
281
     1
  3
ByBlock
350
45
  3
ByLayer
350
44
  3
Global
350
46
  0
DICTIONARY
  5
5B
102
{ACAD_REACTORS
330
C
102
}
330
C
100
AcDbDictionary
281
     1
  3
Standard
350
5C
  0
DICTIONARY
  5
17
102
{ACAD_REACTORS
330
C
102
}
330
C
100
AcDbDictionary
281
     1
  3
Standard
350
18
  0
DICTIONARY
  5
19
102
{ACAD_REACTORS
330
C
102
}
330
C
100
AcDbDictionary
281
     1
  0
ACDBDICTIONARYWDFLT
  5
E
102
{ACAD_REACTORS
330
C
102
}
330
C
100
AcDbDictionary
281
     1
  3
Normal
350
F
100
AcDbDictionaryWithDefault
340
F
  0
DICTIONARY
  5
47
102
{ACAD_REACTORS
330
C
102
}
330
C
100
AcDbDictionary
281
     1
  3
A0
350
48
  3
A1
350
49
  3
A2
350
4A
  3
A3
350
4B
  3
A4
350
4C
  3
A5
350
4D
  3
A6
350
4E
  3
A7
350
4F
  3
A8
350
50
  3
A9
350
51
  3
B1
350
52
  3
B2
350
53
  3
B3
350
54
  3
B4
350
55
  3
B5
350
56
  3
B6
350
57
  3
B7
350
58
  0
DICTIONARY
  5
92
102
{ACAD_REACTORS
330
C
102
}
330
C
100
AcDbDictionary
281
     1
  0
DICTIONARY
  5
59
102
{ACAD_REACTORS
330
C
102
}
330
C
100
AcDbDictionary
281
     1
  3
Standard
350
5A
  0
DICTIONARY
  5
2A
102
{ACAD_REACTORS
330
C
102
}
330
C
100
AcDbDictionary
281
     1
  3
2dWireframe
350
2F
  3
Basic
350
32
  3
Brighten
350
36
  3
ColorChange
350
3A
  3
Conceptual
350
34
  3
Dim
350
35
  3
EdgeColorOff
350
3D
  3
Facepattern
350
39
  3
Flat
350
2B
  3
FlatWithEdges
350
2C
  3
Gouraud
350
2D
  3
GouraudWithEdges
350
2E
  3
Hidden
350
31
  3
JitterOff
350
3B
  3
Linepattern
350
38
  3
OverhangOff
350
3C
  3
Realistic
350
33
  3
Shaded
350
42
  3
Shaded with edges
350
41
  3
Shades of Gray
350
3E
  3
Sketchy
350
3F
  3
Thicken
350
37
  3
Wireframe
350
30
  3
X-Ray
350
40
  0
XRECORD
  5
8E
102
{ACAD_REACTORS
330
C
102
}
330
C
100
AcDbXrecord
280
     1
 90
        1
330
5A
  0
DICTIONARY
  5
8A
102
{ACAD_REACTORS
330
C
102
}
330
C
100
AcDbDictionary
281
     1
  3
CANNOSCALE
350
8B
  3
CMLEADERSTYLE
350
90
  3
CTABLESTYLE
350
8F
  0
LAYOUT
  5
1E
102
{ACAD_REACTORS
330
1A
102
}
330
1A
100
AcDbPlotSettings
  1

  2
none_device
  4

  6

 40
0.0
 41
0.0
 42
0.0
 43
0.0
 44
0.0
 45
0.0
 46
0.0
 47
0.0
 48
0.0
 49
0.0
140
0.0
141
0.0
142
1.0
143
1.0
 70
   688
 72
     0
 73
     0
 74
     5
  7

 75
    16
 76
     0
 77
     2
 78
   300
147
1.0
148
0.0
149
0.0
100
AcDbLayout
  1
Layout1
 70
     1
 71
     1
 10
0.0
 20
0.0
 11
12.0
 21
9.0
 12
0.0
 22
0.0
 32
0.0
 14
1.000000000000000E+20
 24
1.000000000000000E+20
 34
1.000000000000000E+20
 15
-1.000000000000000E+20
 25
-1.000000000000000E+20
 35
-1.000000000000000E+20
146
0.0
 13
0.0
 23
0.0
 33
0.0
 16
1.0
 26
0.0
 36
0.0
 17
0.0
 27
1.0
 37
0.0
 76
     0
330
1B
  0
LAYOUT
  5
26
102
{ACAD_REACTORS
330
1A
102
}
330
1A
100
AcDbPlotSettings
  1

  2
none_device
  4

  6

 40
0.0
 41
0.0
 42
0.0
 43
0.0
 44
0.0
 45
0.0
 46
0.0
 47
0.0
 48
0.0
 49
0.0
140
0.0
141
0.0
142
1.0
143
1.0
 70
   688
 72
     0
 73
     0
 74
     5
  7

 75
    16
 76
     0
 77
     2
 78
   300
147
1.0
148
0.0
149
0.0
100
AcDbLayout
  1
Layout2
 70
     1
 71
     2
 10
0.0
 20
0.0
 11
0.0
 21
0.0
 12
0.0
 22
0.0
 32
0.0
 14
0.0
 24
0.0
 34
0.0
 15
0.0
 25
0.0
 35
0.0
146
0.0
 13
0.0
 23
0.0
 33
0.0
 16
1.0
 26
0.0
 36
0.0
 17
0.0
 27
1.0
 37
0.0
 76
     0
330
23
  0
LAYOUT
  5
22
102
{ACAD_REACTORS
330
1A
102
}
330
1A
100
AcDbPlotSettings
  1

  2
none_device
  4
Letter_(8.50_x_11.00_Inches)
  6

 40
6.35
 41
6.35
 42
6.35000508
 43
6.35000508
 44
215.9
 45
279.4
 46
0.0
 47
0.0
 48
0.0
 49
0.0
140
0.0
141
0.0
142
1.0
143
1.0
 70
  1712
 72
     0
 73
     0
 74
     0
  7

 75
     0
 76
     0
 77
     2
 78
   300
147
1.0
148
0.0
149
0.0
100
AcDbLayout
  1
Model
 70
     1
 71
     0
 10
0.0
 20
0.0
 11
12.0
 21
9.0
 12
0.0
 22
0.0
 32
0.0
 14
-15.7642
 24
-13.43255
 34
0.0
 15
14.72345
 25
19.15277
 35
0.0
146
0.0
 13
0.0
 23
0.0
 33
0.0
 16
1.0
 26
0.0
 36
0.0
 17
0.0
 27
1.0
 37
0.0
 76
     0
330
1F
331
29
  0
MATERIAL
  5
45
102
{ACAD_REACTORS
330
43
102
}
330
43
100
AcDbMaterial
  1
ByBlock
 72
     1
 94
      127
  0
MATERIAL
  5
44
102
{ACAD_REACTORS
330
43
102
}
330
43
100
AcDbMaterial
  1
ByLayer
 72
     1
 94
      127
  0
MATERIAL
  5
46
102
{ACAD_REACTORS
330
43
102
}
330
43
100
AcDbMaterial
  1
Global
 72
     1
 94
      127
  0
MLEADERSTYLE
  5
5C
102
{ACAD_REACTORS
330
5B
102
}
330
5B
100
AcDbMLeaderStyle
179
     2
170
     2
171
     1
172
     0
 90
        2
 40
0.0
 41
0.0
173
     1
 91
-1056964608
340
14
 92
       -2
290
     1
 42
0.09
291
     1
 43
0.36
  3
Standard
341
0
 44
0.18
300

342
11
174
     1
178
     6
175
     1
176
     0
 93
-1056964608
 45
0.18
292
     0
297
     0
 46
0.18
343
0
 94
-1056964608
 47
1.0
 49
1.0
140
1.0
293
     1
141
0.0
294
     1
177
     0
142
1.0
295
     0
296
     0
143
0.125
271
     0
272
     9
273
     9
298
     0
  0
MLINESTYLE
  5
18
102
{ACAD_REACTORS
330
17
102
}
330
17
100
AcDbMlineStyle
  2
Standard
 70
     0
  3

 62
   256
 51
90.0
 52
90.0
 71
     2
 49
0.5
 62
   256
  6
BYLAYER
 49
-0.5
 62
   256
  6
BYLAYER
  0
ACDBPLACEHOLDER
  5
F
102
{ACAD_REACTORS
330
E
102
}
330
E
  0
SCALE
  5
48
102
{ACAD_REACTORS
330
47
102
}
330
47
100
AcDbScale
 70
     0
300
1:1
140
1.0
141
1.0
290
     1
  0
SCALE
  5
49
102
{ACAD_REACTORS
330
47
102
}
330
47
100
AcDbScale
 70
     0
300
1/128" = 1'-0"
140
0.0078125
141
12.0
290
     0
  0
SCALE
  5
4A
102
{ACAD_REACTORS
330
47
102
}
330
47
100
AcDbScale
 70
     0
300
1/64" = 1'-0"
140
0.015625
141
12.0
290
     0
  0
SCALE
  5
4B
102
{ACAD_REACTORS
330
47
102
}
330
47
100
AcDbScale
 70
     0
300
1/32" = 1'-0"
140
0.03125
141
12.0
290
     0
  0
SCALE
  5
4C
102
{ACAD_REACTORS
330
47
102
}
330
47
100
AcDbScale
 70
     0
300
1/16" = 1'-0"
140
0.0625
141
12.0
290
     0
  0
SCALE
  5
4D
102
{ACAD_REACTORS
330
47
102
}
330
47
100
AcDbScale
 70
     0
300
3/32" = 1'-0"
140
0.09375
141
12.0
290
     0
  0
SCALE
  5
4E
102
{ACAD_REACTORS
330
47
102
}
330
47
100
AcDbScale
 70
     0
300
1/8" = 1'-0"
140
0.125
141
12.0
290
     0
  0
SCALE
  5
4F
102
{ACAD_REACTORS
330
47
102
}
330
47
100
AcDbScale
 70
     0
300
3/16" = 1'-0"
140
0.1875
141
12.0
290
     0
  0
SCALE
  5
50
102
{ACAD_REACTORS
330
47
102
}
330
47
100
AcDbScale
 70
     0
300
1/4" = 1'-0"
140
0.25
141
12.0
290
     0
  0
SCALE
  5
51
102
{ACAD_REACTORS
330
47
102
}
330
47
100
AcDbScale
 70
     0
300
3/8" = 1'-0"
140
0.375
141
12.0
290
     0
  0
SCALE
  5
52
102
{ACAD_REACTORS
330
47
102
}
330
47
100
AcDbScale
 70
     0
300
1/2" = 1'-0"
140
0.5
141
12.0
290
     0
  0
SCALE
  5
53
102
{ACAD_REACTORS
330
47
102
}
330
47
100
AcDbScale
 70
     0
300
3/4" = 1'-0"
140
0.75
141
12.0
290
     0
  0
SCALE
  5
54
102
{ACAD_REACTORS
330
47
102
}
330
47
100
AcDbScale
 70
     0
300
1" = 1'-0"
140
1.0
141
12.0
290
     0
  0
SCALE
  5
55
102
{ACAD_REACTORS
330
47
102
}
330
47
100
AcDbScale
 70
     0
300
1-1/2" = 1'-0"
140
1.5
141
12.0
290
     0
  0
SCALE
  5
56
102
{ACAD_REACTORS
330
47
102
}
330
47
100
AcDbScale
 70
     0
300
3" = 1'-0"
140
3.0
141
12.0
290
     0
  0
SCALE
  5
57
102
{ACAD_REACTORS
330
47
102
}
330
47
100
AcDbScale
 70
     0
300
6" = 1'-0"
140
6.0
141
12.0
290
     0
  0
SCALE
  5
58
102
{ACAD_REACTORS
330
47
102
}
330
47
100
AcDbScale
 70
     0
300
1'-0" = 1'-0"
140
12.0
141
12.0
290
     0
  0
TABLESTYLE
  5
5A
102
{ACAD_REACTORS
330
59
102
}
102
{ACAD_XDICTIONARY
360
8C
102
}
330
59
100
AcDbTableStyle
  3
Standard
 70
     0
 71
     0
 40
0.06
 41
0.06
280
     0
281
     0
  7
Standard
140
0.18
170
     2
 62
     0
 63
   257
283
     0
 90
        4
 91
        0
  1

274
    -2
284
     1
 64
     0
275
    -2
285
     1
 65
     0
276
    -2
286
     1
 66
     0
277
    -2
287
     1
 67
     0
278
    -2
288
     1
 68
     0
279
    -2
289
     1
 69
     0
  7
Standard
140
0.25
170
     5
 62
     0
 63
   257
283
     0
 90
        4
 91
        0
  1

274
    -2
284
     1
 64
     0
275
    -2
285
     1
 65
     0
276
    -2
286
     1
 66
     0
277
    -2
287
     1
 67
     0
278
    -2
288
     1
 68
     0
279
    -2
289
     1
 69
     0
  7
Standard
140
0.18
170
     5
 62
     0
 63
   257
283
     0
 90
        4
 91
        0
  1

274
    -2
284
     1
 64
     0
275
    -2
285
     1
 65
     0
276
    -2
286
     1
 66
     0
277
    -2
287
     1
 67
     0
278
    -2
288
     1
 68
     0
279
    -2
289
     1
 69
     0
  0
VISUALSTYLE
  5
2F
102
{ACAD_REACTORS
330
2A
102
}
330
2A
100
AcDbVisualStyle
  2
2dWireframe
 70
     4
177
     3
291
     0
 70
    58
 90
        0
176
     1
 90
        2
176
     1
 90
        0
176
     1
 90
        0
176
     1
 40
0.6
176
     1
 40
30.0
176
     1
 62
     7
420
 16777215
176
     1
 90
        1
176
     1
 90
        4
176
     1
 62
     7
176
     1
 62
   257
176
     1
 90
        1
176
     1
 90
        1
176
     1
 40
1.0
176
     1
 90
        0
176
     1
 62
   257
176
     1
 40
1.0
176
     1
 90
        1
176
     1
 90
        6
176
     1
 90
        2
176
     1
 62
     7
176
     1
 90
        5
176
     1
 90
        0
176
     1
 90
        0
176
     1
290
     0
176
     1
 90
        1
176
     1
 40
0.0
176
     1
 90
        0
176
     1
290
     1
176
     1
290
     1
176
     1
290
     0
176
     1
290
     0
176
     1
290
     0
176
     1
290
     0
176
     1
290
     0
176
     1
290
     0
176
     1
290
     0
176
     1
 90
       50
176
     1
 40
0.0
176
     1
 40
1.0
176
     1
 90
        0
176
     1
 62
    18
420
        0
176
     1
 90
       50
176
     1
 90
        3
176
     1
 62
     5
420
      255
176
     1
290
     0
176
     1
 90
       50
176
     1
 90
       50
176
     1
 90
       50
176
     1
290
     0
176
     1
 90
       50
176
     1
 62
   256
176
     0
 40
1.0
176
     0
 90
        2
176
     1
  1
strokes_ogs.tif
176
     1
290
     0
176
     1
 40
1.0
176
     1
 40
1.0
176
     1
  0
VISUALSTYLE
  5
32
102
{ACAD_REACTORS
330
2A
102
}
330
2A
100
AcDbVisualStyle
  2
Basic
 70
     7
177
     3
291
     1
 70
    58
 90
        1
176
     1
 90
        0
176
     1
 90
        1
176
     1
 90
        0
176
     1
 40
0.6
176
     1
 40
30.0
176
     1
 62
     7
420
 16777215
176
     1
 90
        0
176
     1
 90
        4
176
     1
 62
     7
176
     1
 62
   257
176
     1
 90
        1
176
     1
 90
        1
176
     1
 40
1.0
176
     1
 90
        8
176
     1
 62
     7
176
     1
 40
1.0
176
     1
 90
        1
176
     1
 90
        6
176
     1
 90
        2
176
     1
 62
     7
176
     1
 90
        5
176
     1
 90
        0
176
     1
 90
        0
176
     1
290
     0
176
     1
 90
        1
176
     1
 40
0.0
176
     1
 90
        0
176
     1
290
     0
176
     1
290
     1
176
     1
290
     1
176
     1
290
     0
176
     1
290
     0
176
     1
290
     0
176
     1
290
     0
176
     1
290
     0
176
     1
290
     0
176
     1
 90
       50
176
     1
 40
0.0
176
     1
 40
1.0
176
     1
 90
        0
176
     1
 62
    18
420
        0
176
     1
 90
       50
176
     1
 90
        3
176
     1
 62
     5
420
      255
176
     1
290
     0
176
     1
 90
       50
176
     1
 90
       50
176
     1
 90
       50
176
     1
290
     0
176
     1
 90
       50
176
     1
 62
   256
176
     0
 40
1.0
176
     0
 90
        2
176
     1
  1
strokes_ogs.tif
176
     1
290
     0
176
     1
 40
1.0
176
     1
 40
1.0
176
     1
  0
VISUALSTYLE
  5
36
102
{ACAD_REACTORS
330
2A
102
}
330
2A
100
AcDbVisualStyle
  2
Brighten
 70
    12
177
     3
291
     1
 70
    58
 90
        2
176
     1
 90
        2
176
     1
 90
        0
176
     1
 90
        0
176
     1
 40
0.6
176
     1
 40
30.0
176
     1
 62
     7
420
 16777215
176
     1
 90
        1
176
     1
 90
        4
176
     1
 62
     7
176
     1
 62
   257
176
     1
 90
        1
176
     1
 90
        1
176
     1
 40
1.0
176
     1
 90
        8
176
     1
 62
     7
176
     1
 40
1.0
176
     1
 90
        1
176
     1
 90
        6
176
     1
 90
        2
176
     1
 62
     7
176
     1
 90
        5
176
     1
 90
        0
176
     1
 90
        0
176
     1
290
     0
176
     1
 90
        1
176
     1
 40
50.0
176
     1
 90
        0
176
     1
290
     0
176
     1
290
     1
176
     1
290
     1
176
     1
290
     0
176
     1
290
     0
176
     1
290
     0
176
     1
290
     0
176
     1
290
     0
176
     1
290
     0
176
     1
 90
       50
176
     1
 40
0.0
176
     1
 40
1.0
176
     1
 90
        0
176
     1
 62
    18
420
        0
176
     1
 90
       50
176
     1
 90
        3
176
     1
 62
     5
420
      255
176
     1
290
     0
176
     1
 90
       50
176
     1
 90
       50
176
     1
 90
       50
176
     1
290
     0
176
     1
 90
       50
176
     1
 62
   256
176
     0
 40
1.0
176
     0
 90
        2
176
     1
  1
strokes_ogs.tif
176
     1
290
     0
176
     1
 40
1.0
176
     1
 40
1.0
176
     1
  0
VISUALSTYLE
  5
3A
102
{ACAD_REACTORS
330
2A
102
}
330
2A
100
AcDbVisualStyle
  2
ColorChange
 70
    16
177
     3
291
     1
 70
    58
 90
        2
176
     1
 90
        2
176
     1
 90
        3
176
     1
 90
        0
176
     1
 40
0.6
176
     1
 40
30.0
176
     1
 62
     8
420
  8421504
176
     1
 90
        1
176
     1
 90
        4
176
     1
 62
     7
176
     1
 62
   257
176
     1
 90
        1
176
     1
 90
        1
176
     1
 40
1.0
176
     1
 90
        8
176
     1
 62
     8
420
  8421504
176
     1
 40
1.0
176
     1
 90
        1
176
     1
 90
        6
176
     1
 90
        2
176
     1
 62
     7
176
     1
 90
        5
176
     1
 90
        0
176
     1
 90
        0
176
     1
290
     0
176
     1
 90
        1
176
     1
 40
0.0
176
     1
 90
        0
176
     1
290
     0
176
     1
290
     1
176
     1
290
     1
176
     1
290
     0
176
     1
290
     0
176
     1
290
     0
176
     1
290
     0
176
     1
290
     0
176
     1
290
     0
176
     1
 90
       50
176
     1
 40
0.0
176
     1
 40
1.0
176
     1
 90
        0
176
     1
 62
    18
420
        0
176
     1
 90
       50
176
     1
 90
        3
176
     1
 62
     5
420
      255
176
     1
290
     0
176
     1
 90
       50
176
     1
 90
       50
176
     1
 90
       50
176
     1
290
     0
176
     1
 90
       50
176
     1
 62
   256
176
     0
 40
1.0
176
     0
 90
        2
176
     1
  1
strokes_ogs.tif
176
     1
290
     0
176
     1
 40
1.0
176
     1
 40
1.0
176
     1
  0
VISUALSTYLE
  5
34
102
{ACAD_REACTORS
330
2A
102
}
330
2A
100
AcDbVisualStyle
  2
Conceptual
 70
     9
177
     3
291
     0
 70
    58
 90
        3
176
     1
 90
        2
176
     1
 90
        0
176
     1
 90
        0
176
     1
 40
0.6
176
     1
 40
30.0
176
     1
 62
     7
420
 16777215
176
     1
 90
        2
176
     1
 90
        2
176
     1
 62
     7
176
     1
 62
   257
176
     1
 90
        1
176
     1
 90
        1
176
     1
 40
179.0
176
     1
 90
        8
176
     1
 62
     7
176
     1
 40
1.0
176
     1
 90
        1
176
     1
 90
        6
176
     1
 90
        2
176
     1
 62
     7
176
     1
 90
        3
176
     1
 90
        0
176
     1
 90
        0
176
     1
290
     0
176
     1
 90
        1
176
     1
 40
0.0
176
     1
 90
        0
176
     1
290
     0
176
     1
290
     1
176
     1
290
     1
176
     1
290
     0
176
     1
290
     0
176
     1
290
     0
176
     1
290
     0
176
     1
290
     0
176
     1
290
     0
176
     1
 90
       50
176
     1
 40
0.0
176
     1
 40
1.0
176
     1
 90
        0
176
     1
 62
    18
420
        0
176
     1
 90
       50
176
     1
 90
        3
176
     1
 62
     5
420
      255
176
     1
290
     0
176
     1
 90
       50
176
     1
 90
       50
176
     1
 90
       50
176
     1
290
     0
176
     1
 90
       50
176
     1
 62
   256
176
     0
 40
1.0
176
     0
 90
        2
176
     1
  1
strokes_ogs.tif
176
     1
290
     0
176
     1
 40
1.0
176
     1
 40
1.0
176
     1
  0
VISUALSTYLE
  5
35
102
{ACAD_REACTORS
330
2A
102
}
330
2A
100
AcDbVisualStyle
  2
Dim
 70
    11
177
     3
291
     1
 70
    58
 90
        2
176
     1
 90
        2
176
     1
 90
        0
176
     1
 90
        0
176
     1
 40
0.6
176
     1
 40
30.0
176
     1
 62
     7
420
 16777215
176
     1
 90
        1
176
     1
 90
        4
176
     1
 62
     7
176
     1
 62
   257
176
     1
 90
        1
176
     1
 90
        1
176
     1
 40
1.0
176
     1
 90
        8
176
     1
 62
     7
176
     1
 40
1.0
176
     1
 90
        1
176
     1
 90
        6
176
     1
 90
        2
176
     1
 62
     7
176
     1
 90
        5
176
     1
 90
        0
176
     1
 90
        0
176
     1
290
     0
176
     1
 90
        1
176
     1
 40
-50.0
176
     1
 90
        0
176
     1
290
     0
176
     1
290
     1
176
     1
290
     1
176
     1
290
     0
176
     1
290
     0
176
     1
290
     0
176
     1
290
     0
176
     1
290
     0
176
     1
290
     0
176
     1
 90
       50
176
     1
 40
0.0
176
     1
 40
1.0
176
     1
 90
        0
176
     1
 62
    18
420
        0
176
     1
 90
       50
176
     1
 90
        3
176
     1
 62
     5
420
      255
176
     1
290
     0
176
     1
 90
       50
176
     1
 90
       50
176
     1
 90
       50
176
     1
290
     0
176
     1
 90
       50
176
     1
 62
   256
176
     0
 40
1.0
176
     0
 90
        2
176
     1
  1
strokes_ogs.tif
176
     1
290
     0
176
     1
 40
1.0
176
     1
 40
1.0
176
     1
  0
VISUALSTYLE
  5
3D
102
{ACAD_REACTORS
330
2A
102
}
330
2A
100
AcDbVisualStyle
  2
EdgeColorOff
 70
    22
177
     3
291
     1
 70
    58
 90
        2
176
     0
 90
        2
176
     0
 90
        0
176
     0
 90
        0
176
     0
 40
0.6
176
     0
 40
30.0
176
     0
 62
     7
420
 16777215
176
     0
 90
        1
176
     0
 90
        4
176
     0
 62
     7
176
     0
 62
   257
176
     0
 90
        1
176
     0
 90
        1
176
     0
 40
1.0
176
     0
 90
        8
176
     2
 62
     7
176
     0
 40
1.0
176
     0
 90
        1
176
     0
 90
        6
176
     0
 90
        2
176
     0
 62
     7
176
     0
 90
        5
176
     0
 90
        0
176
     0
 90
        0
176
     0
290
     0
176
     0
 90
        1
176
     0
 40
0.0
176
     0
 90
        0
176
     0
290
     0
176
     0
290
     1
176
     0
290
     1
176
     0
290
     0
176
     0
290
     0
176
     0
290
     0
176
     0
290
     0
176
     0
290
     0
176
     0
290
     0
176
     0
 90
       50
176
     0
 40
0.0
176
     0
 40
1.0
176
     0
 90
        0
176
     0
 62
    18
420
        0
176
     0
 90
       50
176
     0
 90
        3
176
     0
 62
     5
420
      255
176
     0
290
     0
176
     0
 90
       50
176
     0
 90
       50
176
     0
 90
       50
176
     0
290
     0
176
     0
 90
       50
176
     0
 62
   256
176
     0
 40
1.0
176
     0
 90
        2
176
     0
  1
strokes_ogs.tif
176
     0
290
     0
176
     0
 40
1.0
176
     0
 40
1.0
176
     0
  0
VISUALSTYLE
  5
39
102
{ACAD_REACTORS
330
2A
102
}
330
2A
100
AcDbVisualStyle
  2
Facepattern
 70
    15
177
     3
291
     1
 70
    58
 90
        2
176
     1
 90
        2
176
     1
 90
        0
176
     1
 90
        0
176
     1
 40
0.6
176
     1
 40
30.0
176
     1
 62
     7
420
 16777215
176
     1
 90
        1
176
     1
 90
        4
176
     1
 62
     7
176
     1
 62
   257
176
     1
 90
        1
176
     1
 90
        1
176
     1
 40
1.0
176
     1
 90
        8
176
     1
 62
     7
176
     1
 40
1.0
176
     1
 90
        1
176
     1
 90
        6
176
     1
 90
        2
176
     1
 62
     7
176
     1
 90
        5
176
     1
 90
        0
176
     1
 90
        0
176
     1
290
     0
176
     1
 90
        1
176
     1
 40
0.0
176
     1
 90
        0
176
     1
290
     0
176
     1
290
     1
176
     1
290
     1
176
     1
290
     0
176
     1
290
     0
176
     1
290
     0
176
     1
290
     0
176
     1
290
     0
176
     1
290
     0
176
     1
 90
       50
176
     1
 40
0.0
176
     1
 40
1.0
176
     1
 90
        0
176
     1
 62
    18
420
        0
176
     1
 90
       50
176
     1
 90
        3
176
     1
 62
     5
420
      255
176
     1
290
     0
176
     1
 90
       50
176
     1
 90
       50
176
     1
 90
       50
176
     1
290
     0
176
     1
 90
       50
176
     1
 62
   256
176
     0
 40
1.0
176
     0
 90
        2
176
     1
  1
strokes_ogs.tif
176
     1
290
     0
176
     1
 40
1.0
176
     1
 40
1.0
176
     1
  0
VISUALSTYLE
  5
2B
102
{ACAD_REACTORS
330
2A
102
}
330
2A
100
AcDbVisualStyle
  2
Flat
 70
     0
177
     3
291
     1
 70
    58
 90
        2
176
     1
 90
        1
176
     1
 90
        1
176
     1
 90
        2
176
     1
 40
0.6
176
     1
 40
30.0
176
     1
 62
     7
420
 16777215
176
     1
 90
        0
176
     1
 90
        0
176
     1
 62
     7
176
     1
 62
   257
176
     1
 90
        1
176
     1
 90
        1
176
     1
 40
1.0
176
     1
 90
        8
176
     1
 62
     7
176
     1
 40
1.0
176
     1
 90
        1
176
     1
 90
        6
176
     1
 90
        2
176
     1
 62
     7
176
     1
 90
        5
176
     1
 90
        0
176
     1
 90
        0
176
     1
290
     0
176
     1
 90
       13
176
     1
 40
0.0
176
     1
 90
        0
176
     1
290
     0
176
     1
290
     1
176
     1
290
     1
176
     1
290
     0
176
     1
290
     0
176
     1
290
     0
176
     1
290
     0
176
     1
290
     0
176
     1
290
     0
176
     1
 90
       50
176
     1
 40
0.0
176
     1
 40
1.0
176
     1
 90
        0
176
     1
 62
    18
420
        0
176
     1
 90
       50
176
     1
 90
        3
176
     1
 62
     5
420
      255
176
     1
290
     0
176
     1
 90
       50
176
     1
 90
       50
176
     1
 90
       50
176
     1
290
     0
176
     1
 90
       50
176
     1
 62
   256
176
     0
 40
1.0
176
     0
 90
        2
176
     1
  1
strokes_ogs.tif
176
     1
290
     0
176
     1
 40
1.0
176
     1
 40
1.0
176
     1
  0
VISUALSTYLE
  5
2C
102
{ACAD_REACTORS
330
2A
102
}
330
2A
100
AcDbVisualStyle
  2
FlatWithEdges
 70
     1
177
     3
291
     1
 70
    58
 90
        2
176
     1
 90
        1
176
     1
 90
        1
176
     1
 90
        2
176
     1
 40
0.6
176
     1
 40
30.0
176
     1
 62
     7
420
 16777215
176
     1
 90
        1
176
     1
 90
        0
176
     1
 62
     7
176
     1
 62
   257
176
     1
 90
        1
176
     1
 90
        1
176
     1
 40
1.0
176
     1
 90
        0
176
     1
 62
   257
176
     1
 40
1.0
176
     1
 90
        1
176
     1
 90
        6
176
     1
 90
        2
176
     1
 62
     7
176
     1
 90
        5
176
     1
 90
        0
176
     1
 90
        0
176
     1
290
     0
176
     1
 90
       13
176
     1
 40
0.0
176
     1
 90
        0
176
     1
290
     0
176
     1
290
     1
176
     1
290
     1
176
     1
290
     0
176
     1
290
     0
176
     1
290
     0
176
     1
290
     0
176
     1
290
     0
176
     1
290
     0
176
     1
 90
       50
176
     1
 40
0.0
176
     1
 40
1.0
176
     1
 90
        0
176
     1
 62
    18
420
        0
176
     1
 90
       50
176
     1
 90
        3
176
     1
 62
     5
420
      255
176
     1
290
     0
176
     1
 90
       50
176
     1
 90
       50
176
     1
 90
       50
176
     1
290
     0
176
     1
 90
       50
176
     1
 62
   256
176
     0
 40
1.0
176
     0
 90
        2
176
     1
  1
strokes_ogs.tif
176
     1
290
     0
176
     1
 40
1.0
176
     1
 40
1.0
176
     1
  0
VISUALSTYLE
  5
2D
102
{ACAD_REACTORS
330
2A
102
}
330
2A
100
AcDbVisualStyle
  2
Gouraud
 70
     2
177
     3
291
     1
 70
    58
 90
        2
176
     1
 90
        2
176
     1
 90
        1
176
     1
 90
        2
176
     1
 40
0.6
176
     1
 40
30.0
176
     1
 62
     7
420
 16777215
176
     1
 90
        0
176
     1
 90
        0
176
     1
 62
     7
176
     1
 62
   257
176
     1
 90
        1
176
     1
 90
        1
176
     1
 40
1.0
176
     1
 90
        0
176
     1
 62
     7
176
     1
 40
1.0
176
     1
 90
        1
176
     1
 90
        6
176
     1
 90
        2
176
     1
 62
     7
176
     1
 90
        5
176
     1
 90
        0
176
     1
 90
        0
176
     1
290
     0
176
     1
 90
       13
176
     1
 40
0.0
176
     1
 90
        0
176
     1
290
     0
176
     1
290
     1
176
     1
290
     1
176
     1
290
     0
176
     1
290
     0
176
     1
290
     0
176
     1
290
     0
176
     1
290
     0
176
     1
290
     0
176
     1
 90
       50
176
     1
 40
0.0
176
     1
 40
1.0
176
     1
 90
        0
176
     1
 62
    18
420
        0
176
     1
 90
       50
176
     1
 90
        3
176
     1
 62
     5
420
      255
176
     1
290
     0
176
     1
 90
       50
176
     1
 90
       50
176
     1
 90
       50
176
     1
290
     0
176
     1
 90
       50
176
     1
 62
   256
176
     0
 40
1.0
176
     0
 90
        2
176
     1
  1
strokes_ogs.tif
176
     1
290
     0
176
     1
 40
1.0
176
     1
 40
1.0
176
     1
  0
VISUALSTYLE
  5
2E
102
{ACAD_REACTORS
330
2A
102
}
330
2A
100
AcDbVisualStyle
  2
GouraudWithEdges
 70
     3
177
     3
291
     1
 70
    58
 90
        2
176
     1
 90
        2
176
     1
 90
        1
176
     1
 90
        2
176
     1
 40
0.6
176
     1
 40
30.0
176
     1
 62
     7
420
 16777215
176
     1
 90
        1
176
     1
 90
        0
176
     1
 62
     7
176
     1
 62
   257
176
     1
 90
        1
176
     1
 90
        1
176
     1
 40
1.0
176
     1
 90
        0
176
     1
 62
   257
176
     1
 40
1.0
176
     1
 90
        1
176
     1
 90
        6
176
     1
 90
        2
176
     1
 62
     7
176
     1
 90
        5
176
     1
 90
        0
176
     1
 90
        0
176
     1
290
     0
176
     1
 90
       13
176
     1
 40
0.0
176
     1
 90
        0
176
     1
290
     0
176
     1
290
     1
176
     1
290
     1
176
     1
290
     0
176
     1
290
     0
176
     1
290
     0
176
     1
290
     0
176
     1
290
     0
176
     1
290
     0
176
     1
 90
       50
176
     1
 40
0.0
176
     1
 40
1.0
176
     1
 90
        0
176
     1
 62
    18
420
        0
176
     1
 90
       50
176
     1
 90
        3
176
     1
 62
     5
420
      255
176
     1
290
     0
176
     1
 90
       50
176
     1
 90
       50
176
     1
 90
       50
176
     1
290
     0
176
     1
 90
       50
176
     1
 62
   256
176
     0
 40
1.0
176
     0
 90
        2
176
     1
  1
strokes_ogs.tif
176
     1
290
     0
176
     1
 40
1.0
176
     1
 40
1.0
176
     1
  0
VISUALSTYLE
  5
31
102
{ACAD_REACTORS
330
2A
102
}
330
2A
100
AcDbVisualStyle
  2
Hidden
 70
     6
177
     3
291
     0
 70
    58
 90
        1
176
     1
 90
        2
176
     1
 90
        2
176
     1
 90
        0
176
     1
 40
0.6
176
     1
 40
30.0
176
     1
 62
     7
420
 16777215
176
     1
 90
        2
176
     1
 90
        2
176
     1
 62
     7
176
     1
 62
   257
176
     1
 90
        2
176
     1
 90
        1
176
     1
 40
40.0
176
     1
 90
        0
176
     1
 62
   257
176
     1
 40
1.0
176
     1
 90
        1
176
     1
 90
        6
176
     1
 90
        2
176
     1
 62
     7
176
     1
 90
        3
176
     1
 90
        0
176
     1
 90
        0
176
     1
290
     0
176
     1
 90
        1
176
     1
 40
0.0
176
     1
 90
        0
176
     1
290
     0
176
     1
290
     1
176
     1
290
     1
176
     1
290
     0
176
     1
290
     0
176
     1
290
     0
176
     1
290
     0
176
     1
290
     0
176
     1
290
     0
176
     1
 90
       50
176
     1
 40
0.0
176
     1
 40
1.0
176
     1
 90
        0
176
     1
 62
    18
420
        0
176
     1
 90
       50
176
     1
 90
        3
176
     1
 62
     5
420
      255
176
     1
290
     0
176
     1
 90
       50
176
     1
 90
       50
176
     1
 90
       50
176
     1
290
     0
176
     1
 90
       50
176
     1
 62
   256
176
     0
 40
1.0
176
     0
 90
        2
176
     1
  1
strokes_ogs.tif
176
     1
290
     0
176
     1
 40
1.0
176
     1
 40
1.0
176
     1
  0
VISUALSTYLE
  5
3B
102
{ACAD_REACTORS
330
2A
102
}
330
2A
100
AcDbVisualStyle
  2
JitterOff
 70
    20
177
     3
291
     1
 70
    58
 90
        2
176
     0
 90
        2
176
     0
 90
        0
176
     0
 90
        0
176
     0
 40
0.6
176
     0
 40
30.0
176
     0
 62
     7
420
 16777215
176
     0
 90
        1
176
     0
 90
        4
176
     0
 62
     7
176
     0
 62
   257
176
     0
 90
        1
176
     0
 90
        1
176
     0
 40
1.0
176
     0
 90
       10
176
     2
 62
     7
176
     0
 40
1.0
176
     0
 90
        1
176
     0
 90
        6
176
     0
 90
        2
176
     0
 62
     7
176
     0
 90
        5
176
     0
 90
        0
176
     0
 90
        0
176
     0
290
     0
176
     0
 90
        1
176
     0
 40
0.0
176
     0
 90
        0
176
     0
290
     0
176
     0
290
     1
176
     0
290
     1
176
     0
290
     0
176
     0
290
     0
176
     0
290
     0
176
     0
290
     0
176
     0
290
     0
176
     0
290
     0
176
     0
 90
       50
176
     0
 40
0.0
176
     0
 40
1.0
176
     0
 90
        0
176
     0
 62
    18
420
        0
176
     0
 90
       50
176
     0
 90
        3
176
     0
 62
     5
420
      255
176
     0
290
     0
176
     0
 90
       50
176
     0
 90
       50
176
     0
 90
       50
176
     0
290
     0
176
     0
 90
       50
176
     0
 62
   256
176
     0
 40
1.0
176
     0
 90
        2
176
     0
  1
strokes_ogs.tif
176
     0
290
     0
176
     0
 40
1.0
176
     0
 40
1.0
176
     0
  0
VISUALSTYLE
  5
38
102
{ACAD_REACTORS
330
2A
102
}
330
2A
100
AcDbVisualStyle
  2
Linepattern
 70
    14
177
     3
291
     1
 70
    58
 90
        2
176
     1
 90
        2
176
     1
 90
        0
176
     1
 90
        0
176
     1
 40
0.6
176
     1
 40
30.0
176
     1
 62
     7
420
 16777215
176
     1
 90
        1
176
     1
 90
        4
176
     1
 62
     7
176
     1
 62
   257
176
     1
 90
        7
176
     1
 90
        7
176
     1
 40
1.0
176
     1
 90
        8
176
     1
 62
     7
176
     1
 40
1.0
176
     1
 90
        1
176
     1
 90
        6
176
     1
 90
        2
176
     1
 62
     7
176
     1
 90
        5
176
     1
 90
        0
176
     1
 90
        0
176
     1
290
     0
176
     1
 90
        1
176
     1
 40
0.0
176
     1
 90
        0
176
     1
290
     0
176
     1
290
     1
176
     1
290
     1
176
     1
290
     0
176
     1
290
     0
176
     1
290
     0
176
     1
290
     0
176
     1
290
     0
176
     1
290
     0
176
     1
 90
       50
176
     1
 40
0.0
176
     1
 40
1.0
176
     1
 90
        0
176
     1
 62
    18
420
        0
176
     1
 90
       50
176
     1
 90
        3
176
     1
 62
     5
420
      255
176
     1
290
     0
176
     1
 90
       50
176
     1
 90
       50
176
     1
 90
       50
176
     1
290
     0
176
     1
 90
       50
176
     1
 62
   256
176
     0
 40
1.0
176
     0
 90
        2
176
     1
  1
strokes_ogs.tif
176
     1
290
     0
176
     1
 40
1.0
176
     1
 40
1.0
176
     1
  0
VISUALSTYLE
  5
3C
102
{ACAD_REACTORS
330
2A
102
}
330
2A
100
AcDbVisualStyle
  2
OverhangOff
 70
    21
177
     3
291
     1
 70
    58
 90
        2
176
     0
 90
        2
176
     0
 90
        0
176
     0
 90
        0
176
     0
 40
0.6
176
     0
 40
30.0
176
     0
 62
     7
420
 16777215
176
     0
 90
        1
176
     0
 90
        4
176
     0
 62
     7
176
     0
 62
   257
176
     0
 90
        1
176
     0
 90
        1
176
     0
 40
1.0
176
     0
 90
        9
176
     2
 62
     7
176
     0
 40
1.0
176
     0
 90
        1
176
     0
 90
        6
176
     0
 90
        2
176
     0
 62
     7
176
     0
 90
        5
176
     0
 90
        0
176
     0
 90
        0
176
     0
290
     0
176
     0
 90
        1
176
     0
 40
0.0
176
     0
 90
        0
176
     0
290
     0
176
     0
290
     1
176
     0
290
     1
176
     0
290
     0
176
     0
290
     0
176
     0
290
     0
176
     0
290
     0
176
     0
290
     0
176
     0
290
     0
176
     0
 90
       50
176
     0
 40
0.0
176
     0
 40
1.0
176
     0
 90
        0
176
     0
 62
    18
420
        0
176
     0
 90
       50
176
     0
 90
        3
176
     0
 62
     5
420
      255
176
     0
290
     0
176
     0
 90
       50
176
     0
 90
       50
176
     0
 90
       50
176
     0
290
     0
176
     0
 90
       50
176
     0
 62
   256
176
     0
 40
1.0
176
     0
 90
        2
176
     0
  1
strokes_ogs.tif
176
     0
290
     0
176
     0
 40
1.0
176
     0
 40
1.0
176
     0
  0
VISUALSTYLE
  5
33
102
{ACAD_REACTORS
330
2A
102
}
330
2A
100
AcDbVisualStyle
  2
Realistic
 70
     8
177
     3
291
     0
 70
    58
 90
        2
176
     1
 90
        3
176
     1
 90
        0
176
     1
 90
        2
176
     1
 40
0.6
176
     1
 40
30.0
176
     1
 62
     7
420
 16777215
176
     1
 90
        0
176
     1
 90
        0
176
     1
 62
     7
176
     1
 62
   257
176
     1
 90
        1
176
     1
 90
        1
176
     1
 40
1.0
176
     1
 90
        8
176
     1
 62
   257
176
     1
 40
1.0
176
     1
 90
        1
176
     1
 90
        6
176
     1
 90
        2
176
     1
 62
     7
176
     1
 90
        3
176
     1
 90
        0
176
     1
 90
        0
176
     1
290
     0
176
     1
 90
       13
176
     1
 40
0.0
176
     1
 90
        0
176
     1
290
     0
176
     1
290
     1
176
     1
290
     1
176
     1
290
     0
176
     1
290
     0
176
     1
290
     0
176
     1
290
     0
176
     1
290
     0
176
     1
290
     0
176
     1
 90
       50
176
     1
 40
0.0
176
     1
 40
1.0
176
     1
 90
        0
176
     1
 62
    18
420
        0
176
     1
 90
       50
176
     1
 90
        3
176
     1
 62
     5
420
      255
176
     1
290
     0
176
     1
 90
       50
176
     1
 90
       50
176
     1
 90
       50
176
     1
290
     0
176
     1
 90
       50
176
     1
 62
   256
176
     0
 40
1.0
176
     0
 90
        2
176
     1
  1
strokes_ogs.tif
176
     1
290
     0
176
     1
 40
1.0
176
     1
 40
1.0
176
     1
  0
VISUALSTYLE
  5
42
102
{ACAD_REACTORS
330
2A
102
}
330
2A
100
AcDbVisualStyle
  2
Shaded
 70
    27
177
     3
291
     0
 70
    58
 90
        2
176
     1
 90
        2
176
     1
 90
        1
176
     1
 90
        2
176
     1
 40
0.6
176
     1
 40
30.0
176
     1
 62
     7
420
 16777215
176
     1
 90
        0
176
     1
 90
        4
176
     1
 62
     7
176
     1
 62
   257
176
     1
 90
        1
176
     1
 90
        1
176
     1
 40
1.0
176
     1
 90
        8
176
     1
 62
   257
176
     1
 40
1.0
176
     1
 90
        1
176
     1
 90
        6
176
     1
 90
        2
176
     1
 62
     8
420
  7895160
176
     1
 90
        3
176
     1
 90
        0
176
     1
 90
        0
176
     1
290
     0
176
     1
 90
        5
176
     1
 40
0.0
176
     1
 90
        0
176
     1
290
     0
176
     1
290
     1
176
     1
290
     1
176
     1
290
     0
176
     1
290
     0
176
     1
290
     0
176
     1
290
     0
176
     1
290
     0
176
     1
290
     0
176
     1
 90
       50
176
     1
 40
0.0
176
     1
 40
1.0
176
     1
 90
        0
176
     1
 62
    18
420
        0
176
     1
 90
       50
176
     1
 90
        3
176
     1
 62
     5
420
      255
176
     1
290
     0
176
     1
 90
       50
176
     1
 90
       50
176
     1
 90
       50
176
     1
290
     0
176
     1
 90
       50
176
     1
 62
   256
176
     0
 40
1.0
176
     0
 90
        2
176
     1
  1
strokes_ogs.tif
176
     1
290
     0
176
     1
 40
1.0
176
     1
 40
1.0
176
     1
  0
VISUALSTYLE
  5
41
102
{ACAD_REACTORS
330
2A
102
}
330
2A
100
AcDbVisualStyle
  2
Shaded with edges
 70
    26
177
     3
291
     0
 70
    58
 90
        2
176
     1
 90
        2
176
     1
 90
        1
176
     1
 90
        2
176
     1
 40
0.6
176
     1
 40
30.0
176
     1
 62
     7
420
 16777215
176
     1
 90
        1
176
     1
 90
       10
176
     1
 62
     7
176
     1
 62
   257
176
     1
 90
        2
176
     1
 90
        1
176
     1
 40
1.0
176
     1
 90
        8
176
     1
 62
   257
176
     1
 40
1.0
176
     1
 90
        1
176
     1
 90
        6
176
     1
 90
        2
176
     1
 62
     7
176
     1
 90
        3
176
     1
 90
        0
176
     1
 90
        0
176
     1
290
     0
176
     1
 90
        5
176
     1
 40
0.0
176
     1
 90
        0
176
     1
290
     0
176
     1
290
     1
176
     1
290
     1
176
     1
290
     0
176
     1
290
     0
176
     1
290
     0
176
     1
290
     0
176
     1
290
     0
176
     1
290
     0
176
     1
 90
       50
176
     1
 40
0.0
176
     1
 40
1.0
176
     1
 90
        0
176
     1
 62
    18
420
        0
176
     1
 90
       50
176
     1
 90
        3
176
     1
 62
     5
420
      255
176
     1
290
     0
176
     1
 90
       50
176
     1
 90
       50
176
     1
 90
       50
176
     1
290
     0
176
     1
 90
       50
176
     1
 62
   256
176
     0
 40
1.0
176
     0
 90
        2
176
     1
  1
strokes_ogs.tif
176
     1
290
     0
176
     1
 40
1.0
176
     1
 40
1.0
176
     1
  0
VISUALSTYLE
  5
3E
102
{ACAD_REACTORS
330
2A
102
}
330
2A
100
AcDbVisualStyle
  2
Shades of Gray
 70
    23
177
     3
291
     0
 70
    58
 90
        2
176
     1
 90
        2
176
     1
 90
        3
176
     1
 90
        0
176
     1
 40
0.6
176
     1
 40
30.0
176
     1
 62
     7
420
 16777215
176
     1
 90
        2
176
     1
 90
        2
176
     1
 62
     7
176
     1
 62
     7
176
     1
 90
        1
176
     1
 90
        1
176
     1
 40
40.0
176
     1
 90
        8
176
     1
 62
     7
176
     1
 40
1.0
176
     1
 90
        1
176
     1
 90
        6
176
     1
 90
        2
176
     1
 62
     7
176
     1
 90
        3
176
     1
 90
        0
176
     1
 90
        0
176
     1
290
     0
176
     1
 90
        1
176
     1
 40
0.0
176
     1
 90
        0
176
     1
290
     0
176
     1
290
     1
176
     1
290
     1
176
     1
290
     0
176
     1
290
     0
176
     1
290
     0
176
     1
290
     0
176
     1
290
     0
176
     1
290
     0
176
     1
 90
       50
176
     1
 40
0.0
176
     1
 40
1.0
176
     1
 90
        0
176
     1
 62
    18
420
        0
176
     1
 90
       50
176
     1
 90
        3
176
     1
 62
     5
420
      255
176
     1
290
     0
176
     1
 90
       50
176
     1
 90
       50
176
     1
 90
       50
176
     1
290
     0
176
     1
 90
       50
176
     1
 62
   256
176
     0
 40
1.0
176
     0
 90
        2
176
     1
  1
strokes_ogs.tif
176
     1
290
     0
176
     1
 40
1.0
176
     1
 40
1.0
176
     1
  0
VISUALSTYLE
  5
3F
102
{ACAD_REACTORS
330
2A
102
}
330
2A
100
AcDbVisualStyle
  2
Sketchy
 70
    24
177
     3
291
     0
 70
    58
 90
        1
176
     1
 90
        2
176
     1
 90
        2
176
     1
 90
        0
176
     1
 40
0.6
176
     1
 40
30.0
176
     1
 62
     7
420
 16777215
176
     1
 90
        2
176
     1
 90
        2
176
     1
 62
     7
176
     1
 62
     7
176
     1
 90
        1
176
     1
 90
        1
176
     1
 40
40.0
176
     1
 90
       11
176
     1
 62
     7
176
     1
 40
1.0
176
     1
 90
        1
176
     1
 90
        6
176
     1
 90
        2
176
     1
 62
     7
176
     1
 90
        6
176
     1
 90
        0
176
     1
 90
        0
176
     1
290
     0
176
     1
 90
        1
176
     1
 40
0.0
176
     1
 90
        0
176
     1
290
     0
176
     1
290
     1
176
     1
290
     1
176
     1
290
     0
176
     1
290
     0
176
     1
290
     0
176
     1
290
     0
176
     1
290
     0
176
     1
290
     0
176
     1
 90
       50
176
     1
 40
0.0
176
     1
 40
1.0
176
     1
 90
        0
176
     1
 62
    18
420
        0
176
     1
 90
       50
176
     1
 90
        3
176
     1
 62
     5
420
      255
176
     1
290
     0
176
     1
 90
       50
176
     1
 90
       50
176
     1
 90
       50
176
     1
290
     0
176
     1
 90
       50
176
     1
 62
   256
176
     0
 40
1.0
176
     0
 90
        2
176
     1
  1
strokes_ogs.tif
176
     1
290
     0
176
     1
 40
1.0
176
     1
 40
1.0
176
     1
  0
VISUALSTYLE
  5
37
102
{ACAD_REACTORS
330
2A
102
}
330
2A
100
AcDbVisualStyle
  2
Thicken
 70
    13
177
     3
291
     1
 70
    58
 90
        2
176
     1
 90
        2
176
     1
 90
        0
176
     1
 90
        0
176
     1
 40
0.6
176
     1
 40
30.0
176
     1
 62
     7
420
 16777215
176
     1
 90
        1
176
     1
 90
        4
176
     1
 62
     7
176
     1
 62
   257
176
     1
 90
        1
176
     1
 90
        1
176
     1
 40
1.0
176
     1
 90
       12
176
     1
 62
     7
176
     1
 40
1.0
176
     1
 90
        1
176
     1
 90
        6
176
     1
 90
        2
176
     1
 62
     7
176
     1
 90
        5
176
     1
 90
        0
176
     1
 90
        0
176
     1
290
     0
176
     1
 90
        1
176
     1
 40
0.0
176
     1
 90
        0
176
     1
290
     0
176
     1
290
     1
176
     1
290
     1
176
     1
290
     0
176
     1
290
     0
176
     1
290
     0
176
     1
290
     0
176
     1
290
     0
176
     1
290
     0
176
     1
 90
       50
176
     1
 40
0.0
176
     1
 40
1.0
176
     1
 90
        0
176
     1
 62
    18
420
        0
176
     1
 90
       50
176
     1
 90
        3
176
     1
 62
     5
420
      255
176
     1
290
     0
176
     1
 90
       50
176
     1
 90
       50
176
     1
 90
       50
176
     1
290
     0
176
     1
 90
       50
176
     1
 62
   256
176
     0
 40
1.0
176
     0
 90
        2
176
     1
  1
strokes_ogs.tif
176
     1
290
     0
176
     1
 40
1.0
176
     1
 40
1.0
176
     1
  0
VISUALSTYLE
  5
30
102
{ACAD_REACTORS
330
2A
102
}
330
2A
100
AcDbVisualStyle
  2
Wireframe
 70
     5
177
     3
291
     0
 70
    58
 90
        0
176
     1
 90
        2
176
     1
 90
        0
176
     1
 90
        0
176
     1
 40
0.6
176
     1
 40
30.0
176
     1
 62
     7
420
 16777215
176
     1
 90
        1
176
     1
 90
        4
176
     1
 62
     7
176
     1
 62
   257
176
     1
 90
        1
176
     1
 90
        1
176
     1
 40
1.0
176
     1
 90
        0
176
     1
 62
   257
176
     1
 40
1.0
176
     1
 90
        1
176
     1
 90
        6
176
     1
 90
        2
176
     1
 62
     7
176
     1
 90
        3
176
     1
 90
        0
176
     1
 90
        0
176
     1
290
     0
176
     1
 90
        1
176
     1
 40
0.0
176
     1
 90
        0
176
     1
290
     0
176
     1
290
     1
176
     1
290
     1
176
     1
290
     0
176
     1
290
     0
176
     1
290
     0
176
     1
290
     0
176
     1
290
     0
176
     1
290
     0
176
     1
 90
       50
176
     1
 40
0.0
176
     1
 40
1.0
176
     1
 90
        0
176
     1
 62
    18
420
        0
176
     1
 90
       50
176
     1
 90
        3
176
     1
 62
     5
420
      255
176
     1
290
     0
176
     1
 90
       50
176
     1
 90
       50
176
     1
 90
       50
176
     1
290
     0
176
     1
 90
       50
176
     1
 62
   256
176
     0
 40
1.0
176
     0
 90
        2
176
     1
  1
strokes_ogs.tif
176
     1
290
     0
176
     1
 40
1.0
176
     1
 40
1.0
176
     1
  0
VISUALSTYLE
  5
40
102
{ACAD_REACTORS
330
2A
102
}
330
2A
100
AcDbVisualStyle
  2
X-Ray
 70
    25
177
     3
291
     0
 70
    58
 90
        2
176
     1
 90
        2
176
     1
 90
        1
176
     1
 90
        1
176
     1
 40
0.5
176
     1
 40
30.0
176
     1
 62
     7
420
 16777215
176
     1
 90
        1
176
     1
 90
        0
176
     1
 62
     7
176
     1
 62
   257
176
     1
 90
        1
176
     1
 90
        1
176
     1
 40
1.0
176
     1
 90
        8
176
     1
 62
     7
176
     1
 40
1.0
176
     1
 90
        1
176
     1
 90
        6
176
     1
 90
        2
176
     1
 62
     7
176
     1
 90
        3
176
     1
 90
        0
176
     1
 90
        0
176
     1
290
     0
176
     1
 90
       13
176
     1
 40
0.0
176
     1
 90
        0
176
     1
290
     0
176
     1
290
     1
176
     1
290
     1
176
     1
290
     0
176
     1
290
     0
176
     1
290
     0
176
     1
290
     0
176
     1
290
     0
176
     1
290
     0
176
     1
 90
       50
176
     1
 40
0.0
176
     1
 40
1.0
176
     1
 90
        0
176
     1
 62
    18
420
        0
176
     1
 90
       50
176
     1
 90
        3
176
     1
 62
     5
420
      255
176
     1
290
     0
176
     1
 90
       50
176
     1
 90
       50
176
     1
 90
       50
176
     1
290
     0
176
     1
 90
       50
176
     1
 62
   256
176
     0
 40
1.0
176
     0
 90
        2
176
     1
  1
strokes_ogs.tif
176
     1
290
     0
176
     1
 40
1.0
176
     1
 40
1.0
176
     1
  0
DICTIONARYVAR
  5
8B
102
{ACAD_REACTORS
330
8A
102
}
330
8A
100
DictionaryVariables
280
     0
  1
1:1
  0
DICTIONARYVAR
  5
90
102
{ACAD_REACTORS
330
8A
102
}
330
8A
100
DictionaryVariables
280
     0
  1
Standard
  0
DICTIONARYVAR
  5
8F
102
{ACAD_REACTORS
330
8A
102
}
330
8A
100
DictionaryVariables
280
     0
  1
Standard
  0
DICTIONARY
  5
8C
330
5A
100
AcDbDictionary
280
     1
281
     1
  3
ACAD_ROUNDTRIP_2008_TABLESTYLE_CELLSTYLEMAP
360
8D
  0
CELLSTYLEMAP
  5
8D
102
{ACAD_REACTORS
330
8C
102
}
330
8C
100
AcDbCellStyleMap
 90
        3
300
CELLSTYLE
  1
TABLEFORMAT_BEGIN
 90
        5
170
     1
 91
        0
 92
    32768
 62
   257
 93
        1
300
CONTENTFORMAT
  1
CONTENTFORMAT_BEGIN
 90
        0
 91
        0
 92
        4
 93
        0
300

 40
0.0
140
1.0
 94
        5
 62
     0
340
11
144
0.25
309
CONTENTFORMAT_END
171
     1
301
MARGIN
  1
CELLMARGIN_BEGIN
 40
0.06
 40
0.06
 40
0.06
 40
0.06
 40
0.06
 40
0.06
309
CELLMARGIN_END
 94
        6
 95
        1
302
GRIDFORMAT
  1
GRIDFORMAT_BEGIN
 90
        0
 91
        1
 62
     0
 92
       -2
340
14
 93
        0
 40
0.045
309
GRIDFORMAT_END
 95
        2
302
GRIDFORMAT
  1
GRIDFORMAT_BEGIN
 90
        0
 91
        1
 62
     0
 92
       -2
340
14
 93
        0
 40
0.045
309
GRIDFORMAT_END
 95
        4
302
GRIDFORMAT
  1
GRIDFORMAT_BEGIN
 90
        0
 91
        1
 62
     0
 92
       -2
340
14
 93
        0
 40
0.045
309
GRIDFORMAT_END
 95
        8
302
GRIDFORMAT
  1
GRIDFORMAT_BEGIN
 90
        0
 91
        1
 62
     0
 92
       -2
340
14
 93
        0
 40
0.045
309
GRIDFORMAT_END
 95
       16
302
GRIDFORMAT
  1
GRIDFORMAT_BEGIN
 90
        0
 91
        1
 62
     0
 92
       -2
340
14
 93
        0
 40
0.045
309
GRIDFORMAT_END
 95
       32
302
GRIDFORMAT
  1
GRIDFORMAT_BEGIN
 90
        0
 91
        1
 62
     0
 92
       -2
340
14
 93
        0
 40
0.045
309
GRIDFORMAT_END
309
TABLEFORMAT_END
  1
CELLSTYLE_BEGIN
 90
        1
 91
        1
300
_TITLE
309
CELLSTYLE_END
300
CELLSTYLE
  1
TABLEFORMAT_BEGIN
 90
        5
170
     1
 91
        0
 92
        0
 62
   257
 93
        1
300
CONTENTFORMAT
  1
CONTENTFORMAT_BEGIN
 90
        0
 91
        0
 92
        4
 93
        0
300

 40
0.0
140
1.0
 94
        5
 62
     0
340
11
144
0.18
309
CONTENTFORMAT_END
171
     1
301
MARGIN
  1
CELLMARGIN_BEGIN
 40
0.06
 40
0.06
 40
0.06
 40
0.06
 40
0.06
 40
0.06
309
CELLMARGIN_END
 94
        6
 95
        1
302
GRIDFORMAT
  1
GRIDFORMAT_BEGIN
 90
        0
 91
        1
 62
     0
 92
       -2
340
14
 93
        0
 40
0.045
309
GRIDFORMAT_END
 95
        2
302
GRIDFORMAT
  1
GRIDFORMAT_BEGIN
 90
        0
 91
        1
 62
     0
 92
       -2
340
14
 93
        0
 40
0.045
309
GRIDFORMAT_END
 95
        4
302
GRIDFORMAT
  1
GRIDFORMAT_BEGIN
 90
        0
 91
        1
 62
     0
 92
       -2
340
14
 93
        0
 40
0.045
309
GRIDFORMAT_END
 95
        8
302
GRIDFORMAT
  1
GRIDFORMAT_BEGIN
 90
        0
 91
        1
 62
     0
 92
       -2
340
14
 93
        0
 40
0.045
309
GRIDFORMAT_END
 95
       16
302
GRIDFORMAT
  1
GRIDFORMAT_BEGIN
 90
        0
 91
        1
 62
     0
 92
       -2
340
14
 93
        0
 40
0.045
309
GRIDFORMAT_END
 95
       32
302
GRIDFORMAT
  1
GRIDFORMAT_BEGIN
 90
        0
 91
        1
 62
     0
 92
       -2
340
14
 93
        0
 40
0.045
309
GRIDFORMAT_END
309
TABLEFORMAT_END
  1
CELLSTYLE_BEGIN
 90
        2
 91
        1
300
_HEADER
309
CELLSTYLE_END
300
CELLSTYLE
  1
TABLEFORMAT_BEGIN
 90
        5
170
     1
 91
        0
 92
        0
 62
   257
 93
        1
300
CONTENTFORMAT
  1
CONTENTFORMAT_BEGIN
 90
        0
 91
        0
 92
        4
 93
        0
300

 40
0.0
140
1.0
 94
        2
 62
     0
340
11
144
0.18
309
CONTENTFORMAT_END
171
     1
301
MARGIN
  1
CELLMARGIN_BEGIN
 40
0.06
 40
0.06
 40
0.06
 40
0.06
 40
0.06
 40
0.06
309
CELLMARGIN_END
 94
        6
 95
        1
302
GRIDFORMAT
  1
GRIDFORMAT_BEGIN
 90
        0
 91
        1
 62
     0
 92
       -2
340
14
 93
        0
 40
0.045
309
GRIDFORMAT_END
 95
        2
302
GRIDFORMAT
  1
GRIDFORMAT_BEGIN
 90
        0
 91
        1
 62
     0
 92
       -2
340
14
 93
        0
 40
0.045
309
GRIDFORMAT_END
 95
        4
302
GRIDFORMAT
  1
GRIDFORMAT_BEGIN
 90
        0
 91
        1
 62
     0
 92
       -2
340
14
 93
        0
 40
0.045
309
GRIDFORMAT_END
 95
        8
302
GRIDFORMAT
  1
GRIDFORMAT_BEGIN
 90
        0
 91
        1
 62
     0
 92
       -2
340
14
 93
        0
 40
0.045
309
GRIDFORMAT_END
 95
       16
302
GRIDFORMAT
  1
GRIDFORMAT_BEGIN
 90
        0
 91
        1
 62
     0
 92
       -2
340
14
 93
        0
 40
0.045
309
GRIDFORMAT_END
 95
       32
302
GRIDFORMAT
  1
GRIDFORMAT_BEGIN
 90
        0
 91
        1
 62
     0
 92
       -2
340
14
 93
        0
 40
0.045
309
GRIDFORMAT_END
309
TABLEFORMAT_END
  1
CELLSTYLE_BEGIN
 90
        3
 91
        2
300
_DATA
309
CELLSTYLE_END
  0
ENDSEC
  0
EOF
