  0
SECTION
  2
HEADER
  9
$ACADVER
  1
AC1032
  9
$ACADMAINTVER
 90
       55
  9
$DWGCODEPAGE
  3
ANSI_1251
  9
$LASTSAVEDBY
  1
sussie
  9
$REQUIREDVERSIONS
160
                 0
  9
$INSBASE
 10
0.0
 20
0.0
 30
0.0
  9
$EXTMIN
 10
-38.3247
 20
-18.81767
 30
0.0
  9
$EXTMAX
 10
37.77892
 20
13.52646
 30
0.0
  9
$LIMMIN
 10
0.0
 20
0.0
  9
$LIMMAX
 10
12.0
 20
9.0
  9
$ORTHOMODE
 70
     0
  9
$REGENMODE
 70
     1
  9
$FILLMODE
 70
     1
  9
$QTEXTMODE
 70
     0
  9
$MIRRTEXT
 70
     1
  9
$LTSCALE
 40
1.0
  9
$ATTMODE
 70
     1
  9
$TEXTSIZE
 40
0.2
  9
$TRACEWID
 40
0.05
  9
$TEXTSTYLE
  7
Standard
  9
$CLAYER
  8
0
  9
$CELTYPE
  6
ByLayer
  9
$CECOLOR
 62
   256
  9
$CELTSCALE
 40
1.0
  9
$DISPSILH
 70
     0
  9
$DIMSCALE
 40
1.0
  9
$DIMASZ
 40
0.18
  9
$DIMEXO
 40
0.0625
  9
$DIMDLI
 40
0.38
  9
$DIMRND
 40
0.0
  9
$DIMDLE
 40
0.0
  9
$DIMEXE
 40
0.18
  9
$DIMTP
 40
0.0
  9
$DIMTM
 40
0.0
  9
$DIMTXT
 40
0.18
  9
$DIMCEN
 40
0.09
  9
$DIMTSZ
 40
0.0
  9
$DIMTOL
 70
     0
  9
$DIMLIM
 70
     0
  9
$DIMTIH
 70
     1
  9
$DIMTOH
 70
     1
  9
$DIMSE1
 70
     0
  9
$DIMSE2
 70
     0
  9
$DIMTAD
 70
     0
  9
$DIMZIN
 70
     0
  9
$DIMBLK
  1

  9
$DIMASO
 70
     1
  9
$DIMSHO
 70
     1
  9
$DIMPOST
  1

  9
$DIMAPOST
  1

  9
$DIMALT
 70
     0
  9
$DIMALTD
 70
     2
  9
$DIMALTF
 40
25.4
  9
$DIMLFAC
 40
1.0
  9
$DIMTOFL
 70
     0
  9
$DIMTVP
 40
0.0
  9
$DIMTIX
 70
     0
  9
$DIMSOXD
 70
     0
  9
$DIMSAH
 70
     0
  9
$DIMBLK1
  1

  9
$DIMBLK2
  1

  9
$DIMSTYLE
  2
Standard
  9
$DIMCLRD
 70
     0
  9
$DIMCLRE
 70
     0
  9
$DIMCLRT
 70
     0
  9
$DIMTFAC
 40
1.0
  9
$DIMGAP
 40
0.09
  9
$DIMJUST
 70
     0
  9
$DIMSD1
 70
     0
  9
$DIMSD2
 70
     0
  9
$DIMTOLJ
 70
     1
  9
$DIMTZIN
 70
     0
  9
$DIMALTZ
 70
     0
  9
$DIMALTTZ
 70
     0
  9
$DIMUPT
 70
     0
  9
$DIMDEC
 70
     4
  9
$DIMTDEC
 70
     4
  9
$DIMALTU
 70
     2
  9
$DIMALTTD
 70
     2
  9
$DIMTXSTY
  7
Standard
  9
$DIMAUNIT
 70
     0
  9
$DIMADEC
 70
     0
  9
$DIMALTRND
 40
0.0
  9
$DIMAZIN
 70
     0
  9
$DIMDSEP
 70
    46
  9
$DIMATFIT
 70
     3
  9
$DIMFRAC
 70
     0
  9
$DIMLDRBLK
  1

  9
$DIMLUNIT
 70
     2
  9
$DIMLWD
 70
    -2
  9
$DIMLWE
 70
    -2
  9
$DIMTMOVE
 70
     0
  9
$DIMFXL
 40
1.0
  9
$DIMFXLON
 70
     0
  9
$DIMJOGANG
 40
0.7853981633974483
  9
$DIMTFILL
 70
     0
  9
$DIMTFILLCLR
 70
     0
  9
$DIMARCSYM
 70
     0
  9
$DIMLTYPE
  6

  9
$DIMLTEX1
  6

  9
$DIMLTEX2
  6

  9
$DIMTXTDIRECTION
 70
     0
  9
$LUNITS
 70
     2
  9
$LUPREC
 70
     4
  9
$SKETCHINC
 40
0.1
  9
$FILLETRAD
 40
0.0
  9
$AUNITS
 70
     0
  9
$AUPREC
 70
     0
  9
$MENU
  1
.
  9
$ELEVATION
 40
0.0
  9
$PELEVATION
 40
0.0
  9
$THICKNESS
 40
0.0
  9
$LIMCHECK
 70
     0
  9
$CHAMFERA
 40
0.0
  9
$CHAMFERB
 40
0.0
  9
$CHAMFERC
 40
0.0
  9
$CHAMFERD
 40
0.0
  9
$SKPOLY
 70
     0
  9
$TDCREATE
 40
2460752.636578426
  9
$TDUCREATE
 40
2460752.511578426
  9
$TDUPDATE
 40
2460752.636579746
  9
$TDUUPDATE
 40
2460752.511579746
  9
$TDINDWG
 40
0.0000000116
  9
$TDUSRTIMER
 40
0.0000000116
  9
$USRTIMER
 70
     1
  9
$ANGBASE
 50
0.0
  9
$ANGDIR
 70
     0
  9
$PDMODE
 70
     0
  9
$PDSIZE
 40
0.0
  9
$PLINEWID
 40
0.0
  9
$SPLFRAME
 70
     0
  9
$SPLINETYPE
 70
     6
  9
$SPLINESEGS
 70
     8
  9
$HANDSEED
  5
C7
  9
$SURFTAB1
 70
     6
  9
$SURFTAB2
 70
     6
  9
$SURFTYPE
 70
     6
  9
$SURFU
 70
     6
  9
$SURFV
 70
     6
  9
$UCSBASE
  2

  9
$UCSNAME
  2

  9
$UCSORG
 10
0.0
 20
0.0
 30
0.0
  9
$UCSXDIR
 10
1.0
 20
0.0
 30
0.0
  9
$UCSYDIR
 10
0.0
 20
1.0
 30
0.0
  9
$UCSORTHOREF
  2

  9
$UCSORTHOVIEW
 70
     0
  9
$UCSORGTOP
 10
0.0
 20
0.0
 30
0.0
  9
$UCSORGBOTTOM
 10
0.0
 20
0.0
 30
0.0
  9
$UCSORGLEFT
 10
0.0
 20
0.0
 30
0.0
  9
$UCSORGRIGHT
 10
0.0
 20
0.0
 30
0.0
  9
$UCSORGFRONT
 10
0.0
 20
0.0
 30
0.0
  9
$UCSORGBACK
 10
0.0
 20
0.0
 30
0.0
  9
$PUCSBASE
  2

  9
$PUCSNAME
  2

  9
$PUCSORG
 10
0.0
 20
0.0
 30
0.0
  9
$PUCSXDIR
 10
1.0
 20
0.0
 30
0.0
  9
$PUCSYDIR
 10
0.0
 20
1.0
 30
0.0
  9
$PUCSORTHOREF
  2

  9
$PUCSORTHOVIEW
 70
     0
  9
$PUCSORGTOP
 10
0.0
 20
0.0
 30
0.0
  9
$PUCSORGBOTTOM
 10
0.0
 20
0.0
 30
0.0
  9
$PUCSORGLEFT
 10
0.0
 20
0.0
 30
0.0
  9
$PUCSORGRIGHT
 10
0.0
 20
0.0
 30
0.0
  9
$PUCSORGFRONT
 10
0.0
 20
0.0
 30
0.0
  9
$PUCSORGBACK
 10
0.0
 20
0.0
 30
0.0
  9
$USERI1
 70
     0
  9
$USERI2
 70
     0
  9
$USERI3
 70
     0
  9
$USERI4
 70
     0
  9
$USERI5
 70
     0
  9
$USERR1
 40
0.0
  9
$USERR2
 40
0.0
  9
$USERR3
 40
0.0
  9
$USERR4
 40
0.0
  9
$USERR5
 40
0.0
  9
$WORLDVIEW
 70
     1
  9
$SHADEDGE
 70
     3
  9
$SHADEDIF
 70
    70
  9
$TILEMODE
 70
     1
  9
$MAXACTVP
 70
    64
  9
$PINSBASE
 10
0.0
 20
0.0
 30
0.0
  9
$PLIMCHECK
 70
     0
  9
$PEXTMIN
 10
1.000000000000000E+20
 20
1.000000000000000E+20
 30
1.000000000000000E+20
  9
$PEXTMAX
 10
-1.000000000000000E+20
 20
-1.000000000000000E+20
 30
-1.000000000000000E+20
  9
$PLIMMIN
 10
0.0
 20
0.0
  9
$PLIMMAX
 10
12.0
 20
9.0
  9
$UNITMODE
 70
     0
  9
$VISRETAIN
 70
     1
  9
$PLINEGEN
 70
     0
  9
$PSLTSCALE
 70
     1
  9
$TREEDEPTH
 70
  3020
  9
$CMLSTYLE
  2
Standard
  9
$CMLJUST
 70
     0
  9
$CMLSCALE
 40
1.0
  9
$PROXYGRAPHICS
 70
     1
  9
$MEASUREMENT
 70
     0
  9
$CELWEIGHT
370
    -1
  9
$ENDCAPS
280
     0
  9
$JOINSTYLE
280
     0
  9
$LWDISPLAY
290
     0
  9
$INSUNITS
 70
     5
  9
$HYPERLINKBASE
  1

  9
$STYLESHEET
  1

  9
$XEDIT
290
     1
  9
$CEPSNTYPE
380
     0
  9
$PSTYLEMODE
290
     1
  9
$FINGERPRINTGUID
  2
{8cd5cb11-7f8a-49d4-bdaf-3a0abfaf926a}
  9
$VERSIONGUID
  2
{FAEB1C32-E019-11D5-929B-00C0DF256EC4}
  9
$EXTNAMES
290
     1
  9
$PSVPSCALE
 40
0.0
  9
$OLESTARTUP
290
     0
  9
$SORTENTS
280
   127
  9
$INDEXCTL
280
     0
  9
$HIDETEXT
280
     1
  9
$XCLIPFRAME
280
     2
  9
$HALOGAP
280
     0
  9
$OBSCOLOR
 70
   257
  9
$OBSLTYPE
280
     0
  9
$INTERSECTIONDISPLAY
280
     0
  9
$INTERSECTIONCOLOR
 70
   257
  9
$DIMASSOC
280
     2
  9
$PROJECTNAME
  1

  9
$CAMERADISPLAY
290
     0
  9
$LENSLENGTH
 40
50.0
  9
$CAMERAHEIGHT
 40
0.0
  9
$STEPSPERSEC
 40
2.0
  9
$STEPSIZE
 40
6.0
  9
$3DDWFPREC
 40
2.0
  9
$PSOLWIDTH
 40
0.25
  9
$PSOLHEIGHT
 40
4.0
  9
$LOFTANG1
 40
1.570796326794897
  9
$LOFTANG2
 40
1.570796326794897
  9
$LOFTMAG1
 40
0.0
  9
$LOFTMAG2
 40
0.0
  9
$LOFTPARAM
 70
     7
  9
$LOFTNORMALS
280
     1
  9
$LATITUDE
 40
37.795
  9
$LONGITUDE
 40
-122.394
  9
$NORTHDIRECTION
 40
0.0
  9
$TIMEZONE
 70
 -8000
  9
$LIGHTGLYPHDISPLAY
280
     1
  9
$TILEMODELIGHTSYNCH
280
     1
  9
$CMATERIAL
347
44
  9
$SOLIDHIST
280
     0
  9
$SHOWHIST
280
     1
  9
$DWFFRAME
280
     2
  9
$DGNFRAME
280
     2
  9
$REALWORLDSCALE
290
     1
  9
$INTERFERECOLOR
 62
   256
  9
$CSHADOW
280
     0
  9
$SHADOWPLANELOCATION
 40
0.0
  0
ENDSEC
  0
SECTION
  2
CLASSES
  0
CLASS
  1
ACDBDICTIONARYWDFLT
  2
AcDbDictionaryWithDefault
  3
ObjectDBX Classes
 90
        0
 91
        3
280
     0
281
     0
  0
CLASS
  1
VISUALSTYLE
  2
AcDbVisualStyle
  3
ObjectDBX Classes
 90
     4095
 91
        3
280
     0
281
     0
  0
CLASS
  1
MATERIAL
  2
AcDbMaterial
  3
ObjectDBX Classes
 90
     1153
 91
        3
280
     0
281
     0
  0
CLASS
  1
SCALE
  2
AcDbScale
  3
ObjectDBX Classes
 90
     1153
 91
        3
280
     0
281
     0
  0
CLASS
  1
TABLESTYLE
  2
AcDbTableStyle
  3
ObjectDBX Classes
 90
     4095
 91
        3
280
     0
281
     0
  0
CLASS
  1
MLEADERSTYLE
  2
AcDbMLeaderStyle
  3
ACDB_MLEADERSTYLE_CLASS
 90
     4095
 91
        3
280
     0
281
     0
  0
CLASS
  1
SUN
  2
AcDbSun
  3
SCENEOE
 90
     1153
 91
        3
280
     0
281
     0
  0
CLASS
  1
IMAGEDEF
  2
AcDbRasterImageDef
  3
ISM
 90
        0
 91
        3
280
     0
281
     0
  0
CLASS
  1
IMAGE
  2
AcDbRasterImage
  3
ISM
 90
      127
 91
        4
280
     0
281
     1
  0
CLASS
  1
IMAGEDEF_REACTOR
  2
AcDbRasterImageDefReactor
  3
ISM
 90
        1
 91
        3
280
     0
281
     0
  0
CLASS
  1
DICTIONARYVAR
  2
AcDbDictionaryVar
  3
ObjectDBX Classes
 90
        0
 91
        3
280
     0
281
     0
  0
CLASS
  1
CELLSTYLEMAP
  2
AcDbCellStyleMap
  3
ObjectDBX Classes
 90
     1152
 91
        3
280
     0
281
     0
  0
ENDSEC
  0
SECTION
  2
TABLES
  0
TABLE
  2
VPORT
  5
8
330
0
100
AcDbSymbolTable
 70
     1
  0
VPORT
  5
29
330
8
100
AcDbSymbolTableRecord
100
AcDbViewportTableRecord
  2
*Active
 70
     0
 10
0.0
 20
0.0
 11
1.0
 21
1.0
 12
10.42990654205607
 22
4.5
 13
0.0
 23
0.0
 14
0.5
 24
0.5
 15
0.5
 25
0.5
 16
0.0
 26
0.0
 36
1.0
 17
0.0
 27
0.0
 37
0.0
 40
9.0
 41
1.972972972850329
 42
50.0
 43
0.0
 44
0.0
 50
0.0
 51
0.0
 71
     0
 72
   100
 73
     1
 74
     3
 75
     0
 76
     0
 77
     0
 78
     0
281
     0
 65
     1
110
0.0
120
0.0
130
0.0
111
1.0
121
0.0
131
0.0
112
0.0
122
1.0
132
0.0
 79
     0
146
0.0
348
2F
 60
     3
 61
     5
292
     1
282
     1
141
0.0
142
0.0
 63
   250
361
5D
  0
ENDTAB
  0
TABLE
  2
LTYPE
  5
5
330
0
100
AcDbSymbolTable
 70
     1
  0
LTYPE
  5
14
330
5
100
AcDbSymbolTableRecord
100
AcDbLinetypeTableRecord
  2
ByBlock
 70
     0
  3

 72
    65
 73
     0
 40
0.0
  0
LTYPE
  5
15
330
5
100
AcDbSymbolTableRecord
100
AcDbLinetypeTableRecord
  2
ByLayer
 70
     0
  3

 72
    65
 73
     0
 40
0.0
  0
LTYPE
  5
16
330
5
100
AcDbSymbolTableRecord
100
AcDbLinetypeTableRecord
  2
Continuous
 70
     0
  3
Solid line
 72
    65
 73
     0
 40
0.0
  0
ENDTAB
  0
TABLE
  2
LAYER
  5
2
330
0
100
AcDbSymbolTable
 70
     2
  0
LAYER
  5
10
330
2
100
AcDbSymbolTableRecord
100
AcDbLayerTableRecord
  2
0
 70
     0
 62
     7
  6
Continuous
370
    -3
390
F
347
46
348
0
  0
LAYER
  5
5F
330
2
100
AcDbSymbolTableRecord
100
AcDbLayerTableRecord
  2
Dummy%Layer%Dummy%Layer
 70
     0
 62
     7
  6
Continuous
370
    -3
390
F
347
46
348
0
  0
ENDTAB
  0
TABLE
  2
STYLE
  5
3
330
0
100
AcDbSymbolTable
 70
     2
  0
STYLE
  5
11
330
3
100
AcDbSymbolTableRecord
100
AcDbTextStyleTableRecord
  2
Standard
 70
     0
 40
0.0
 41
1.0
 50
0.0
 71
     0
 42
0.2
  3
txt
  4

  0
STYLE
  5
B9
330
3
100
AcDbSymbolTableRecord
100
AcDbTextStyleTableRecord
  2
0
 70
     0
 40
1.0
 41
1.0
 50
0.0
 71
     0
 42
0.2
  3
Arial
  4

  0
ENDTAB
  0
TABLE
  2
VIEW
  5
6
330
0
100
AcDbSymbolTable
 70
     0
  0
ENDTAB
  0
TABLE
  2
UCS
  5
7
330
0
100
AcDbSymbolTable
 70
     0
  0
ENDTAB
  0
TABLE
  2
APPID
  5
9
330
0
100
AcDbSymbolTable
 70
     2
  0
APPID
  5
12
330
9
100
AcDbSymbolTableRecord
100
AcDbRegAppTableRecord
  2
ACAD
 70
     0
  0
APPID
  5
5E
330
9
100
AcDbSymbolTableRecord
100
AcDbRegAppTableRecord
  2
ODA
 70
     0
  0
ENDTAB
  0
TABLE
  2
DIMSTYLE
  5
A
330
0
100
AcDbSymbolTable
 70
     1
100
AcDbDimStyleTable
  0
DIMSTYLE
105
27
330
A
100
AcDbSymbolTableRecord
100
AcDbDimStyleTableRecord
  2
Standard
 70
     0
178
     0
340
11
  0
ENDTAB
  0
TABLE
  2
BLOCK_RECORD
  5
1
330
0
100
AcDbSymbolTable
 70
     1
  0
BLOCK_RECORD
  5
1F
330
1
100
AcDbSymbolTableRecord
100
AcDbBlockTableRecord
  2
*Model_Space
340
22
 70
     0
280
     1
281
     0
  0
BLOCK_RECORD
  5
1B
330
1
100
AcDbSymbolTableRecord
100
AcDbBlockTableRecord
  2
*Paper_Space
340
1E
 70
     0
280
     1
281
     0
  0
BLOCK_RECORD
  5
23
330
1
100
AcDbSymbolTableRecord
100
AcDbBlockTableRecord
  2
*Paper_Space0
340
26
 70
     0
280
     1
281
     0
  0
ENDTAB
  0
ENDSEC
  0
SECTION
  2
BLOCKS
  0
BLOCK
  5
20
330
1F
100
AcDbEntity
  8
0
100
AcDbBlockBegin
  2
*Model_Space
 70
     0
 10
0.0
 20
0.0
 30
0.0
  3
*Model_Space
  1

  0
ENDBLK
  5
21
330
1F
100
AcDbEntity
  8
0
100
AcDbBlockEnd
  0
BLOCK
  5
1C
330
1B
100
AcDbEntity
 67
     1
  8
0
100
AcDbBlockBegin
  2
*Paper_Space
 70
     0
 10
0.0
 20
0.0
 30
0.0
  3
*Paper_Space
  1

  0
ENDBLK
  5
1D
330
1B
100
AcDbEntity
 67
     1
  8
0
100
AcDbBlockEnd
  0
BLOCK
  5
24
330
23
100
AcDbEntity
  8
0
100
AcDbBlockBegin
  2
*Paper_Space0
 70
     0
 10
0.0
 20
0.0
 30
0.0
  3
*Paper_Space0
  1

  0
ENDBLK
  5
25
330
23
100
AcDbEntity
  8
0
100
AcDbBlockEnd
  0
ENDSEC
  0
SECTION
  2
ENTITIES
  0
IMAGE
  5
62
330
1F
100
AcDbEntity
  8
Dummy%Layer%Dummy%Layer
160
               140
310
8C000000010000008400000006000000050000005EFDBD3FE0851640E0C0E2BA6CD6E3BF00000000000000005EFDBD3FE08516403AAAFCD27799E6BF0000000000000000B5DA13D3D8C616403AAAFCD27799E6BF0000000000000000B5DA13D3D8C61640E0C0E2BA6CD6E3BF00000000000000005EFDBD3FE0851640E0C0E2
310
BA6CD6E3BF0000000000000000
100
AcDbRasterImage
 90
        0
 10
5.54664
 20
-6.92043
 30
0.0
 11
0.01390826219512195
 21
0.0
 31
0.0
 12
0.0
 22
0.0138955033557047
 32
0.0
 13
328.0
 23
447.0
340
61
 70
     7
280
     1
281
    50
282
    50
283
     0
360
63
 71
     1
 91
        2
 14
5.54664
 24
-6.92043
 14
10.10855
 24
-0.7091399999999997
290
     0
  0
IMAGE
  5
65
330
1F
100
AcDbEntity
  8
Dummy%Layer%Dummy%Layer
160
               140
310
8C0000000100000084000000060000000500000032B03B48719213C040C2784A7DD3E3BF000000000000000032B03B48719213C0A5CF311A7299E6BF0000000000000000CB8F45562A5113C0A5CF311A7299E6BF0000000000000000CB8F45562A5113C040C2784A7DD3E3BF000000000000000032B03B48719213C040C278
310
4A7DD3E3BF0000000000000000
100
AcDbRasterImage
 90
        0
 10
-4.8327
 20
-6.94017
 30
0.0
 11
0.01391978723404255
 21
0.0
 31
0.0
 12
0.0
 22
0.01390854910714286
 32
0.0
 13
329.0
 23
448.0
340
64
 70
     7
280
     1
281
    50
282
    50
283
     0
360
66
 71
     1
 91
        2
 14
-4.8327
 24
-6.94017
 14
-0.2530900000000003
 24
-0.7091400000000005
290
     0
  0
IMAGE
  5
68
330
1F
100
AcDbEntity
  8
Dummy%Layer%Dummy%Layer
160
               140
310
8C000000010000008400000006000000050000008BDC83FD8E30D73F40C2784A7DD3E3BF00000000000000008BDC83FD8E30D73FA5CF311A7299E6BF0000000000000000FEE2E51CFE44DB3FA5CF311A7299E6BF0000000000000000FEE2E51CFE44DB3F40C2784A7DD3E3BF00000000000000008BDC83FD8E30D73F40C278
310
4A7DD3E3BF0000000000000000
100
AcDbRasterImage
 90
        0
 10
0.3505
 20
-6.94017
 30
0.0
 11
0.01391978723404255
 21
0.0
 31
0.0
 12
0.0
 22
0.01390854910714286
 32
0.0
 13
329.0
 23
448.0
340
67
 70
     7
280
     1
281
    50
282
    50
283
     0
360
69
 71
     1
 91
        2
 14
0.3505
 24
-6.94017
 14
4.93011
 24
-0.7091400000000005
290
     0
  0
IMAGE
  5
6B
330
1F
100
AcDbEntity
  8
Dummy%Layer%Dummy%Layer
160
               140
310
8C0000000100000084000000060000000500000023D57206684324C0664F62EB12D7E3BF000000000000000023D57206684324C09A3417216D99E6BF000000000000000008F509C3EC2224C09A3417216D99E6BF000000000000000008F509C3EC2224C0664F62EB12D7E3BF000000000000000023D57206684324C0664F62
310
EB12D7E3BF0000000000000000
100
AcDbRasterImage
 90
        0
 10
-9.99934
 20
-6.90349
 30
0.0
 11
0.01392865443425076
 21
0.0
 31
0.0
 12
0.0
 22
0.01391988764044944
 32
0.0
 13
327.0
 23
445.0
340
6A
 70
     7
280
     1
281
    50
282
    50
283
     0
360
6C
 71
     1
 91
        2
 14
-9.99934
 24
-6.90349
 14
-5.44467
 24
-0.7091399999999997
290
     0
  0
IMAGE
  5
6E
330
1F
100
AcDbEntity
  8
Dummy%Layer%Dummy%Layer
160
               140
310
8C000000010000008400000006000000050000003D1B974A58831640EAE0623D03231CC000000000000000003D1B974A58831640B4A9A0D6607B1CC000000000000000004F7B88DB75C41640B4A9A0D6607B1CC000000000000000004F7B88DB75C41640EAE0623D03231CC000000000000000003D1B974A58831640EAE062
310
3D03231CC00000000000000000
100
AcDbRasterImage
 90
        0
 10
5.54411
 20
-13.42454
 30
0.0
 11
0.01392371951219512
 21
0.0
 31
0.0
 12
0.0
 22
0.01389434004474273
 32
0.0
 13
328.0
 23
447.0
340
6D
 70
     7
280
     1
281
    50
282
    50
283
     0
360
6F
 71
     1
 91
        2
 14
5.54411
 24
-13.42454
 14
10.11109
 24
-7.21377
290
     0
  0
IMAGE
  5
71
330
1F
100
AcDbEntity
  8
Dummy%Layer%Dummy%Layer
160
               140
310
8C000000010000008400000006000000050000006F530D8F8507D83FD62B7B67FD221CC000000000000000006F530D8F8507D83F01697ECA5E7B1CC00000000000000000E4286BC40E17DC3F01697ECA5E7B1CC00000000000000000E4286BC40E17DC3FD62B7B67FD221CC000000000000000006F530D8F8507D83FD62B7B
310
67FD221CC00000000000000000
100
AcDbRasterImage
 90
        0
 10
0.36345
 20
-13.42506
 30
0.0
 11
0.01390826219512195
 21
0.0
 31
0.0
 12
0.0
 22
0.0138955033557047
 32
0.0
 13
328.0
 23
447.0
340
70
 70
     7
280
     1
281
    50
282
    50
283
     0
360
72
 71
     1
 91
        2
 14
0.36345
 24
-13.42506
 14
4.92536
 24
-7.21377
290
     0
  0
IMAGE
  5
74
330
1F
100
AcDbEntity
  8
Dummy%Layer%Dummy%Layer
160
               140
310
8C000000010000008400000006000000050000005F98CD9F6E9213C09241B83A89221CC000000000000000005F98CD9F6E9213C03E63AFD4477B1CC00000000000000000F877D7AD275113C03E63AFD4477B1CC00000000000000000F877D7AD275113C09241B83A89221CC000000000000000005F98CD9F6E9213C09241B8
310
3A89221CC00000000000000000
100
AcDbRasterImage
 90
        0
 10
-4.83269
 20
-13.4448
 30
0.0
 11
0.01391978723404255
 21
0.0
 31
0.0
 12
0.0
 22
0.01390854910714286
 32
0.0
 13
329.0
 23
448.0
340
73
 70
     7
280
     1
281
    50
282
    50
283
     0
360
75
 71
     1
 91
        2
 14
-4.83269
 24
-13.4448
 14
-0.2530800000000006
 24
-7.213770000000001
290
     0
  0
IMAGE
  5
77
330
1F
100
AcDbEntity
  8
Dummy%Layer%Dummy%Layer
160
               140
310
8C000000010000008400000006000000050000007BAD3924804424C0985BC04AFD221CC000000000000000007BAD3924804424C0260F6AC05E7B1CC00000000000000000744302EE0C2424C0260F6AC05E7B1CC00000000000000000744302EE0C2424C0985BC04AFD221CC000000000000000007BAD3924804424C0985BC0
310
4AFD221CC00000000000000000
100
AcDbRasterImage
 90
        0
 10
-10.00171
 20
-13.42507
 30
0.0
 11
0.01390067073170732
 21
0.0
 31
0.0
 12
0.0
 22
0.01389552572706935
 32
0.0
 13
328.0
 23
447.0
340
76
 70
     7
280
     1
281
    50
282
    50
283
     0
360
78
 71
     1
 91
        2
 14
-10.00171
 24
-13.42507
 14
-5.442289999999999
 24
-7.21377
290
     0
  0
SPLINE
  5
79
330
1F
100
AcDbEntity
  8
Dummy%Layer%Dummy%Layer
370
     9
100
AcDbSpline
210
0.0
220
0.0
230
1.0
 70
    11
 71
     3
 72
    56
 73
    52
 74
     0
 42
0.0000000001
 43
0.0000000001
 40
0.0
 40
0.0
 40
0.0
 40
0.0
 40
0.0588235294117647
 40
0.0588235294117647
 40
0.0588235294117647
 40
0.1176470588235294
 40
0.1176470588235294
 40
0.1176470588235294
 40
0.1764705882352941
 40
0.1764705882352941
 40
0.1764705882352941
 40
0.2352941176470588
 40
0.2352941176470588
 40
0.2352941176470588
 40
0.2941176470588235
 40
0.2941176470588235
 40
0.2941176470588235
 40
0.3529411764705882
 40
0.3529411764705882
 40
0.3529411764705882
 40
0.4117647058823529
 40
0.4117647058823529
 40
0.4117647058823529
 40
0.4705882352941176
 40
0.4705882352941176
 40
0.4705882352941176
 40
0.5294117647058824
 40
0.5294117647058824
 40
0.5294117647058824
 40
0.5882352941176471
 40
0.5882352941176471
 40
0.5882352941176471
 40
0.6470588235294118
 40
0.6470588235294118
 40
0.6470588235294118
 40
0.7058823529411764
 40
0.7058823529411764
 40
0.7058823529411764
 40
0.7647058823529411
 40
0.7647058823529411
 40
0.7647058823529411
 40
0.8235294117647058
 40
0.8235294117647058
 40
0.8235294117647058
 40
0.8823529411764706
 40
0.8823529411764706
 40
0.8823529411764706
 40
0.9411764705882353
 40
0.9411764705882353
 40
0.9411764705882353
 40
1.0
 40
1.0
 40
1.0
 40
1.0
 10
30.75707
 20
-15.30186
 30
0.0
 10
30.75707
 20
-15.30186
 30
0.0
 10
33.05883
 20
-15.5304
 30
0.0
 10
33.05883
 20
-15.5304
 30
0.0
 10
33.05883
 20
-15.5304
 30
0.0
 10
30.75707
 20
-15.77302
 30
0.0
 10
30.75707
 20
-15.77302
 30
0.0
 10
30.75707
 20
-15.77302
 30
0.0
 10
23.81235
 20
-15.77302
 30
0.0
 10
23.81235
 20
-15.77302
 30
0.0
 10
23.81235
 20
-15.78071
 30
0.0
 10
23.81104
 20
-15.84842
 30
0.0
 10
23.80866
 20
-15.8584
 30
0.0
 10
23.79193
 20
-15.92838
 30
0.0
 10
23.72155
 20
-15.98488
 30
0.0
 10
23.66772
 20
-15.98488
 30
0.0
 10
23.66772
 20
-15.98488
 30
0.0
 10
23.29077
 20
-15.98488
 30
0.0
 10
23.29077
 20
-15.98488
 30
0.0
 10
23.22925
 20
-15.98488
 30
0.0
 10
23.17891
 20
-15.93455
 30
0.0
 10
23.17891
 20
-15.87302
 30
0.0
 10
23.17891
 20
-15.87302
 30
0.0
 10
23.17891
 20
-15.72244
 30
0.0
 10
23.17891
 20
-15.72244
 30
0.0
 10
23.17891
 20
-15.72244
 30
0.0
 10
23.49006
 20
-15.72244
 30
0.0
 10
23.49006
 20
-15.72244
 30
0.0
 10
23.49006
 20
-15.57911
 30
0.0
 10
23.49006
 20
-15.49577
 30
0.0
 10
23.49006
 20
-15.35244
 30
0.0
 10
23.49006
 20
-15.35244
 30
0.0
 10
23.17891
 20
-15.35244
 30
0.0
 10
23.17891
 20
-15.35244
 30
0.0
 10
23.17891
 20
-15.35244
 30
0.0
 10
23.17891
 20
-15.20186
 30
0.0
 10
23.17891
 20
-15.20186
 30
0.0
 10
23.17891
 20
-15.14033
 30
0.0
 10
23.22928
 20
-15.09
 30
0.0
 10
23.29077
 20
-15.09
 30
0.0
 10
23.29077
 20
-15.09
 30
0.0
 10
23.66772
 20
-15.09
 30
0.0
 10
23.66772
 20
-15.09
 30
0.0
 10
23.7167
 20
-15.09
 30
0.0
 10
23.78182
 20
-15.13155
 30
0.0
 10
23.80528
 20
-15.20146
 30
0.0
 10
23.81126
 20
-15.21927
 30
0.0
 10
23.81235
 20
-15.28937
 30
0.0
 10
23.81235
 20
-15.30186
 30
0.0
 10
23.81235
 20
-15.30186
 30
0.0
 10
30.75707
 20
-15.30186
 30
0.0
 10
30.75707
 20
-15.30186
 30
0.0
  0
SPLINE
  5
7A
330
1F
100
AcDbEntity
  8
Dummy%Layer%Dummy%Layer
370
     9
100
AcDbSpline
210
0.0
220
0.0
230
1.0
 70
    11
 71
     3
 72
    47
 73
    43
 74
     0
 42
0.0000000001
 43
0.0000000001
 40
0.0
 40
0.0
 40
0.0
 40
0.0
 40
0.0714285714285714
 40
0.0714285714285714
 40
0.0714285714285714
 40
0.1428571428571428
 40
0.1428571428571428
 40
0.1428571428571428
 40
0.2142857142857143
 40
0.2142857142857143
 40
0.2142857142857143
 40
0.2857142857142857
 40
0.2857142857142857
 40
0.2857142857142857
 40
0.3571428571428571
 40
0.3571428571428571
 40
0.3571428571428571
 40
0.4285714285714285
 40
0.4285714285714285
 40
0.4285714285714285
 40
0.5
 40
0.5
 40
0.5
 40
0.5714285714285714
 40
0.5714285714285714
 40
0.5714285714285714
 40
0.6428571428571428
 40
0.6428571428571428
 40
0.6428571428571428
 40
0.7142857142857142
 40
0.7142857142857142
 40
0.7142857142857142
 40
0.7857142857142857
 40
0.7857142857142857
 40
0.7857142857142857
 40
0.8571428571428571
 40
0.8571428571428571
 40
0.8571428571428571
 40
0.9285714285714285
 40
0.9285714285714285
 40
0.9285714285714285
 40
1.0
 40
1.0
 40
1.0
 40
1.0
 10
-33.01228
 20
-11.37604
 30
0.0
 10
-33.01228
 20
-11.37604
 30
0.0
 10
-32.84748
 20
-11.37604
 30
0.0
 10
-32.84748
 20
-11.37604
 30
0.0
 10
-32.84748
 20
-11.37604
 30
0.0
 10
-32.84731
 20
-11.0522
 30
0.0
 10
-32.84731
 20
-11.0522
 30
0.0
 10
-32.84731
 20
-11.0522
 30
0.0
 10
-32.63426
 20
-11.05182
 30
0.0
 10
-32.63426
 20
-11.05182
 30
0.0
 10
-32.63426
 20
-11.05182
 30
0.0
 10
-32.49064
 20
-11.05182
 30
0.0
 10
-32.49064
 20
-11.05182
 30
0.0
 10
-32.49064
 20
-11.05182
 30
0.0
 10
-32.48843
 20
-11.37604
 30
0.0
 10
-32.48843
 20
-11.37604
 30
0.0
 10
-32.48843
 20
-11.37604
 30
0.0
 10
-32.32567
 20
-11.37604
 30
0.0
 10
-32.32567
 20
-11.37604
 30
0.0
 10
-32.2706
 20
-11.37604
 30
0.0
 10
-32.22567
 20
-11.33112
 30
0.0
 10
-32.22567
 20
-11.27605
 30
0.0
 10
-32.22567
 20
-11.27605
 30
0.0
 10
-32.22567
 20
-11.0079
 30
0.0
 10
-32.22567
 20
-11.0079
 30
0.0
 10
-31.22085
 20
-10.73901
 30
0.0
 10
-30.49361
 20
-9.62863
 30
0.0
 10
-30.49819
 20
-8.61086
 30
0.0
 10
-30.50596
 20
-6.88581
 30
0.0
 10
-31.58781
 20
-5.05233
 30
0.0
 10
-32.67681
 20
-5.05233
 30
0.0
 10
-34.06748
 20
-5.06817
 30
0.0
 10
-34.91593
 20
-7.65578
 30
0.0
 10
-34.85703
 20
-8.76038
 30
0.0
 10
-34.80337
 20
-9.7418
 30
0.0
 10
-34.08036
 20
-10.77077
 30
0.0
 10
-33.11228
 20
-11.01476
 30
0.0
 10
-33.11228
 20
-11.01476
 30
0.0
 10
-33.11228
 20
-11.27604
 30
0.0
 10
-33.11228
 20
-11.27604
 30
0.0
 10
-33.11228
 20
-11.33109
 30
0.0
 10
-33.06736
 20
-11.37604
 30
0.0
 10
-33.01228
 20
-11.37604
 30
0.0
  0
SPLINE
  5
7B
330
1F
100
AcDbEntity
  8
Dummy%Layer%Dummy%Layer
 62
   250
370
     9
100
AcDbSpline
210
0.0
220
0.0
230
1.0
 70
    11
 71
     3
 72
    35
 73
    31
 74
     0
 42
0.0000000001
 43
0.0000000001
 40
0.0
 40
0.0
 40
0.0
 40
0.0
 40
0.1
 40
0.1
 40
0.1
 40
0.2
 40
0.2
 40
0.2
 40
0.3
 40
0.3
 40
0.3
 40
0.4
 40
0.4
 40
0.4
 40
0.5
 40
0.5
 40
0.5
 40
0.6000000000000001
 40
0.6000000000000001
 40
0.6000000000000001
 40
0.7000000000000001
 40
0.7000000000000001
 40
0.7000000000000001
 40
0.8
 40
0.8
 40
0.8
 40
0.9
 40
0.9
 40
0.9
 40
1.0
 40
1.0
 40
1.0
 40
1.0
 10
-32.20047
 20
0.1547
 30
0.0
 10
-32.49358
 20
0.0787
 30
0.0
 10
-32.84151
 20
0.07604
 30
0.0
 10
-33.13577
 20
0.14746
 30
0.0
 10
-34.15491
 20
0.39487
 30
0.0
 10
-34.90107
 20
1.47465
 30
0.0
 10
-34.95679
 20
2.49366
 30
0.0
 10
-34.97294
 20
2.79656
 30
0.0
 10
-34.92642
 20
3.12876
 30
0.0
 10
-34.86496
 20
3.42489
 30
0.0
 10
-34.78764
 20
3.79741
 30
0.0
 10
-34.67289
 20
4.16878
 30
0.0
 10
-34.52746
 20
4.52031
 30
0.0
 10
-34.21789
 20
5.26859
 30
0.0
 10
-33.6004
 20
6.29656
 30
0.0
 10
-32.67785
 20
6.30706
 30
0.0
 10
-32.67785
 20
6.30706
 30
0.0
 10
-32.67671
 20
6.30707
 30
0.0
 10
-32.67671
 20
6.30707
 30
0.0
 10
-32.08984
 20
6.30707
 30
0.0
 10
-31.59037
 20
5.83492
 30
0.0
 10
-31.26905
 20
5.38837
 30
0.0
 10
-30.8478
 20
4.80294
 30
0.0
 10
-30.56883
 20
4.05896
 30
0.0
 10
-30.45617
 20
3.34906
 30
0.0
 10
-30.41946
 20
3.11769
 30
0.0
 10
-30.39915
 20
2.8833
 30
0.0
 10
-30.39809
 20
2.64899
 30
0.0
 10
-30.39333
 20
1.58816
 30
0.0
 10
-31.14661
 20
0.42803
 30
0.0
 10
-32.20047
 20
0.1547
 30
0.0
  0
SPLINE
  5
7C
330
1F
100
AcDbEntity
  8
Dummy%Layer%Dummy%Layer
370
     9
100
AcDbSpline
210
0.0
220
0.0
230
1.0
 70
     8
 71
     3
 72
     8
 73
     4
 74
     0
 42
0.0000000001
 43
0.0000000001
 40
0.0
 40
0.0
 40
0.0
 40
0.0
 40
1.0
 40
1.0
 40
1.0
 40
1.0
 10
19.61179
 20
-7.31512
 30
0.0
 10
18.51366
 20
-7.32751
 30
0.0
 10
17.74564
 20
-8.89027
 30
0.0
 10
17.47876
 20
-10.11955
 30
0.0
  0
SPLINE
  5
7D
330
1F
100
AcDbEntity
  8
Dummy%Layer%Dummy%Layer
370
     9
100
AcDbSpline
210
0.0
220
0.0
230
1.0
 70
     8
 71
     3
 72
    47
 73
    43
 74
     0
 42
0.0000000001
 43
0.0000000001
 40
0.0
 40
0.0
 40
0.0
 40
0.0
 40
0.0714285714285714
 40
0.0714285714285714
 40
0.0714285714285714
 40
0.1428571428571428
 40
0.1428571428571428
 40
0.1428571428571428
 40
0.2142857142857143
 40
0.2142857142857143
 40
0.2142857142857143
 40
0.2857142857142857
 40
0.2857142857142857
 40
0.2857142857142857
 40
0.3571428571428571
 40
0.3571428571428571
 40
0.3571428571428571
 40
0.4285714285714285
 40
0.4285714285714285
 40
0.4285714285714285
 40
0.5
 40
0.5
 40
0.5
 40
0.5714285714285714
 40
0.5714285714285714
 40
0.5714285714285714
 40
0.6428571428571428
 40
0.6428571428571428
 40
0.6428571428571428
 40
0.7142857142857142
 40
0.7142857142857142
 40
0.7142857142857142
 40
0.7857142857142857
 40
0.7857142857142857
 40
0.7857142857142857
 40
0.8571428571428571
 40
0.8571428571428571
 40
0.8571428571428571
 40
0.9285714285714285
 40
0.9285714285714285
 40
0.9285714285714285
 40
1.0
 40
1.0
 40
1.0
 40
1.0
 10
17.47058
 20
-10.15764
 30
0.0
 10
17.39693
 20
-10.50858
 30
0.0
 10
17.36471
 20
-10.83047
 30
0.0
 10
17.37806
 20
-11.07857
 30
0.0
 10
17.43303
 20
-12.07465
 30
0.0
 10
18.17379
 20
-13.119
 30
0.0
 10
19.16563
 20
-13.36663
 30
0.0
 10
19.16563
 20
-13.36663
 30
0.0
 10
19.16563
 20
-13.63182
 30
0.0
 10
19.16563
 20
-13.63182
 30
0.0
 10
19.16563
 20
-13.68769
 30
0.0
 10
19.21165
 20
-13.73331
 30
0.0
 10
19.26808
 20
-13.73331
 30
0.0
 10
19.26808
 20
-13.73331
 30
0.0
 10
19.43693
 20
-13.73331
 30
0.0
 10
19.43693
 20
-13.73331
 30
0.0
 10
19.43693
 20
-13.73331
 30
0.0
 10
19.4371
 20
-13.40463
 30
0.0
 10
19.4371
 20
-13.40463
 30
0.0
 10
19.4371
 20
-13.40463
 30
0.0
 10
19.65538
 20
-13.40425
 30
0.0
 10
19.65538
 20
-13.40425
 30
0.0
 10
19.65538
 20
-13.40425
 30
0.0
 10
19.80253
 20
-13.40425
 30
0.0
 10
19.80253
 20
-13.40425
 30
0.0
 10
19.80253
 20
-13.40425
 30
0.0
 10
19.80479
 20
-13.73331
 30
0.0
 10
19.80479
 20
-13.73331
 30
0.0
 10
19.80479
 20
-13.73331
 30
0.0
 10
19.97154
 20
-13.73331
 30
0.0
 10
19.97154
 20
-13.73331
 30
0.0
 10
20.02797
 20
-13.73331
 30
0.0
 10
20.074
 20
-13.68772
 30
0.0
 10
20.074
 20
-13.63183
 30
0.0
 10
20.074
 20
-13.63183
 30
0.0
 10
20.074
 20
-13.35967
 30
0.0
 10
20.074
 20
-13.35967
 30
0.0
 10
21.10348
 20
-13.08676
 30
0.0
 10
21.84857
 20
-11.95979
 30
0.0
 10
21.84388
 20
-10.92682
 30
0.0
 10
21.84213
 20
-10.54374
 30
0.0
 10
21.78768
 20
-10.15536
 30
0.0
 10
21.69202
 20
-9.78239
 30
0.0
  0
SPLINE
  5
7E
330
1F
100
AcDbEntity
  8
Dummy%Layer%Dummy%Layer
370
     9
100
AcDbSpline
210
0.0
220
0.0
230
1.0
 70
     8
 71
     3
 72
     8
 73
     4
 74
     0
 42
0.0000000001
 43
0.0000000001
 40
0.0
 40
0.0
 40
0.0
 40
0.0
 40
1.0
 40
1.0
 40
1.0
 40
1.0
 10
21.68396
 20
-9.75194
 30
0.0
 10
21.3371
 20
-8.43349
 30
0.0
 10
20.47673
 20
-7.31512
 30
0.0
 10
19.61179
 20
-7.31512
 30
0.0
  0
SPLINE
  5
7F
330
1F
100
AcDbEntity
  8
Dummy%Layer%Dummy%Layer
370
     9
100
AcDbSpline
210
0.0
220
0.0
230
1.0
 70
     8
 71
     3
 72
     8
 73
     4
 74
     0
 42
0.0000000001
 43
0.0000000001
 40
0.0
 40
0.0
 40
0.0
 40
0.0
 40
1.0
 40
1.0
 40
1.0
 40
1.0
 10
24.92221
 20
-0.71331
 30
0.0
 10
23.82623
 20
-0.72567
 30
0.0
 10
23.05905
 20
-2.28238
 30
0.0
 10
22.79073
 20
-3.51055
 30
0.0
  0
SPLINE
  5
80
330
1F
100
AcDbEntity
  8
Dummy%Layer%Dummy%Layer
370
     9
100
AcDbSpline
210
0.0
220
0.0
230
1.0
 70
     8
 71
     3
 72
    47
 73
    43
 74
     0
 42
0.0000000001
 43
0.0000000001
 40
0.0
 40
0.0
 40
0.0
 40
0.0
 40
0.0714285714285714
 40
0.0714285714285714
 40
0.0714285714285714
 40
0.1428571428571428
 40
0.1428571428571428
 40
0.1428571428571428
 40
0.2142857142857143
 40
0.2142857142857143
 40
0.2142857142857143
 40
0.2857142857142857
 40
0.2857142857142857
 40
0.2857142857142857
 40
0.3571428571428571
 40
0.3571428571428571
 40
0.3571428571428571
 40
0.4285714285714285
 40
0.4285714285714285
 40
0.4285714285714285
 40
0.5
 40
0.5
 40
0.5
 40
0.5714285714285714
 40
0.5714285714285714
 40
0.5714285714285714
 40
0.6428571428571428
 40
0.6428571428571428
 40
0.6428571428571428
 40
0.7142857142857142
 40
0.7142857142857142
 40
0.7142857142857142
 40
0.7857142857142857
 40
0.7857142857142857
 40
0.7857142857142857
 40
0.8571428571428571
 40
0.8571428571428571
 40
0.8571428571428571
 40
0.9285714285714285
 40
0.9285714285714285
 40
0.9285714285714285
 40
1.0
 40
1.0
 40
1.0
 40
1.0
 10
22.78419
 20
-3.54099
 30
0.0
 10
22.70832
 20
-3.89768
 30
0.0
 10
22.67494
 20
-4.22517
 30
0.0
 10
22.68848
 20
-4.47676
 30
0.0
 10
22.74346
 20
-5.47284
 30
0.0
 10
23.48421
 20
-6.51719
 30
0.0
 10
24.47605
 20
-6.76482
 30
0.0
 10
24.47605
 20
-6.76482
 30
0.0
 10
24.47605
 20
-7.03
 30
0.0
 10
24.47605
 20
-7.03
 30
0.0
 10
24.47605
 20
-7.08588
 30
0.0
 10
24.52207
 20
-7.1315
 30
0.0
 10
24.57851
 20
-7.1315
 30
0.0
 10
24.57851
 20
-7.1315
 30
0.0
 10
24.74735
 20
-7.1315
 30
0.0
 10
24.74735
 20
-7.1315
 30
0.0
 10
24.74735
 20
-7.1315
 30
0.0
 10
24.74752
 20
-6.80282
 30
0.0
 10
24.74752
 20
-6.80282
 30
0.0
 10
24.74752
 20
-6.80282
 30
0.0
 10
24.9658
 20
-6.80243
 30
0.0
 10
24.9658
 20
-6.80243
 30
0.0
 10
24.9658
 20
-6.80243
 30
0.0
 10
25.11295
 20
-6.80243
 30
0.0
 10
25.11295
 20
-6.80243
 30
0.0
 10
25.11295
 20
-6.80243
 30
0.0
 10
25.11521
 20
-7.1315
 30
0.0
 10
25.11521
 20
-7.1315
 30
0.0
 10
25.11521
 20
-7.1315
 30
0.0
 10
25.28197
 20
-7.1315
 30
0.0
 10
25.28197
 20
-7.1315
 30
0.0
 10
25.33839
 20
-7.1315
 30
0.0
 10
25.38442
 20
-7.08591
 30
0.0
 10
25.38442
 20
-7.03001
 30
0.0
 10
25.38442
 20
-7.03001
 30
0.0
 10
25.38442
 20
-6.75786
 30
0.0
 10
25.38442
 20
-6.75786
 30
0.0
 10
26.4139
 20
-6.48495
 30
0.0
 10
27.15899
 20
-5.35798
 30
0.0
 10
27.1543
 20
-4.32501
 30
0.0
 10
27.15312
 20
-4.06393
 30
0.0
 10
27.12726
 20
-3.80042
 30
0.0
 10
27.08076
 20
-3.54099
 30
0.0
  0
SPLINE
  5
81
330
1F
100
AcDbEntity
  8
Dummy%Layer%Dummy%Layer
370
     9
100
AcDbSpline
210
0.0
220
0.0
230
1.0
 70
     8
 71
     3
 72
     8
 73
     4
 74
     0
 42
0.0000000001
 43
0.0000000001
 40
0.0
 40
0.0
 40
0.0
 40
0.0
 40
1.0
 40
1.0
 40
1.0
 40
1.0
 10
27.07533
 20
-3.51055
 30
0.0
 10
26.80259
 20
-2.04217
 30
0.0
 10
25.86506
 20
-0.71331
 30
0.0
 10
24.92221
 20
-0.71331
 30
0.0
  0
SPLINE
  5
82
330
1F
100
AcDbEntity
  8
Dummy%Layer%Dummy%Layer
370
     9
100
AcDbSpline
210
0.0
220
0.0
230
1.0
 70
     8
 71
     3
 72
     8
 73
     4
 74
     0
 42
0.0000000001
 43
0.0000000001
 40
0.0
 40
0.0
 40
0.0
 40
0.0
 40
1.0
 40
1.0
 40
1.0
 40
1.0
 10
24.92221
 20
-7.31512
 30
0.0
 10
23.93124
 20
-7.32631
 30
0.0
 10
23.20912
 20
-8.60007
 30
0.0
 10
22.88147
 20
-9.75194
 30
0.0
  0
SPLINE
  5
83
330
1F
100
AcDbEntity
  8
Dummy%Layer%Dummy%Layer
370
     9
100
AcDbSpline
210
0.0
220
0.0
230
1.0
 70
     8
 71
     3
 72
    47
 73
    43
 74
     0
 42
0.0000000001
 43
0.0000000001
 40
0.0
 40
0.0
 40
0.0
 40
0.0
 40
0.0714285714285714
 40
0.0714285714285714
 40
0.0714285714285714
 40
0.1428571428571428
 40
0.1428571428571428
 40
0.1428571428571428
 40
0.2142857142857143
 40
0.2142857142857143
 40
0.2142857142857143
 40
0.2857142857142857
 40
0.2857142857142857
 40
0.2857142857142857
 40
0.3571428571428571
 40
0.3571428571428571
 40
0.3571428571428571
 40
0.4285714285714285
 40
0.4285714285714285
 40
0.4285714285714285
 40
0.5
 40
0.5
 40
0.5
 40
0.5714285714285714
 40
0.5714285714285714
 40
0.5714285714285714
 40
0.6428571428571428
 40
0.6428571428571428
 40
0.6428571428571428
 40
0.7142857142857142
 40
0.7142857142857142
 40
0.7142857142857142
 40
0.7857142857142857
 40
0.7857142857142857
 40
0.7857142857142857
 40
0.8571428571428571
 40
0.8571428571428571
 40
0.8571428571428571
 40
0.9285714285714285
 40
0.9285714285714285
 40
0.9285714285714285
 40
1.0
 40
1.0
 40
1.0
 40
1.0
 10
22.8728
 20
-9.78239
 30
0.0
 10
22.73524
 20
-10.27555
 30
0.0
 10
22.67048
 20
-10.74408
 30
0.0
 10
22.68848
 20
-11.07857
 30
0.0
 10
22.74346
 20
-12.07465
 30
0.0
 10
23.48421
 20
-13.119
 30
0.0
 10
24.47605
 20
-13.36663
 30
0.0
 10
24.47605
 20
-13.36663
 30
0.0
 10
24.47605
 20
-13.63182
 30
0.0
 10
24.47605
 20
-13.63182
 30
0.0
 10
24.47605
 20
-13.68769
 30
0.0
 10
24.52207
 20
-13.73331
 30
0.0
 10
24.57851
 20
-13.73331
 30
0.0
 10
24.57851
 20
-13.73331
 30
0.0
 10
24.74735
 20
-13.73331
 30
0.0
 10
24.74735
 20
-13.73331
 30
0.0
 10
24.74735
 20
-13.73331
 30
0.0
 10
24.74752
 20
-13.40463
 30
0.0
 10
24.74752
 20
-13.40463
 30
0.0
 10
24.74752
 20
-13.40463
 30
0.0
 10
24.9658
 20
-13.40425
 30
0.0
 10
24.9658
 20
-13.40425
 30
0.0
 10
24.9658
 20
-13.40425
 30
0.0
 10
25.11295
 20
-13.40425
 30
0.0
 10
25.11295
 20
-13.40425
 30
0.0
 10
25.11295
 20
-13.40425
 30
0.0
 10
25.11521
 20
-13.73331
 30
0.0
 10
25.11521
 20
-13.73331
 30
0.0
 10
25.11521
 20
-13.73331
 30
0.0
 10
25.28197
 20
-13.73331
 30
0.0
 10
25.28197
 20
-13.73331
 30
0.0
 10
25.33839
 20
-13.73331
 30
0.0
 10
25.38442
 20
-13.68772
 30
0.0
 10
25.38442
 20
-13.63183
 30
0.0
 10
25.38442
 20
-13.63183
 30
0.0
 10
25.38442
 20
-13.35967
 30
0.0
 10
25.38442
 20
-13.35967
 30
0.0
 10
26.4139
 20
-13.08676
 30
0.0
 10
27.15899
 20
-11.95979
 30
0.0
 10
27.1543
 20
-10.92682
 30
0.0
 10
27.15256
 20
-10.54374
 30
0.0
 10
27.0981
 20
-10.15536
 30
0.0
 10
27.00244
 20
-9.78239
 30
0.0
  0
SPLINE
  5
84
330
1F
100
AcDbEntity
  8
Dummy%Layer%Dummy%Layer
370
     9
100
AcDbSpline
210
0.0
220
0.0
230
1.0
 70
     8
 71
     3
 72
     8
 73
     4
 74
     0
 42
0.0000000001
 43
0.0000000001
 40
0.0
 40
0.0
 40
0.0
 40
0.0
 40
1.0
 40
1.0
 40
1.0
 40
1.0
 10
26.99438
 20
-9.75194
 30
0.0
 10
26.64752
 20
-8.43349
 30
0.0
 10
25.78715
 20
-7.31512
 30
0.0
 10
24.92221
 20
-7.31512
 30
0.0
  0
SPLINE
  5
85
330
1F
100
AcDbEntity
  8
Dummy%Layer%Dummy%Layer
370
     9
100
AcDbSpline
210
0.0
220
0.0
230
1.0
 70
     8
 71
     3
 72
     8
 73
     4
 74
     0
 42
0.0000000001
 43
0.0000000001
 40
0.0
 40
0.0
 40
0.0
 40
0.0
 40
1.0
 40
1.0
 40
1.0
 40
1.0
 10
30.23261
 20
-0.71331
 30
0.0
 10
29.13664
 20
-0.72567
 30
0.0
 10
28.36945
 20
-2.28238
 30
0.0
 10
28.10113
 20
-3.51055
 30
0.0
  0
SPLINE
  5
86
330
1F
100
AcDbEntity
  8
Dummy%Layer%Dummy%Layer
370
     9
100
AcDbSpline
210
0.0
220
0.0
230
1.0
 70
     8
 71
     3
 72
    47
 73
    43
 74
     0
 42
0.0000000001
 43
0.0000000001
 40
0.0
 40
0.0
 40
0.0
 40
0.0
 40
0.0714285714285714
 40
0.0714285714285714
 40
0.0714285714285714
 40
0.1428571428571428
 40
0.1428571428571428
 40
0.1428571428571428
 40
0.2142857142857143
 40
0.2142857142857143
 40
0.2142857142857143
 40
0.2857142857142857
 40
0.2857142857142857
 40
0.2857142857142857
 40
0.3571428571428571
 40
0.3571428571428571
 40
0.3571428571428571
 40
0.4285714285714285
 40
0.4285714285714285
 40
0.4285714285714285
 40
0.5
 40
0.5
 40
0.5
 40
0.5714285714285714
 40
0.5714285714285714
 40
0.5714285714285714
 40
0.6428571428571428
 40
0.6428571428571428
 40
0.6428571428571428
 40
0.7142857142857142
 40
0.7142857142857142
 40
0.7142857142857142
 40
0.7857142857142857
 40
0.7857142857142857
 40
0.7857142857142857
 40
0.8571428571428571
 40
0.8571428571428571
 40
0.8571428571428571
 40
0.9285714285714285
 40
0.9285714285714285
 40
0.9285714285714285
 40
1.0
 40
1.0
 40
1.0
 40
1.0
 10
28.09459
 20
-3.54099
 30
0.0
 10
28.01873
 20
-3.89768
 30
0.0
 10
27.98535
 20
-4.22517
 30
0.0
 10
27.99888
 20
-4.47676
 30
0.0
 10
28.05386
 20
-5.47284
 30
0.0
 10
28.79461
 20
-6.51719
 30
0.0
 10
29.78645
 20
-6.76482
 30
0.0
 10
29.78645
 20
-6.76482
 30
0.0
 10
29.78645
 20
-7.03
 30
0.0
 10
29.78645
 20
-7.03
 30
0.0
 10
29.78645
 20
-7.08588
 30
0.0
 10
29.83248
 20
-7.1315
 30
0.0
 10
29.88891
 20
-7.1315
 30
0.0
 10
29.88891
 20
-7.1315
 30
0.0
 10
30.05775
 20
-7.1315
 30
0.0
 10
30.05775
 20
-7.1315
 30
0.0
 10
30.05775
 20
-7.1315
 30
0.0
 10
30.05793
 20
-6.80282
 30
0.0
 10
30.05793
 20
-6.80282
 30
0.0
 10
30.05793
 20
-6.80282
 30
0.0
 10
30.27621
 20
-6.80243
 30
0.0
 10
30.27621
 20
-6.80243
 30
0.0
 10
30.27621
 20
-6.80243
 30
0.0
 10
30.42335
 20
-6.80243
 30
0.0
 10
30.42335
 20
-6.80243
 30
0.0
 10
30.42335
 20
-6.80243
 30
0.0
 10
30.42561
 20
-7.1315
 30
0.0
 10
30.42561
 20
-7.1315
 30
0.0
 10
30.42561
 20
-7.1315
 30
0.0
 10
30.59237
 20
-7.1315
 30
0.0
 10
30.59237
 20
-7.1315
 30
0.0
 10
30.64879
 20
-7.1315
 30
0.0
 10
30.69482
 20
-7.08591
 30
0.0
 10
30.69482
 20
-7.03001
 30
0.0
 10
30.69482
 20
-7.03001
 30
0.0
 10
30.69482
 20
-6.75786
 30
0.0
 10
30.69482
 20
-6.75786
 30
0.0
 10
31.72431
 20
-6.48495
 30
0.0
 10
32.46939
 20
-5.35798
 30
0.0
 10
32.4647
 20
-4.32501
 30
0.0
 10
32.46352
 20
-4.06393
 30
0.0
 10
32.43766
 20
-3.80042
 30
0.0
 10
32.39116
 20
-3.54099
 30
0.0
  0
SPLINE
  5
87
330
1F
100
AcDbEntity
  8
Dummy%Layer%Dummy%Layer
370
     9
100
AcDbSpline
210
0.0
220
0.0
230
1.0
 70
     8
 71
     3
 72
     8
 73
     4
 74
     0
 42
0.0000000001
 43
0.0000000001
 40
0.0
 40
0.0
 40
0.0
 40
0.0
 40
1.0
 40
1.0
 40
1.0
 40
1.0
 10
32.38573
 20
-3.51055
 30
0.0
 10
32.113
 20
-2.04217
 30
0.0
 10
31.17546
 20
-0.71331
 30
0.0
 10
30.23261
 20
-0.71331
 30
0.0
  0
SPLINE
  5
88
330
1F
100
AcDbEntity
  8
Dummy%Layer%Dummy%Layer
370
     9
100
AcDbSpline
210
0.0
220
0.0
230
1.0
 70
     8
 71
     3
 72
     8
 73
     4
 74
     0
 42
0.0000000001
 43
0.0000000001
 40
0.0
 40
0.0
 40
0.0
 40
0.0
 40
1.0
 40
1.0
 40
1.0
 40
1.0
 10
30.23261
 20
-7.31512
 30
0.0
 10
29.20471
 20
-7.32672
 30
0.0
 10
28.46598
 20
-8.6968
 30
0.0
 10
28.15683
 20
-9.88019
 30
0.0
  0
SPLINE
  5
89
330
1F
100
AcDbEntity
  8
Dummy%Layer%Dummy%Layer
370
     9
100
AcDbSpline
210
0.0
220
0.0
230
1.0
 70
     8
 71
     3
 72
    47
 73
    43
 74
     0
 42
0.0000000001
 43
0.0000000001
 40
0.0
 40
0.0
 40
0.0
 40
0.0
 40
0.0714285714285714
 40
0.0714285714285714
 40
0.0714285714285714
 40
0.1428571428571428
 40
0.1428571428571428
 40
0.1428571428571428
 40
0.2142857142857143
 40
0.2142857142857143
 40
0.2142857142857143
 40
0.2857142857142857
 40
0.2857142857142857
 40
0.2857142857142857
 40
0.3571428571428571
 40
0.3571428571428571
 40
0.3571428571428571
 40
0.4285714285714285
 40
0.4285714285714285
 40
0.4285714285714285
 40
0.5
 40
0.5
 40
0.5
 40
0.5714285714285714
 40
0.5714285714285714
 40
0.5714285714285714
 40
0.6428571428571428
 40
0.6428571428571428
 40
0.6428571428571428
 40
0.7142857142857142
 40
0.7142857142857142
 40
0.7142857142857142
 40
0.7857142857142857
 40
0.7857142857142857
 40
0.7857142857142857
 40
0.8571428571428571
 40
0.8571428571428571
 40
0.8571428571428571
 40
0.9285714285714285
 40
0.9285714285714285
 40
0.9285714285714285
 40
1.0
 40
1.0
 40
1.0
 40
1.0
 10
28.14901
 20
-9.91064
 30
0.0
 10
28.03508
 20
-10.35615
 30
0.0
 10
27.98245
 20
-10.77323
 30
0.0
 10
27.99888
 20
-11.07857
 30
0.0
 10
28.05386
 20
-12.07465
 30
0.0
 10
28.79461
 20
-13.119
 30
0.0
 10
29.78645
 20
-13.36663
 30
0.0
 10
29.78645
 20
-13.36663
 30
0.0
 10
29.78645
 20
-13.63182
 30
0.0
 10
29.78645
 20
-13.63182
 30
0.0
 10
29.78645
 20
-13.68769
 30
0.0
 10
29.83248
 20
-13.73331
 30
0.0
 10
29.88891
 20
-13.73331
 30
0.0
 10
29.88891
 20
-13.73331
 30
0.0
 10
30.05775
 20
-13.73331
 30
0.0
 10
30.05775
 20
-13.73331
 30
0.0
 10
30.05775
 20
-13.73331
 30
0.0
 10
30.05793
 20
-13.40463
 30
0.0
 10
30.05793
 20
-13.40463
 30
0.0
 10
30.05793
 20
-13.40463
 30
0.0
 10
30.27621
 20
-13.40425
 30
0.0
 10
30.27621
 20
-13.40425
 30
0.0
 10
30.27621
 20
-13.40425
 30
0.0
 10
30.42335
 20
-13.40425
 30
0.0
 10
30.42335
 20
-13.40425
 30
0.0
 10
30.42335
 20
-13.40425
 30
0.0
 10
30.42561
 20
-13.73331
 30
0.0
 10
30.42561
 20
-13.73331
 30
0.0
 10
30.42561
 20
-13.73331
 30
0.0
 10
30.59237
 20
-13.73331
 30
0.0
 10
30.59237
 20
-13.73331
 30
0.0
 10
30.64879
 20
-13.73331
 30
0.0
 10
30.69482
 20
-13.68772
 30
0.0
 10
30.69482
 20
-13.63183
 30
0.0
 10
30.69482
 20
-13.63183
 30
0.0
 10
30.69482
 20
-13.35967
 30
0.0
 10
30.69482
 20
-13.35967
 30
0.0
 10
31.72431
 20
-13.08676
 30
0.0
 10
32.46939
 20
-11.95979
 30
0.0
 10
32.4647
 20
-10.92682
 30
0.0
 10
32.46317
 20
-10.58744
 30
0.0
 10
32.42009
 20
-10.24393
 30
0.0
 10
32.3438
 20
-9.91064
 30
0.0
  0
SPLINE
  5
8A
330
1F
100
AcDbEntity
  8
Dummy%Layer%Dummy%Layer
370
     9
100
AcDbSpline
210
0.0
220
0.0
230
1.0
 70
     8
 71
     3
 72
     8
 73
     4
 74
     0
 42
0.0000000001
 43
0.0000000001
 40
0.0
 40
0.0
 40
0.0
 40
0.0
 40
1.0
 40
1.0
 40
1.0
 40
1.0
 10
32.33678
 20
-9.88019
 30
0.0
 10
32.0135
 20
-8.50684
 30
0.0
 10
31.12547
 20
-7.31512
 30
0.0
 10
30.23261
 20
-7.31512
 30
0.0
  0
SPLINE
  5
8B
330
1F
100
AcDbEntity
  8
Dummy%Layer%Dummy%Layer
370
     9
100
AcDbSpline
210
0.0
220
0.0
230
1.0
 70
     8
 71
     3
 72
     8
 73
     4
 74
     0
 42
0.0000000001
 43
0.0000000001
 40
0.0
 40
0.0
 40
0.0
 40
0.0
 40
1.0
 40
1.0
 40
1.0
 40
1.0
 10
35.54302
 20
-0.71331
 30
0.0
 10
34.44705
 20
-0.72567
 30
0.0
 10
33.67986
 20
-2.28238
 30
0.0
 10
33.41154
 20
-3.51055
 30
0.0
  0
SPLINE
  5
8C
330
1F
100
AcDbEntity
  8
Dummy%Layer%Dummy%Layer
370
     9
100
AcDbSpline
210
0.0
220
0.0
230
1.0
 70
     8
 71
     3
 72
    47
 73
    43
 74
     0
 42
0.0000000001
 43
0.0000000001
 40
0.0
 40
0.0
 40
0.0
 40
0.0
 40
0.0714285714285714
 40
0.0714285714285714
 40
0.0714285714285714
 40
0.1428571428571428
 40
0.1428571428571428
 40
0.1428571428571428
 40
0.2142857142857143
 40
0.2142857142857143
 40
0.2142857142857143
 40
0.2857142857142857
 40
0.2857142857142857
 40
0.2857142857142857
 40
0.3571428571428571
 40
0.3571428571428571
 40
0.3571428571428571
 40
0.4285714285714285
 40
0.4285714285714285
 40
0.4285714285714285
 40
0.5
 40
0.5
 40
0.5
 40
0.5714285714285714
 40
0.5714285714285714
 40
0.5714285714285714
 40
0.6428571428571428
 40
0.6428571428571428
 40
0.6428571428571428
 40
0.7142857142857142
 40
0.7142857142857142
 40
0.7142857142857142
 40
0.7857142857142857
 40
0.7857142857142857
 40
0.7857142857142857
 40
0.8571428571428571
 40
0.8571428571428571
 40
0.8571428571428571
 40
0.9285714285714285
 40
0.9285714285714285
 40
0.9285714285714285
 40
1.0
 40
1.0
 40
1.0
 40
1.0
 10
33.40501
 20
-3.54099
 30
0.0
 10
33.32914
 20
-3.89768
 30
0.0
 10
33.29576
 20
-4.22517
 30
0.0
 10
33.30929
 20
-4.47676
 30
0.0
 10
33.36427
 20
-5.47284
 30
0.0
 10
34.10503
 20
-6.51719
 30
0.0
 10
35.09687
 20
-6.76482
 30
0.0
 10
35.09687
 20
-6.76482
 30
0.0
 10
35.09687
 20
-7.03
 30
0.0
 10
35.09687
 20
-7.03
 30
0.0
 10
35.09687
 20
-7.08588
 30
0.0
 10
35.14289
 20
-7.1315
 30
0.0
 10
35.19932
 20
-7.1315
 30
0.0
 10
35.19932
 20
-7.1315
 30
0.0
 10
35.36817
 20
-7.1315
 30
0.0
 10
35.36817
 20
-7.1315
 30
0.0
 10
35.36817
 20
-7.1315
 30
0.0
 10
35.36834
 20
-6.80282
 30
0.0
 10
35.36834
 20
-6.80282
 30
0.0
 10
35.36834
 20
-6.80282
 30
0.0
 10
35.58662
 20
-6.80243
 30
0.0
 10
35.58662
 20
-6.80243
 30
0.0
 10
35.58662
 20
-6.80243
 30
0.0
 10
35.73376
 20
-6.80243
 30
0.0
 10
35.73376
 20
-6.80243
 30
0.0
 10
35.73376
 20
-6.80243
 30
0.0
 10
35.73603
 20
-7.1315
 30
0.0
 10
35.73603
 20
-7.1315
 30
0.0
 10
35.73603
 20
-7.1315
 30
0.0
 10
35.90278
 20
-7.1315
 30
0.0
 10
35.90278
 20
-7.1315
 30
0.0
 10
35.9592
 20
-7.1315
 30
0.0
 10
36.00524
 20
-7.08591
 30
0.0
 10
36.00524
 20
-7.03001
 30
0.0
 10
36.00524
 20
-7.03001
 30
0.0
 10
36.00524
 20
-6.75786
 30
0.0
 10
36.00524
 20
-6.75786
 30
0.0
 10
37.03472
 20
-6.48495
 30
0.0
 10
37.77981
 20
-5.35798
 30
0.0
 10
37.77511
 20
-4.32501
 30
0.0
 10
37.77406
 20
-4.09257
 30
0.0
 10
37.7534
 20
-3.85819
 30
0.0
 10
37.71611
 20
-3.62649
 30
0.0
  0
SPLINE
  5
8D
330
1F
100
AcDbEntity
  8
Dummy%Layer%Dummy%Layer
370
     9
100
AcDbSpline
210
0.0
220
0.0
230
1.0
 70
     8
 71
     3
 72
     8
 73
     4
 74
     0
 42
0.0000000001
 43
0.0000000001
 40
0.0
 40
0.0
 40
0.0
 40
0.0
 40
1.0
 40
1.0
 40
1.0
 40
1.0
 10
37.7112
 20
-3.59605
 30
0.0
 10
37.45971
 20
-2.09417
 30
0.0
 10
36.50414
 20
-0.71331
 30
0.0
 10
35.54302
 20
-0.71331
 30
0.0
  0
SPLINE
  5
8E
330
1F
100
AcDbEntity
  8
Dummy%Layer%Dummy%Layer
370
     9
100
AcDbSpline
210
0.0
220
0.0
230
1.0
 70
     8
 71
     3
 72
     8
 73
     4
 74
     0
 42
0.0000000001
 43
0.0000000001
 40
0.0
 40
0.0
 40
0.0
 40
0.0
 40
1.0
 40
1.0
 40
1.0
 40
1.0
 10
35.54302
 20
-7.31512
 30
0.0
 10
34.51512
 20
-7.32672
 30
0.0
 10
33.77639
 20
-8.6968
 30
0.0
 10
33.46724
 20
-9.88019
 30
0.0
  0
SPLINE
  5
8F
330
1F
100
AcDbEntity
  8
Dummy%Layer%Dummy%Layer
370
     9
100
AcDbSpline
210
0.0
220
0.0
230
1.0
 70
     8
 71
     3
 72
    47
 73
    43
 74
     0
 42
0.0000000001
 43
0.0000000001
 40
0.0
 40
0.0
 40
0.0
 40
0.0
 40
0.0714285714285714
 40
0.0714285714285714
 40
0.0714285714285714
 40
0.1428571428571428
 40
0.1428571428571428
 40
0.1428571428571428
 40
0.2142857142857143
 40
0.2142857142857143
 40
0.2142857142857143
 40
0.2857142857142857
 40
0.2857142857142857
 40
0.2857142857142857
 40
0.3571428571428571
 40
0.3571428571428571
 40
0.3571428571428571
 40
0.4285714285714285
 40
0.4285714285714285
 40
0.4285714285714285
 40
0.5
 40
0.5
 40
0.5
 40
0.5714285714285714
 40
0.5714285714285714
 40
0.5714285714285714
 40
0.6428571428571428
 40
0.6428571428571428
 40
0.6428571428571428
 40
0.7142857142857142
 40
0.7142857142857142
 40
0.7142857142857142
 40
0.7857142857142857
 40
0.7857142857142857
 40
0.7857142857142857
 40
0.8571428571428571
 40
0.8571428571428571
 40
0.8571428571428571
 40
0.9285714285714285
 40
0.9285714285714285
 40
0.9285714285714285
 40
1.0
 40
1.0
 40
1.0
 40
1.0
 10
33.45942
 20
-9.91064
 30
0.0
 10
33.34549
 20
-10.35615
 30
0.0
 10
33.29286
 20
-10.77323
 30
0.0
 10
33.30929
 20
-11.07857
 30
0.0
 10
33.36427
 20
-12.07465
 30
0.0
 10
34.10503
 20
-13.119
 30
0.0
 10
35.09687
 20
-13.36663
 30
0.0
 10
35.09687
 20
-13.36663
 30
0.0
 10
35.09687
 20
-13.63182
 30
0.0
 10
35.09687
 20
-13.63182
 30
0.0
 10
35.09687
 20
-13.68769
 30
0.0
 10
35.14289
 20
-13.73331
 30
0.0
 10
35.19932
 20
-13.73331
 30
0.0
 10
35.19932
 20
-13.73331
 30
0.0
 10
35.36817
 20
-13.73331
 30
0.0
 10
35.36817
 20
-13.73331
 30
0.0
 10
35.36817
 20
-13.73331
 30
0.0
 10
35.36834
 20
-13.40463
 30
0.0
 10
35.36834
 20
-13.40463
 30
0.0
 10
35.36834
 20
-13.40463
 30
0.0
 10
35.58662
 20
-13.40425
 30
0.0
 10
35.58662
 20
-13.40425
 30
0.0
 10
35.58662
 20
-13.40425
 30
0.0
 10
35.73376
 20
-13.40425
 30
0.0
 10
35.73376
 20
-13.40425
 30
0.0
 10
35.73376
 20
-13.40425
 30
0.0
 10
35.73603
 20
-13.73331
 30
0.0
 10
35.73603
 20
-13.73331
 30
0.0
 10
35.73603
 20
-13.73331
 30
0.0
 10
35.90278
 20
-13.73331
 30
0.0
 10
35.90278
 20
-13.73331
 30
0.0
 10
35.9592
 20
-13.73331
 30
0.0
 10
36.00524
 20
-13.68772
 30
0.0
 10
36.00524
 20
-13.63183
 30
0.0
 10
36.00524
 20
-13.63183
 30
0.0
 10
36.00524
 20
-13.35967
 30
0.0
 10
36.00524
 20
-13.35967
 30
0.0
 10
37.03472
 20
-13.08676
 30
0.0
 10
37.77981
 20
-11.95979
 30
0.0
 10
37.77511
 20
-10.92682
 30
0.0
 10
37.77358
 20
-10.58744
 30
0.0
 10
37.73051
 20
-10.24393
 30
0.0
 10
37.65421
 20
-9.91064
 30
0.0
  0
SPLINE
  5
90
330
1F
100
AcDbEntity
  8
Dummy%Layer%Dummy%Layer
370
     9
100
AcDbSpline
210
0.0
220
0.0
230
1.0
 70
     8
 71
     3
 72
     8
 73
     4
 74
     0
 42
0.0000000001
 43
0.0000000001
 40
0.0
 40
0.0
 40
0.0
 40
0.0
 40
1.0
 40
1.0
 40
1.0
 40
1.0
 10
37.64719
 20
-9.88019
 30
0.0
 10
37.32392
 20
-8.50684
 30
0.0
 10
36.43588
 20
-7.31512
 30
0.0
 10
35.54302
 20
-7.31512
 30
0.0
  0
SPLINE
  5
91
330
1F
100
AcDbEntity
  8
Dummy%Layer%Dummy%Layer
370
     9
100
AcDbSpline
210
0.0
220
0.0
230
1.0
 70
     8
 71
     3
 72
     8
 73
     4
 74
     0
 42
0.0000000001
 43
0.0000000001
 40
0.0
 40
0.0
 40
0.0
 40
0.0
 40
1.0
 40
1.0
 40
1.0
 40
1.0
 10
19.61179
 20
-0.71331
 30
0.0
 10
18.4902
 20
-0.72597
 30
0.0
 10
17.71299
 20
-2.35594
 30
0.0
 10
17.46236
 20
-3.59605
 30
0.0
  0
SPLINE
  5
92
330
1F
100
AcDbEntity
  8
Dummy%Layer%Dummy%Layer
370
     9
100
AcDbSpline
210
0.0
220
0.0
230
1.0
 70
     8
 71
     3
 72
    47
 73
    43
 74
     0
 42
0.0000000001
 43
0.0000000001
 40
0.0
 40
0.0
 40
0.0
 40
0.0
 40
0.0714285714285714
 40
0.0714285714285714
 40
0.0714285714285714
 40
0.1428571428571428
 40
0.1428571428571428
 40
0.1428571428571428
 40
0.2142857142857143
 40
0.2142857142857143
 40
0.2142857142857143
 40
0.2857142857142857
 40
0.2857142857142857
 40
0.2857142857142857
 40
0.3571428571428571
 40
0.3571428571428571
 40
0.3571428571428571
 40
0.4285714285714285
 40
0.4285714285714285
 40
0.4285714285714285
 40
0.5
 40
0.5
 40
0.5
 40
0.5714285714285714
 40
0.5714285714285714
 40
0.5714285714285714
 40
0.6428571428571428
 40
0.6428571428571428
 40
0.6428571428571428
 40
0.7142857142857142
 40
0.7142857142857142
 40
0.7142857142857142
 40
0.7857142857142857
 40
0.7857142857142857
 40
0.7857142857142857
 40
0.8571428571428571
 40
0.8571428571428571
 40
0.8571428571428571
 40
0.9285714285714285
 40
0.9285714285714285
 40
0.9285714285714285
 40
1.0
 40
1.0
 40
1.0
 40
1.0
 10
17.45625
 20
-3.62649
 30
0.0
 10
17.39281
 20
-3.94987
 30
0.0
 10
17.36561
 20
-4.24541
 30
0.0
 10
17.37806
 20
-4.47676
 30
0.0
 10
17.43303
 20
-5.47284
 30
0.0
 10
18.17379
 20
-6.51719
 30
0.0
 10
19.16563
 20
-6.76482
 30
0.0
 10
19.16563
 20
-6.76482
 30
0.0
 10
19.16563
 20
-7.03
 30
0.0
 10
19.16563
 20
-7.03
 30
0.0
 10
19.16563
 20
-7.08588
 30
0.0
 10
19.21165
 20
-7.1315
 30
0.0
 10
19.26808
 20
-7.1315
 30
0.0
 10
19.26808
 20
-7.1315
 30
0.0
 10
19.43693
 20
-7.1315
 30
0.0
 10
19.43693
 20
-7.1315
 30
0.0
 10
19.43693
 20
-7.1315
 30
0.0
 10
19.4371
 20
-6.80282
 30
0.0
 10
19.4371
 20
-6.80282
 30
0.0
 10
19.4371
 20
-6.80282
 30
0.0
 10
19.65538
 20
-6.80243
 30
0.0
 10
19.65538
 20
-6.80243
 30
0.0
 10
19.65538
 20
-6.80243
 30
0.0
 10
19.80253
 20
-6.80243
 30
0.0
 10
19.80253
 20
-6.80243
 30
0.0
 10
19.80253
 20
-6.80243
 30
0.0
 10
19.80479
 20
-7.1315
 30
0.0
 10
19.80479
 20
-7.1315
 30
0.0
 10
19.80479
 20
-7.1315
 30
0.0
 10
19.97154
 20
-7.1315
 30
0.0
 10
19.97154
 20
-7.1315
 30
0.0
 10
20.02797
 20
-7.1315
 30
0.0
 10
20.074
 20
-7.08591
 30
0.0
 10
20.074
 20
-7.03001
 30
0.0
 10
20.074
 20
-7.03001
 30
0.0
 10
20.074
 20
-6.75786
 30
0.0
 10
20.074
 20
-6.75786
 30
0.0
 10
21.10348
 20
-6.48495
 30
0.0
 10
21.84857
 20
-5.35798
 30
0.0
 10
21.84388
 20
-4.32501
 30
0.0
 10
21.8427
 20
-4.06393
 30
0.0
 10
21.81684
 20
-3.80042
 30
0.0
 10
21.77033
 20
-3.54099
 30
0.0
  0
SPLINE
  5
93
330
1F
100
AcDbEntity
  8
Dummy%Layer%Dummy%Layer
370
     9
100
AcDbSpline
210
0.0
220
0.0
230
1.0
 70
     8
 71
     3
 72
     8
 73
     4
 74
     0
 42
0.0000000001
 43
0.0000000001
 40
0.0
 40
0.0
 40
0.0
 40
0.0
 40
1.0
 40
1.0
 40
1.0
 40
1.0
 10
21.7649
 20
-3.51055
 30
0.0
 10
21.49217
 20
-2.04217
 30
0.0
 10
20.55463
 20
-0.71331
 30
0.0
 10
19.61179
 20
-0.71331
 30
0.0
  0
SPLINE
  5
94
330
1F
100
AcDbEntity
  8
Dummy%Layer%Dummy%Layer
 62
   250
370
     9
100
AcDbSpline
210
0.0
220
0.0
230
1.0
 70
     8
 71
     3
 72
    11
 73
     7
 74
     0
 42
0.0000000001
 43
0.0000000001
 40
0.0
 40
0.0
 40
0.0
 40
0.0
 40
0.5
 40
0.5
 40
0.5
 40
1.0
 40
1.0
 40
1.0
 40
1.0
 10
10.00845
 20
-1.79194
 30
0.0
 10
10.00845
 20
-1.79194
 30
0.0
 10
10.00845
 20
-0.80914
 30
0.0
 10
10.00845
 20
-0.80914
 30
0.0
 10
10.00845
 20
-0.80914
 30
0.0
 10
9.02502
 20
-0.80914
 30
0.0
 10
9.02502
 20
-0.80914
 30
0.0
  0
SPLINE
  5
95
330
1F
100
AcDbEntity
  8
Dummy%Layer%Dummy%Layer
 62
   250
370
     9
100
AcDbSpline
210
0.0
220
0.0
230
1.0
 70
     8
 71
     3
 72
    11
 73
     7
 74
     0
 42
0.0000000001
 43
0.0000000001
 40
0.0
 40
0.0
 40
0.0
 40
0.0
 40
0.5
 40
0.5
 40
0.5
 40
1.0
 40
1.0
 40
1.0
 40
1.0
 10
-9.90286
 20
-12.65468
 30
0.0
 10
-9.90286
 20
-12.65468
 30
0.0
 10
-9.90286
 20
-13.63748
 30
0.0
 10
-9.90286
 20
-13.63748
 30
0.0
 10
-9.90286
 20
-13.63748
 30
0.0
 10
-8.91943
 20
-13.63748
 30
0.0
 10
-8.91943
 20
-13.63748
 30
0.0
  0
SPLINE
  5
96
330
1F
100
AcDbEntity
  8
Dummy%Layer%Dummy%Layer
 62
   250
370
     9
100
AcDbSpline
210
0.0
220
0.0
230
1.0
 70
     8
 71
     3
 72
    11
 73
     7
 74
     0
 42
0.0000000001
 43
0.0000000001
 40
0.0
 40
0.0
 40
0.0
 40
0.0
 40
0.5
 40
0.5
 40
0.5
 40
1.0
 40
1.0
 40
1.0
 40
1.0
 10
-9.90286
 20
-1.79194
 30
0.0
 10
-9.90286
 20
-1.79194
 30
0.0
 10
-9.90286
 20
-0.80914
 30
0.0
 10
-9.90286
 20
-0.80914
 30
0.0
 10
-9.90286
 20
-0.80914
 30
0.0
 10
-8.91943
 20
-0.80914
 30
0.0
 10
-8.91943
 20
-0.80914
 30
0.0
  0
SPLINE
  5
97
330
1F
100
AcDbEntity
  8
Dummy%Layer%Dummy%Layer
 62
   250
370
     9
100
AcDbSpline
210
0.0
220
0.0
230
1.0
 70
     8
 71
     3
 72
    11
 73
     7
 74
     0
 42
0.0000000001
 43
0.0000000001
 40
0.0
 40
0.0
 40
0.0
 40
0.0
 40
0.5
 40
0.5
 40
0.5
 40
1.0
 40
1.0
 40
1.0
 40
1.0
 10
10.00845
 20
-12.65468
 30
0.0
 10
10.00845
 20
-12.65468
 30
0.0
 10
10.00845
 20
-13.63748
 30
0.0
 10
10.00845
 20
-13.63748
 30
0.0
 10
10.00845
 20
-13.63748
 30
0.0
 10
9.02502
 20
-13.63748
 30
0.0
 10
9.02502
 20
-13.63748
 30
0.0
  0
SPLINE
  5
98
330
1F
100
AcDbEntity
  8
Dummy%Layer%Dummy%Layer
 62
   250
370
     9
100
AcDbSpline
210
0.0
220
0.0
230
1.0
 70
     8
 71
     3
 72
    11
 73
     7
 74
     0
 42
0.0000000001
 43
0.0000000001
 40
0.0
 40
0.0
 40
0.0
 40
0.0
 40
0.5
 40
0.5
 40
0.5
 40
1.0
 40
1.0
 40
1.0
 40
1.0
 10
37.77511
 20
-1.71079
 30
0.0
 10
37.77511
 20
-1.71079
 30
0.0
 10
37.77511
 20
-0.71331
 30
0.0
 10
37.77511
 20
-0.71331
 30
0.0
 10
37.77511
 20
-0.71331
 30
0.0
 10
36.76755
 20
-0.71331
 30
0.0
 10
36.76755
 20
-0.71331
 30
0.0
  0
SPLINE
  5
99
330
1F
100
AcDbEntity
  8
Dummy%Layer%Dummy%Layer
 62
   250
370
     9
100
AcDbSpline
210
0.0
220
0.0
230
1.0
 70
     8
 71
     3
 72
    11
 73
     7
 74
     0
 42
0.0000000001
 43
0.0000000001
 40
0.0
 40
0.0
 40
0.0
 40
0.0
 40
0.5
 40
0.5
 40
0.5
 40
1.0
 40
1.0
 40
1.0
 40
1.0
 10
17.37512
 20
-12.73583
 30
0.0
 10
17.37512
 20
-12.73583
 30
0.0
 10
17.37512
 20
-13.73331
 30
0.0
 10
17.37512
 20
-13.73331
 30
0.0
 10
17.37512
 20
-13.73331
 30
0.0
 10
18.38268
 20
-13.73331
 30
0.0
 10
18.38268
 20
-13.73331
 30
0.0
  0
SPLINE
  5
9A
330
1F
100
AcDbEntity
  8
Dummy%Layer%Dummy%Layer
 62
   250
370
     9
100
AcDbSpline
210
0.0
220
0.0
230
1.0
 70
     8
 71
     3
 72
    11
 73
     7
 74
     0
 42
0.0000000001
 43
0.0000000001
 40
0.0
 40
0.0
 40
0.0
 40
0.0
 40
0.5
 40
0.5
 40
0.5
 40
1.0
 40
1.0
 40
1.0
 40
1.0
 10
17.37512
 20
-1.71079
 30
0.0
 10
17.37512
 20
-1.71079
 30
0.0
 10
17.37512
 20
-0.71331
 30
0.0
 10
17.37512
 20
-0.71331
 30
0.0
 10
17.37512
 20
-0.71331
 30
0.0
 10
18.38268
 20
-0.71331
 30
0.0
 10
18.38268
 20
-0.71331
 30
0.0
  0
SPLINE
  5
9B
330
1F
100
AcDbEntity
  8
Dummy%Layer%Dummy%Layer
 62
   250
370
     9
100
AcDbSpline
210
0.0
220
0.0
230
1.0
 70
     8
 71
     3
 72
    11
 73
     7
 74
     0
 42
0.0000000001
 43
0.0000000001
 40
0.0
 40
0.0
 40
0.0
 40
0.0
 40
0.5
 40
0.5
 40
0.5
 40
1.0
 40
1.0
 40
1.0
 40
1.0
 10
37.77511
 20
-12.73583
 30
0.0
 10
37.77511
 20
-12.73583
 30
0.0
 10
37.77511
 20
-13.73331
 30
0.0
 10
37.77511
 20
-13.73331
 30
0.0
 10
37.77511
 20
-13.73331
 30
0.0
 10
36.76755
 20
-13.73331
 30
0.0
 10
36.76755
 20
-13.73331
 30
0.0
  0
IMAGE
  5
9D
330
1F
100
AcDbEntity
  8
Dummy%Layer%Dummy%Layer
 62
   250
160
               140
310
8C000000010000008400000006000000050000005EFDBD3FE08516400A373D0C5D291B4000000000000000005EFDBD3FE0851640DFF939A9FBD01A400000000000000000B5DA13D3D8C61640DFF939A9FBD01A400000000000000000B5DA13D3D8C616400A373D0C5D291B4000000000000000005EFDBD3FE08516400A373D
310
0C5D291B400000000000000000
100
AcDbRasterImage
 90
        0
 10
5.54664
 20
0.59431
 30
0.0
 11
0.01390826219512195
 21
0.0
 31
0.0
 12
0.0
 22
0.0138955033557047
 32
0.0
 13
328.0
 23
447.0
340
9C
 70
     7
280
     1
281
    50
282
    50
283
     0
360
9E
 71
     1
 91
        2
 14
5.54664
 24
0.59431
 14
10.10855
 24
6.8056
290
     0
  0
IMAGE
  5
A0
330
1F
100
AcDbEntity
  8
Dummy%Layer%Dummy%Layer
 62
   250
160
               140
310
8C0000000100000084000000060000000500000032B03B48719213C0E6702907903D1B40000000000000000032B03B48719213C0394F326DD1E41A400000000000000000CB8F45562A5113C0394F326DD1E41A400000000000000000CB8F45562A5113C0E6702907903D1B40000000000000000032B03B48719213C0E67029
310
07903D1B400000000000000000
100
AcDbRasterImage
 90
        0
 10
-4.8327
 20
0.59431
 30
0.0
 11
0.01391978723404255
 21
0.0
 31
0.0
 12
0.0
 22
0.01390854910714286
 32
0.0
 13
329.0
 23
448.0
340
9F
 70
     7
280
     1
281
    50
282
    50
283
     0
360
A1
 71
     1
 91
        2
 14
-4.8327
 24
0.59431
 14
-0.2530900000000003
 24
6.82534
290
     0
  0
IMAGE
  5
A3
330
1F
100
AcDbEntity
  8
Dummy%Layer%Dummy%Layer
 62
   250
160
               140
310
8C000000010000008400000006000000050000008BDC83FD8E30D73FE6702907903D1B4000000000000000008BDC83FD8E30D73F394F326DD1E41A400000000000000000FEE2E51CFE44DB3F394F326DD1E41A400000000000000000FEE2E51CFE44DB3FE6702907903D1B4000000000000000008BDC83FD8E30D73FE67029
310
07903D1B400000000000000000
100
AcDbRasterImage
 90
        0
 10
0.3505
 20
0.59431
 30
0.0
 11
0.01391978723404255
 21
0.0
 31
0.0
 12
0.0
 22
0.01390854910714286
 32
0.0
 13
329.0
 23
448.0
340
A2
 70
     7
280
     1
281
    50
282
    50
283
     0
360
A4
 71
     1
 91
        2
 14
0.3505
 24
0.59431
 14
4.93011
 24
6.82534
290
     0
  0
IMAGE
  5
A6
330
1F
100
AcDbEntity
  8
Dummy%Layer%Dummy%Layer
 62
   250
160
               140
310
8C0000000100000084000000060000000500000023D57206684324C08E2E5A55FD171B40000000000000000023D57206684324C0E891A30EB2BF1A40000000000000000008F509C3EC2224C0E891A30EB2BF1A40000000000000000008F509C3EC2224C08E2E5A55FD171B40000000000000000023D57206684324C08E2E5A
310
55FD171B400000000000000000
100
AcDbRasterImage
 90
        0
 10
-9.99934
 20
0.59431
 30
0.0
 11
0.01392865443425076
 21
0.0
 31
0.0
 12
0.0
 22
0.01391988764044944
 32
0.0
 13
327.0
 23
445.0
340
A5
 70
     7
280
     1
281
    50
282
    50
283
     0
360
A7
 71
     1
 91
        2
 14
-9.99934
 24
0.59431
 14
-5.44467
 24
6.78866
290
     0
  0
IMAGE
  5
A9
330
1F
100
AcDbEntity
  8
Dummy%Layer%Dummy%Layer
 62
   250
160
               140
310
8C000000010000008400000006000000050000003D1B974A5883164096747E6E83682A4000000000000000003D1B974A588316403190DFA1543C2A4000000000000000004F7B88DB75C416403190DFA1543C2A4000000000000000004F7B88DB75C4164096747E6E83682A4000000000000000003D1B974A5883164096747E
310
6E83682A400000000000000000
100
AcDbRasterImage
 90
        0
 10
5.54411
 20
7.09894
 30
0.0
 11
0.01392371951219512
 21
0.0
 31
0.0
 12
0.0
 22
0.01389434004474273
 32
0.0
 13
328.0
 23
447.0
340
A8
 70
     7
280
     1
281
    50
282
    50
283
     0
360
AA
 71
     1
 91
        2
 14
5.54411
 24
7.09894
 14
10.11109
 24
13.30971
290
     0
  0
IMAGE
  5
AC
330
1F
100
AcDbEntity
  8
Dummy%Layer%Dummy%Layer
 62
   250
160
               140
310
8C000000010000008400000006000000050000006F530D8F8507D83F61052E6EC6682A4000000000000000006F530D8F8507D83FCC66ACBC953C2A400000000000000000E4286BC40E17DC3FCC66ACBC953C2A400000000000000000E4286BC40E17DC3F61052E6EC6682A4000000000000000006F530D8F8507D83F61052E
310
6EC6682A400000000000000000
100
AcDbRasterImage
 90
        0
 10
0.36345
 20
7.09894
 30
0.0
 11
0.01390826219512195
 21
0.0
 31
0.0
 12
0.0
 22
0.0138955033557047
 32
0.0
 13
328.0
 23
447.0
340
AB
 70
     7
280
     1
281
    50
282
    50
283
     0
360
AD
 71
     1
 91
        2
 14
0.36345
 24
7.09894
 14
4.92536
 24
13.31023
290
     0
  0
IMAGE
  5
AF
330
1F
100
AcDbEntity
  8
Dummy%Layer%Dummy%Layer
 62
   250
160
               140
310
8C000000010000008400000006000000050000005F98CD9F6E9213C0174D49CCD4722A4000000000000000005F98CD9F6E9213C041BC4D7F75462A400000000000000000F877D7AD275113C041BC4D7F75462A400000000000000000F877D7AD275113C0174D49CCD4722A4000000000000000005F98CD9F6E9213C0174D49
310
CCD4722A400000000000000000
100
AcDbRasterImage
 90
        0
 10
-4.83269
 20
7.09894
 30
0.0
 11
0.01391978723404255
 21
0.0
 31
0.0
 12
0.0
 22
0.01390854910714286
 32
0.0
 13
329.0
 23
448.0
340
AE
 70
     7
280
     1
281
    50
282
    50
283
     0
360
B0
 71
     1
 91
        2
 14
-4.83269
 24
7.09894
 14
-0.2530800000000006
 24
13.32997
290
     0
  0
IMAGE
  5
B2
330
1F
100
AcDbEntity
  8
Dummy%Layer%Dummy%Layer
 62
   250
160
               140
310
8C000000010000008400000006000000050000007BAD3924804424C0EE1605B8C7682A4000000000000000007BAD3924804424C0273D30FD963C2A400000000000000000744302EE0C2424C0273D30FD963C2A400000000000000000744302EE0C2424C0EE1605B8C7682A4000000000000000007BAD3924804424C0EE1605
310
B8C7682A400000000000000000
100
AcDbRasterImage
 90
        0
 10
-10.00171
 20
7.09894
 30
0.0
 11
0.01390067073170732
 21
0.0
 31
0.0
 12
0.0
 22
0.01389552572706935
 32
0.0
 13
328.0
 23
447.0
340
B1
 70
     7
280
     1
281
    50
282
    50
283
     0
360
B3
 71
     1
 91
        2
 14
-10.00171
 24
7.09894
 14
-5.442289999999999
 24
13.31024
290
     0
  0
SPLINE
  5
B4
330
1F
100
AcDbEntity
  8
Dummy%Layer%Dummy%Layer
 62
   250
370
     9
100
AcDbSpline
210
0.0
220
0.0
230
1.0
 70
     8
 71
     3
 72
    11
 73
     7
 74
     0
 42
0.0000000001
 43
0.0000000001
 40
0.0
 40
0.0
 40
0.0
 40
0.0
 40
0.5
 40
0.5
 40
0.5
 40
1.0
 40
1.0
 40
1.0
 40
1.0
 10
10.00845
 20
1.67711
 30
0.0
 10
10.00845
 20
1.67711
 30
0.0
 10
10.00845
 20
0.69431
 30
0.0
 10
10.00845
 20
0.69431
 30
0.0
 10
10.00845
 20
0.69431
 30
0.0
 10
9.02502
 20
0.69431
 30
0.0
 10
9.02502
 20
0.69431
 30
0.0
  0
SPLINE
  5
B5
330
1F
100
AcDbEntity
  8
Dummy%Layer%Dummy%Layer
 62
   250
370
     9
100
AcDbSpline
210
0.0
220
0.0
230
1.0
 70
     8
 71
     3
 72
    11
 73
     7
 74
     0
 42
0.0000000001
 43
0.0000000001
 40
0.0
 40
0.0
 40
0.0
 40
0.0
 40
0.5
 40
0.5
 40
0.5
 40
1.0
 40
1.0
 40
1.0
 40
1.0
 10
-9.90286
 20
12.53985
 30
0.0
 10
-9.90286
 20
12.53985
 30
0.0
 10
-9.90286
 20
13.52265
 30
0.0
 10
-9.90286
 20
13.52265
 30
0.0
 10
-9.90286
 20
13.52265
 30
0.0
 10
-8.91943
 20
13.52265
 30
0.0
 10
-8.91943
 20
13.52265
 30
0.0
  0
SPLINE
  5
B6
330
1F
100
AcDbEntity
  8
Dummy%Layer%Dummy%Layer
 62
   250
370
     9
100
AcDbSpline
210
0.0
220
0.0
230
1.0
 70
     8
 71
     3
 72
    11
 73
     7
 74
     0
 42
0.0000000001
 43
0.0000000001
 40
0.0
 40
0.0
 40
0.0
 40
0.0
 40
0.5
 40
0.5
 40
0.5
 40
1.0
 40
1.0
 40
1.0
 40
1.0
 10
-9.90286
 20
1.67711
 30
0.0
 10
-9.90286
 20
1.67711
 30
0.0
 10
-9.90286
 20
0.69431
 30
0.0
 10
-9.90286
 20
0.69431
 30
0.0
 10
-9.90286
 20
0.69431
 30
0.0
 10
-8.91943
 20
0.69431
 30
0.0
 10
-8.91943
 20
0.69431
 30
0.0
  0
SPLINE
  5
B7
330
1F
100
AcDbEntity
  8
Dummy%Layer%Dummy%Layer
 62
   250
370
     9
100
AcDbSpline
210
0.0
220
0.0
230
1.0
 70
     8
 71
     3
 72
    11
 73
     7
 74
     0
 42
0.0000000001
 43
0.0000000001
 40
0.0
 40
0.0
 40
0.0
 40
0.0
 40
0.5
 40
0.5
 40
0.5
 40
1.0
 40
1.0
 40
1.0
 40
1.0
 10
10.00845
 20
12.53985
 30
0.0
 10
10.00845
 20
12.53985
 30
0.0
 10
10.00845
 20
13.52265
 30
0.0
 10
10.00845
 20
13.52265
 30
0.0
 10
10.00845
 20
13.52265
 30
0.0
 10
9.02502
 20
13.52265
 30
0.0
 10
9.02502
 20
13.52265
 30
0.0
  0
SPLINE
  5
B8
330
1F
100
AcDbEntity
  8
Dummy%Layer%Dummy%Layer
370
     9
100
AcDbSpline
210
0.0
220
0.0
230
1.0
 70
    11
 71
     3
 72
    56
 73
    52
 74
     0
 42
0.0000000001
 43
0.0000000001
 40
0.0
 40
0.0
 40
0.0
 40
0.0
 40
0.0588235294117647
 40
0.0588235294117647
 40
0.0588235294117647
 40
0.1176470588235294
 40
0.1176470588235294
 40
0.1176470588235294
 40
0.1764705882352941
 40
0.1764705882352941
 40
0.1764705882352941
 40
0.2352941176470588
 40
0.2352941176470588
 40
0.2352941176470588
 40
0.2941176470588235
 40
0.2941176470588235
 40
0.2941176470588235
 40
0.3529411764705882
 40
0.3529411764705882
 40
0.3529411764705882
 40
0.4117647058823529
 40
0.4117647058823529
 40
0.4117647058823529
 40
0.4705882352941176
 40
0.4705882352941176
 40
0.4705882352941176
 40
0.5294117647058824
 40
0.5294117647058824
 40
0.5294117647058824
 40
0.5882352941176471
 40
0.5882352941176471
 40
0.5882352941176471
 40
0.6470588235294118
 40
0.6470588235294118
 40
0.6470588235294118
 40
0.7058823529411764
 40
0.7058823529411764
 40
0.7058823529411764
 40
0.7647058823529411
 40
0.7647058823529411
 40
0.7647058823529411
 40
0.8235294117647058
 40
0.8235294117647058
 40
0.8235294117647058
 40
0.8823529411764706
 40
0.8823529411764706
 40
0.8823529411764706
 40
0.9411764705882353
 40
0.9411764705882353
 40
0.9411764705882353
 40
1.0
 40
1.0
 40
1.0
 40
1.0
 10
25.48067
 20
-15.90181
 30
0.0
 10
25.48067
 20
-15.90181
 30
0.0
 10
23.17891
 20
-16.13035
 30
0.0
 10
23.17891
 20
-16.13035
 30
0.0
 10
23.17891
 20
-16.13035
 30
0.0
 10
25.48067
 20
-16.37297
 30
0.0
 10
25.48067
 20
-16.37297
 30
0.0
 10
25.48067
 20
-16.37297
 30
0.0
 10
32.42539
 20
-16.37297
 30
0.0
 10
32.42539
 20
-16.37297
 30
0.0
 10
32.42539
 20
-16.38066
 30
0.0
 10
32.4267
 20
-16.44837
 30
0.0
 10
32.42908
 20
-16.45835
 30
0.0
 10
32.44581
 20
-16.52833
 30
0.0
 10
32.51619
 20
-16.58483
 30
0.0
 10
32.57002
 20
-16.58483
 30
0.0
 10
32.57002
 20
-16.58483
 30
0.0
 10
32.94697
 20
-16.58483
 30
0.0
 10
32.94697
 20
-16.58483
 30
0.0
 10
33.00849
 20
-16.58483
 30
0.0
 10
33.05883
 20
-16.5345
 30
0.0
 10
33.05883
 20
-16.47297
 30
0.0
 10
33.05883
 20
-16.47297
 30
0.0
 10
33.05883
 20
-16.32239
 30
0.0
 10
33.05883
 20
-16.32239
 30
0.0
 10
33.05883
 20
-16.32239
 30
0.0
 10
32.74768
 20
-16.32239
 30
0.0
 10
32.74768
 20
-16.32239
 30
0.0
 10
32.74768
 20
-16.17906
 30
0.0
 10
32.74768
 20
-16.09572
 30
0.0
 10
32.74768
 20
-15.95239
 30
0.0
 10
32.74768
 20
-15.95239
 30
0.0
 10
33.05883
 20
-15.95239
 30
0.0
 10
33.05883
 20
-15.95239
 30
0.0
 10
33.05883
 20
-15.95239
 30
0.0
 10
33.05883
 20
-15.80181
 30
0.0
 10
33.05883
 20
-15.80181
 30
0.0
 10
33.05883
 20
-15.74028
 30
0.0
 10
33.00846
 20
-15.68995
 30
0.0
 10
32.94697
 20
-15.68995
 30
0.0
 10
32.94697
 20
-15.68995
 30
0.0
 10
32.57002
 20
-15.68995
 30
0.0
 10
32.57002
 20
-15.68995
 30
0.0
 10
32.52104
 20
-15.68995
 30
0.0
 10
32.45592
 20
-15.7315
 30
0.0
 10
32.43246
 20
-15.80141
 30
0.0
 10
32.42648
 20
-15.81922
 30
0.0
 10
32.42539
 20
-15.88932
 30
0.0
 10
32.42539
 20
-15.90181
 30
0.0
 10
32.42539
 20
-15.90181
 30
0.0
 10
25.48067
 20
-15.90181
 30
0.0
 10
25.48067
 20
-15.90181
 30
0.0
  0
TEXT
  5
BA
330
1F
100
AcDbEntity
  8
Dummy%Layer%Dummy%Layer
 62
     1
100
AcDbText
 10
-38.38312000000001
 20
-0.8275
 30
0.0
 40
0.6096024
  1
шаблон для обрезания картинки
  7
0
100
AcDbText
  0
TEXT
  5
BB
330
1F
100
AcDbEntity
  8
Dummy%Layer%Dummy%Layer
 62
     1
100
AcDbText
 10
21.43296
 20
-18.63987
 30
0.0
 40
0.6096024
  1
под фанеру 4 мм
  7
0
100
AcDbText
  0
TEXT
  5
BC
330
1F
100
AcDbEntity
  8
Dummy%Layer%Dummy%Layer
 62
     1
100
AcDbText
 10
-18.47953
 20
7.582320000000001
 30
0.0
 40
0.6096024
  1
сторона №1
  7
0
100
AcDbText
  0
TEXT
  5
BD
330
1F
100
AcDbEntity
  8
Dummy%Layer%Dummy%Layer
 62
     1
100
AcDbText
 10
-18.47953
 20
-8.00394
 30
0.0
 40
0.6096024
  1
сторона №2
  7
0
100
AcDbText
  0
ENDSEC
  0
SECTION
  2
OBJECTS
  0
DICTIONARY
  5
C
330
0
100
AcDbDictionary
281
     1
  3
ACAD_DETAILVIEWSTYLE
350
C5
  3
ACAD_GROUP
350
D
  3
ACAD_IMAGE_DICT
350
60
  3
ACAD_LAYOUT
350
1A
  3
ACAD_MATERIAL
350
43
  3
ACAD_MLEADERSTYLE
350
5B
  3
ACAD_MLINESTYLE
350
17
  3
ACAD_PLOTSETTINGS
350
19
  3
ACAD_PLOTSTYLENAME
350
E
  3
ACAD_SCALELIST
350
47
  3
ACAD_SECTIONVIEWSTYLE
350
C6
  3
ACAD_TABLESTYLE
350
59
  3
ACAD_VISUALSTYLE
350
2A
  3
ACDB_RECOMPOSE_DATA
350
C2
  3
AcDbVariableDictionary
350
BE
  0
SUN
  5
5D
330
29
100
AcDbSun
 90
        1
290
     0
 63
     7
421
 16777215
 40
1.0
291
     1
 91
  2455826
 92
 54000000
292
     0
 70
     2
 71
   256
280
     1
  0
IMAGEDEF_REACTOR
  5
63
330
62
100
AcDbRasterImageDefReactor
 90
        2
330
62
  0
IMAGEDEF_REACTOR
  5
66
330
65
100
AcDbRasterImageDefReactor
 90
        2
330
65
  0
IMAGEDEF_REACTOR
  5
69
330
68
100
AcDbRasterImageDefReactor
 90
        2
330
68
  0
IMAGEDEF_REACTOR
  5
6C
330
6B
100
AcDbRasterImageDefReactor
 90
        2
330
6B
  0
IMAGEDEF_REACTOR
  5
6F
330
6E
100
AcDbRasterImageDefReactor
 90
        2
330
6E
  0
IMAGEDEF_REACTOR
  5
72
330
71
100
AcDbRasterImageDefReactor
 90
        2
330
71
  0
IMAGEDEF_REACTOR
  5
75
330
74
100
AcDbRasterImageDefReactor
 90
        2
330
74
  0
IMAGEDEF_REACTOR
  5
78
330
77
100
AcDbRasterImageDefReactor
 90
        2
330
77
  0
IMAGEDEF_REACTOR
  5
9E
330
9D
100
AcDbRasterImageDefReactor
 90
        2
330
9D
  0
IMAGEDEF_REACTOR
  5
A1
330
A0
100
AcDbRasterImageDefReactor
 90
        2
330
A0
  0
IMAGEDEF_REACTOR
  5
A4
330
A3
100
AcDbRasterImageDefReactor
 90
        2
330
A3
  0
IMAGEDEF_REACTOR
  5
A7
330
A6
100
AcDbRasterImageDefReactor
 90
        2
330
A6
  0
IMAGEDEF_REACTOR
  5
AA
330
A9
100
AcDbRasterImageDefReactor
 90
        2
330
A9
  0
IMAGEDEF_REACTOR
  5
AD
330
AC
100
AcDbRasterImageDefReactor
 90
        2
330
AC
  0
IMAGEDEF_REACTOR
  5
B0
330
AF
100
AcDbRasterImageDefReactor
 90
        2
330
AF
  0
IMAGEDEF_REACTOR
  5
B3
330
B2
100
AcDbRasterImageDefReactor
 90
        2
330
B2
  0
DICTIONARY
  5
C5
102
{ACAD_REACTORS
330
C
102
}
330
C
100
AcDbDictionary
281
     1
  0
DICTIONARY
  5
D
102
{ACAD_REACTORS
330
C
102
}
330
C
100
AcDbDictionary
281
     1
  0
DICTIONARY
  5
60
102
{ACAD_REACTORS
330
C
102
}
330
C
100
AcDbDictionary
281
     1
  3
Image #1
350
61
  3
Image #10
350
9F
  3
Image #11
350
A2
  3
Image #12
350
A5
  3
Image #13
350
A8
  3
Image #14
350
AB
  3
Image #15
350
AE
  3
Image #16
350
B1
  3
Image #2
350
64
  3
Image #3
350
67
  3
Image #4
350
6A
  3
Image #5
350
6D
  3
Image #6
350
70
  3
Image #7
350
73
  3
Image #8
350
76
  3
Image #9
350
9C
  0
DICTIONARY
  5
1A
102
{ACAD_REACTORS
330
C
102
}
330
C
100
AcDbDictionary
281
     1
  3
Layout1
350
1E
  3
Layout2
350
26
  3
Model
350
22
  0
DICTIONARY
  5
43
102
{ACAD_REACTORS
330
C
102
}
330
C
100
AcDbDictionary
281
     1
  3
ByBlock
350
45
  3
ByLayer
350
44
  3
Global
350
46
  0
DICTIONARY
  5
5B
102
{ACAD_REACTORS
330
C
102
}
330
C
100
AcDbDictionary
281
     1
  3
Standard
350
5C
  0
DICTIONARY
  5
17
102
{ACAD_REACTORS
330
C
102
}
330
C
100
AcDbDictionary
281
     1
  3
Standard
350
18
  0
DICTIONARY
  5
19
102
{ACAD_REACTORS
330
C
102
}
330
C
100
AcDbDictionary
281
     1
  0
ACDBDICTIONARYWDFLT
  5
E
102
{ACAD_REACTORS
330
C
102
}
330
C
100
AcDbDictionary
281
     1
  3
Normal
350
F
100
AcDbDictionaryWithDefault
340
F
  0
DICTIONARY
  5
47
102
{ACAD_REACTORS
330
C
102
}
330
C
100
AcDbDictionary
281
     1
  3
A0
350
48
  3
A1
350
49
  3
A2
350
4A
  3
A3
350
4B
  3
A4
350
4C
  3
A5
350
4D
  3
A6
350
4E
  3
A7
350
4F
  3
A8
350
50
  3
A9
350
51
  3
B1
350
52
  3
B2
350
53
  3
B3
350
54
  3
B4
350
55
  3
B5
350
56
  3
B6
350
57
  3
B7
350
58
  0
DICTIONARY
  5
C6
102
{ACAD_REACTORS
330
C
102
}
330
C
100
AcDbDictionary
281
     1
  0
DICTIONARY
  5
59
102
{ACAD_REACTORS
330
C
102
}
330
C
100
AcDbDictionary
281
     1
  3
Standard
350
5A
  0
DICTIONARY
  5
2A
102
{ACAD_REACTORS
330
C
102
}
330
C
100
AcDbDictionary
281
     1
  3
2dWireframe
350
2F
  3
Basic
350
32
  3
Brighten
350
36
  3
ColorChange
350
3A
  3
Conceptual
350
34
  3
Dim
350
35
  3
EdgeColorOff
350
3D
  3
Facepattern
350
39
  3
Flat
350
2B
  3
FlatWithEdges
350
2C
  3
Gouraud
350
2D
  3
GouraudWithEdges
350
2E
  3
Hidden
350
31
  3
JitterOff
350
3B
  3
Linepattern
350
38
  3
OverhangOff
350
3C
  3
Realistic
350
33
  3
Shaded
350
42
  3
Shaded with edges
350
41
  3
Shades of Gray
350
3E
  3
Sketchy
350
3F
  3
Thicken
350
37
  3
Wireframe
350
30
  3
X-Ray
350
40
  0
XRECORD
  5
C2
102
{ACAD_REACTORS
330
C
102
}
330
C
100
AcDbXrecord
280
     1
 90
        1
330
5A
  0
DICTIONARY
  5
BE
102
{ACAD_REACTORS
330
C
102
}
330
C
100
AcDbDictionary
281
     1
  3
CANNOSCALE
350
BF
  3
CMLEADERSTYLE
350
C4
  3
CTABLESTYLE
350
C3
  0
IMAGEDEF
  5
61
102
{ACAD_REACTORS
330
60
330
63
102
}
330
60
100
AcDbRasterImageDef
 90
        0
  1
C:\Users\smych\Desktop\Пасхальный пакк\Топперы в виде яиц\Топперы в виде яиц_ACD_0.jpg
 10
328.0
 20
447.0
 11
0.003048780487804878
 21
0.003048780487804878
280
     1
281
     5
  0
IMAGEDEF
  5
9F
102
{ACAD_REACTORS
330
60
330
A1
102
}
330
60
100
AcDbRasterImageDef
 90
        0
  1
C:\Users\smych\Desktop\Пасхальный пакк\Топперы в виде яиц\Топперы в виде яиц_ACD_9.jpg
 10
329.0
 20
448.0
 11
0.00303951367781155
 21
0.00303951367781155
280
     1
281
     5
  0
IMAGEDEF
  5
A2
102
{ACAD_REACTORS
330
60
330
A4
102
}
330
60
100
AcDbRasterImageDef
 90
        0
  1
C:\Users\smych\Desktop\Пасхальный пакк\Топперы в виде яиц\Топперы в виде яиц_ACD_10.jpg
 10
329.0
 20
448.0
 11
0.00303951367781155
 21
0.00303951367781155
280
     1
281
     5
  0
IMAGEDEF
  5
A5
102
{ACAD_REACTORS
330
60
330
A7
102
}
330
60
100
AcDbRasterImageDef
 90
        0
  1
C:\Users\smych\Desktop\Пасхальный пакк\Топперы в виде яиц\Топперы в виде яиц_ACD_11.jpg
 10
327.0
 20
445.0
 11
0.003058103975535168
 21
0.003058103975535168
280
     1
281
     5
  0
IMAGEDEF
  5
A8
102
{ACAD_REACTORS
330
60
330
AA
102
}
330
60
100
AcDbRasterImageDef
 90
        0
  1
C:\Users\smych\Desktop\Пасхальный пакк\Топперы в виде яиц\Топперы в виде яиц_ACD_12.jpg
 10
328.0
 20
447.0
 11
0.003048780487804878
 21
0.003048780487804878
280
     1
281
     5
  0
IMAGEDEF
  5
AB
102
{ACAD_REACTORS
330
60
330
AD
102
}
330
60
100
AcDbRasterImageDef
 90
        0
  1
C:\Users\smych\Desktop\Пасхальный пакк\Топперы в виде яиц\Топперы в виде яиц_ACD_13.jpg
 10
328.0
 20
447.0
 11
0.003048780487804878
 21
0.003048780487804878
280
     1
281
     5
  0
IMAGEDEF
  5
AE
102
{ACAD_REACTORS
330
60
330
B0
102
}
330
60
100
AcDbRasterImageDef
 90
        0
  1
C:\Users\smych\Desktop\Пасхальный пакк\Топперы в виде яиц\Топперы в виде яиц_ACD_14.jpg
 10
329.0
 20
448.0
 11
0.00303951367781155
 21
0.00303951367781155
280
     1
281
     5
  0
IMAGEDEF
  5
B1
102
{ACAD_REACTORS
330
60
330
B3
102
}
330
60
100
AcDbRasterImageDef
 90
        0
  1
C:\Users\smych\Desktop\Пасхальный пакк\Топперы в виде яиц\Топперы в виде яиц_ACD_15.jpg
 10
328.0
 20
447.0
 11
0.003048780487804878
 21
0.003048780487804878
280
     1
281
     5
  0
IMAGEDEF
  5
64
102
{ACAD_REACTORS
330
60
330
66
102
}
330
60
100
AcDbRasterImageDef
 90
        0
  1
C:\Users\smych\Desktop\Пасхальный пакк\Топперы в виде яиц\Топперы в виде яиц_ACD_1.jpg
 10
329.0
 20
448.0
 11
0.00303951367781155
 21
0.00303951367781155
280
     1
281
     5
  0
IMAGEDEF
  5
67
102
{ACAD_REACTORS
330
60
330
69
102
}
330
60
100
AcDbRasterImageDef
 90
        0
  1
C:\Users\smych\Desktop\Пасхальный пакк\Топперы в виде яиц\Топперы в виде яиц_ACD_2.jpg
 10
329.0
 20
448.0
 11
0.00303951367781155
 21
0.00303951367781155
280
     1
281
     5
  0
IMAGEDEF
  5
6A
102
{ACAD_REACTORS
330
60
330
6C
102
}
330
60
100
AcDbRasterImageDef
 90
        0
  1
C:\Users\smych\Desktop\Пасхальный пакк\Топперы в виде яиц\Топперы в виде яиц_ACD_3.jpg
 10
327.0
 20
445.0
 11
0.003058103975535168
 21
0.003058103975535168
280
     1
281
     5
  0
IMAGEDEF
  5
6D
102
{ACAD_REACTORS
330
60
330
6F
102
}
330
60
100
AcDbRasterImageDef
 90
        0
  1
C:\Users\smych\Desktop\Пасхальный пакк\Топперы в виде яиц\Топперы в виде яиц_ACD_4.jpg
 10
328.0
 20
447.0
 11
0.003048780487804878
 21
0.003048780487804878
280
     1
281
     5
  0
IMAGEDEF
  5
70
102
{ACAD_REACTORS
330
60
330
72
102
}
330
60
100
AcDbRasterImageDef
 90
        0
  1
C:\Users\smych\Desktop\Пасхальный пакк\Топперы в виде яиц\Топперы в виде яиц_ACD_5.jpg
 10
328.0
 20
447.0
 11
0.003048780487804878
 21
0.003048780487804878
280
     1
281
     5
  0
IMAGEDEF
  5
73
102
{ACAD_REACTORS
330
60
330
75
102
}
330
60
100
AcDbRasterImageDef
 90
        0
  1
C:\Users\smych\Desktop\Пасхальный пакк\Топперы в виде яиц\Топперы в виде яиц_ACD_6.jpg
 10
329.0
 20
448.0
 11
0.00303951367781155
 21
0.00303951367781155
280
     1
281
     5
  0
IMAGEDEF
  5
76
102
{ACAD_REACTORS
330
60
330
78
102
}
330
60
100
AcDbRasterImageDef
 90
        0
  1
C:\Users\smych\Desktop\Пасхальный пакк\Топперы в виде яиц\Топперы в виде яиц_ACD_7.jpg
 10
328.0
 20
447.0
 11
0.003048780487804878
 21
0.003048780487804878
280
     1
281
     5
  0
IMAGEDEF
  5
9C
102
{ACAD_REACTORS
330
60
330
9E
102
}
330
60
100
AcDbRasterImageDef
 90
        0
  1
C:\Users\smych\Desktop\Пасхальный пакк\Топперы в виде яиц\Топперы в виде яиц_ACD_8.jpg
 10
328.0
 20
447.0
 11
0.003048780487804878
 21
0.003048780487804878
280
     1
281
     5
  0
LAYOUT
  5
1E
102
{ACAD_REACTORS
330
1A
102
}
330
1A
100
AcDbPlotSettings
  1

  2
none_device
  4

  6

 40
0.0
 41
0.0
 42
0.0
 43
0.0
 44
0.0
 45
0.0
 46
0.0
 47
0.0
 48
0.0
 49
0.0
140
0.0
141
0.0
142
1.0
143
1.0
 70
   688
 72
     0
 73
     0
 74
     5
  7

 75
    16
 76
     0
 77
     2
 78
   300
147
1.0
148
0.0
149
0.0
100
AcDbLayout
  1
Layout1
 70
     1
 71
     1
 10
0.0
 20
0.0
 11
12.0
 21
9.0
 12
0.0
 22
0.0
 32
0.0
 14
1.000000000000000E+20
 24
1.000000000000000E+20
 34
1.000000000000000E+20
 15
-1.000000000000000E+20
 25
-1.000000000000000E+20
 35
-1.000000000000000E+20
146
0.0
 13
0.0
 23
0.0
 33
0.0
 16
1.0
 26
0.0
 36
0.0
 17
0.0
 27
1.0
 37
0.0
 76
     0
330
1B
  0
LAYOUT
  5
26
102
{ACAD_REACTORS
330
1A
102
}
330
1A
100
AcDbPlotSettings
  1

  2
none_device
  4

  6

 40
0.0
 41
0.0
 42
0.0
 43
0.0
 44
0.0
 45
0.0
 46
0.0
 47
0.0
 48
0.0
 49
0.0
140
0.0
141
0.0
142
1.0
143
1.0
 70
   688
 72
     0
 73
     0
 74
     5
  7

 75
    16
 76
     0
 77
     2
 78
   300
147
1.0
148
0.0
149
0.0
100
AcDbLayout
  1
Layout2
 70
     1
 71
     2
 10
0.0
 20
0.0
 11
0.0
 21
0.0
 12
0.0
 22
0.0
 32
0.0
 14
0.0
 24
0.0
 34
0.0
 15
0.0
 25
0.0
 35
0.0
146
0.0
 13
0.0
 23
0.0
 33
0.0
 16
1.0
 26
0.0
 36
0.0
 17
0.0
 27
1.0
 37
0.0
 76
     0
330
23
  0
LAYOUT
  5
22
102
{ACAD_REACTORS
330
1A
102
}
330
1A
100
AcDbPlotSettings
  1

  2
none_device
  4
Letter_(8.50_x_11.00_Inches)
  6

 40
6.35
 41
6.35
 42
6.35000508
 43
6.35000508
 44
215.9
 45
279.4
 46
0.0
 47
0.0
 48
0.0
 49
0.0
140
0.0
141
0.0
142
1.0
143
1.0
 70
  1712
 72
     0
 73
     0
 74
     0
  7

 75
     0
 76
     0
 77
     2
 78
   300
147
1.0
148
0.0
149
0.0
100
AcDbLayout
  1
Model
 70
     1
 71
     0
 10
0.0
 20
0.0
 11
12.0
 21
9.0
 12
0.0
 22
0.0
 32
0.0
 14
-38.3247
 24
-18.81767
 34
0.0
 15
37.77892
 25
13.52646
 35
0.0
146
0.0
 13
0.0
 23
0.0
 33
0.0
 16
1.0
 26
0.0
 36
0.0
 17
0.0
 27
1.0
 37
0.0
 76
     0
330
1F
331
29
  0
MATERIAL
  5
45
102
{ACAD_REACTORS
330
43
102
}
330
43
100
AcDbMaterial
  1
ByBlock
 72
     1
 94
      127
  0
MATERIAL
  5
44
102
{ACAD_REACTORS
330
43
102
}
330
43
100
AcDbMaterial
  1
ByLayer
 72
     1
 94
      127
  0
MATERIAL
  5
46
102
{ACAD_REACTORS
330
43
102
}
330
43
100
AcDbMaterial
  1
Global
 72
     1
 94
      127
  0
MLEADERSTYLE
  5
5C
102
{ACAD_REACTORS
330
5B
102
}
330
5B
100
AcDbMLeaderStyle
179
     2
170
     2
171
     1
172
     0
 90
        2
 40
0.0
 41
0.0
173
     1
 91
-1056964608
340
14
 92
       -2
290
     1
 42
0.09
291
     1
 43
0.36
  3
Standard
341
0
 44
0.18
300

342
11
174
     1
178
     6
175
     1
176
     0
 93
-1056964608
 45
0.18
292
     0
297
     0
 46
0.18
343
0
 94
-1056964608
 47
1.0
 49
1.0
140
1.0
293
     1
141
0.0
294
     1
177
     0
142
1.0
295
     0
296
     0
143
0.125
271
     0
272
     9
273
     9
298
     0
  0
MLINESTYLE
  5
18
102
{ACAD_REACTORS
330
17
102
}
330
17
100
AcDbMlineStyle
  2
Standard
 70
     0
  3

 62
   256
 51
90.0
 52
90.0
 71
     2
 49
0.5
 62
   256
  6
BYLAYER
 49
-0.5
 62
   256
  6
BYLAYER
  0
ACDBPLACEHOLDER
  5
F
102
{ACAD_REACTORS
330
E
102
}
330
E
  0
SCALE
  5
48
102
{ACAD_REACTORS
330
47
102
}
330
47
100
AcDbScale
 70
     0
300
1:1
140
1.0
141
1.0
290
     1
  0
SCALE
  5
49
102
{ACAD_REACTORS
330
47
102
}
330
47
100
AcDbScale
 70
     0
300
1/128" = 1'-0"
140
0.0078125
141
12.0
290
     0
  0
SCALE
  5
4A
102
{ACAD_REACTORS
330
47
102
}
330
47
100
AcDbScale
 70
     0
300
1/64" = 1'-0"
140
0.015625
141
12.0
290
     0
  0
SCALE
  5
4B
102
{ACAD_REACTORS
330
47
102
}
330
47
100
AcDbScale
 70
     0
300
1/32" = 1'-0"
140
0.03125
141
12.0
290
     0
  0
SCALE
  5
4C
102
{ACAD_REACTORS
330
47
102
}
330
47
100
AcDbScale
 70
     0
300
1/16" = 1'-0"
140
0.0625
141
12.0
290
     0
  0
SCALE
  5
4D
102
{ACAD_REACTORS
330
47
102
}
330
47
100
AcDbScale
 70
     0
300
3/32" = 1'-0"
140
0.09375
141
12.0
290
     0
  0
SCALE
  5
4E
102
{ACAD_REACTORS
330
47
102
}
330
47
100
AcDbScale
 70
     0
300
1/8" = 1'-0"
140
0.125
141
12.0
290
     0
  0
SCALE
  5
4F
102
{ACAD_REACTORS
330
47
102
}
330
47
100
AcDbScale
 70
     0
300
3/16" = 1'-0"
140
0.1875
141
12.0
290
     0
  0
SCALE
  5
50
102
{ACAD_REACTORS
330
47
102
}
330
47
100
AcDbScale
 70
     0
300
1/4" = 1'-0"
140
0.25
141
12.0
290
     0
  0
SCALE
  5
51
102
{ACAD_REACTORS
330
47
102
}
330
47
100
AcDbScale
 70
     0
300
3/8" = 1'-0"
140
0.375
141
12.0
290
     0
  0
SCALE
  5
52
102
{ACAD_REACTORS
330
47
102
}
330
47
100
AcDbScale
 70
     0
300
1/2" = 1'-0"
140
0.5
141
12.0
290
     0
  0
SCALE
  5
53
102
{ACAD_REACTORS
330
47
102
}
330
47
100
AcDbScale
 70
     0
300
3/4" = 1'-0"
140
0.75
141
12.0
290
     0
  0
SCALE
  5
54
102
{ACAD_REACTORS
330
47
102
}
330
47
100
AcDbScale
 70
     0
300
1" = 1'-0"
140
1.0
141
12.0
290
     0
  0
SCALE
  5
55
102
{ACAD_REACTORS
330
47
102
}
330
47
100
AcDbScale
 70
     0
300
1-1/2" = 1'-0"
140
1.5
141
12.0
290
     0
  0
SCALE
  5
56
102
{ACAD_REACTORS
330
47
102
}
330
47
100
AcDbScale
 70
     0
300
3" = 1'-0"
140
3.0
141
12.0
290
     0
  0
SCALE
  5
57
102
{ACAD_REACTORS
330
47
102
}
330
47
100
AcDbScale
 70
     0
300
6" = 1'-0"
140
6.0
141
12.0
290
     0
  0
SCALE
  5
58
102
{ACAD_REACTORS
330
47
102
}
330
47
100
AcDbScale
 70
     0
300
1'-0" = 1'-0"
140
12.0
141
12.0
290
     0
  0
TABLESTYLE
  5
5A
102
{ACAD_REACTORS
330
59
102
}
102
{ACAD_XDICTIONARY
360
C0
102
}
330
59
100
AcDbTableStyle
  3
Standard
 70
     0
 71
     0
 40
0.06
 41
0.06
280
     0
281
     0
  7
Standard
140
0.18
170
     2
 62
     0
 63
   257
283
     0
 90
        4
 91
        0
  1

274
    -2
284
     1
 64
     0
275
    -2
285
     1
 65
     0
276
    -2
286
     1
 66
     0
277
    -2
287
     1
 67
     0
278
    -2
288
     1
 68
     0
279
    -2
289
     1
 69
     0
  7
Standard
140
0.25
170
     5
 62
     0
 63
   257
283
     0
 90
        4
 91
        0
  1

274
    -2
284
     1
 64
     0
275
    -2
285
     1
 65
     0
276
    -2
286
     1
 66
     0
277
    -2
287
     1
 67
     0
278
    -2
288
     1
 68
     0
279
    -2
289
     1
 69
     0
  7
Standard
140
0.18
170
     5
 62
     0
 63
   257
283
     0
 90
        4
 91
        0
  1

274
    -2
284
     1
 64
     0
275
    -2
285
     1
 65
     0
276
    -2
286
     1
 66
     0
277
    -2
287
     1
 67
     0
278
    -2
288
     1
 68
     0
279
    -2
289
     1
 69
     0
  0
VISUALSTYLE
  5
2F
102
{ACAD_REACTORS
330
2A
102
}
330
2A
100
AcDbVisualStyle
  2
2dWireframe
 70
     4
177
     3
291
     0
 70
    58
 90
        0
176
     1
 90
        2
176
     1
 90
        0
176
     1
 90
        0
176
     1
 40
0.6
176
     1
 40
30.0
176
     1
 62
     7
420
 16777215
176
     1
 90
        1
176
     1
 90
        4
176
     1
 62
     7
176
     1
 62
   257
176
     1
 90
        1
176
     1
 90
        1
176
     1
 40
1.0
176
     1
 90
        0
176
     1
 62
   257
176
     1
 40
1.0
176
     1
 90
        1
176
     1
 90
        6
176
     1
 90
        2
176
     1
 62
     7
176
     1
 90
        5
176
     1
 90
        0
176
     1
 90
        0
176
     1
290
     0
176
     1
 90
        1
176
     1
 40
0.0
176
     1
 90
        0
176
     1
290
     1
176
     1
290
     1
176
     1
290
     0
176
     1
290
     0
176
     1
290
     0
176
     1
290
     0
176
     1
290
     0
176
     1
290
     0
176
     1
290
     0
176
     1
 90
       50
176
     1
 40
0.0
176
     1
 40
1.0
176
     1
 90
        0
176
     1
 62
    18
420
        0
176
     1
 90
       50
176
     1
 90
        3
176
     1
 62
     5
420
      255
176
     1
290
     0
176
     1
 90
       50
176
     1
 90
       50
176
     1
 90
       50
176
     1
290
     0
176
     1
 90
       50
176
     1
 62
   256
176
     0
 40
1.0
176
     0
 90
        2
176
     1
  1
strokes_ogs.tif
176
     1
290
     0
176
     1
 40
1.0
176
     1
 40
1.0
176
     1
  0
VISUALSTYLE
  5
32
102
{ACAD_REACTORS
330
2A
102
}
330
2A
100
AcDbVisualStyle
  2
Basic
 70
     7
177
     3
291
     1
 70
    58
 90
        1
176
     1
 90
        0
176
     1
 90
        1
176
     1
 90
        0
176
     1
 40
0.6
176
     1
 40
30.0
176
     1
 62
     7
420
 16777215
176
     1
 90
        0
176
     1
 90
        4
176
     1
 62
     7
176
     1
 62
   257
176
     1
 90
        1
176
     1
 90
        1
176
     1
 40
1.0
176
     1
 90
        8
176
     1
 62
     7
176
     1
 40
1.0
176
     1
 90
        1
176
     1
 90
        6
176
     1
 90
        2
176
     1
 62
     7
176
     1
 90
        5
176
     1
 90
        0
176
     1
 90
        0
176
     1
290
     0
176
     1
 90
        1
176
     1
 40
0.0
176
     1
 90
        0
176
     1
290
     0
176
     1
290
     1
176
     1
290
     1
176
     1
290
     0
176
     1
290
     0
176
     1
290
     0
176
     1
290
     0
176
     1
290
     0
176
     1
290
     0
176
     1
 90
       50
176
     1
 40
0.0
176
     1
 40
1.0
176
     1
 90
        0
176
     1
 62
    18
420
        0
176
     1
 90
       50
176
     1
 90
        3
176
     1
 62
     5
420
      255
176
     1
290
     0
176
     1
 90
       50
176
     1
 90
       50
176
     1
 90
       50
176
     1
290
     0
176
     1
 90
       50
176
     1
 62
   256
176
     0
 40
1.0
176
     0
 90
        2
176
     1
  1
strokes_ogs.tif
176
     1
290
     0
176
     1
 40
1.0
176
     1
 40
1.0
176
     1
  0
VISUALSTYLE
  5
36
102
{ACAD_REACTORS
330
2A
102
}
330
2A
100
AcDbVisualStyle
  2
Brighten
 70
    12
177
     3
291
     1
 70
    58
 90
        2
176
     1
 90
        2
176
     1
 90
        0
176
     1
 90
        0
176
     1
 40
0.6
176
     1
 40
30.0
176
     1
 62
     7
420
 16777215
176
     1
 90
        1
176
     1
 90
        4
176
     1
 62
     7
176
     1
 62
   257
176
     1
 90
        1
176
     1
 90
        1
176
     1
 40
1.0
176
     1
 90
        8
176
     1
 62
     7
176
     1
 40
1.0
176
     1
 90
        1
176
     1
 90
        6
176
     1
 90
        2
176
     1
 62
     7
176
     1
 90
        5
176
     1
 90
        0
176
     1
 90
        0
176
     1
290
     0
176
     1
 90
        1
176
     1
 40
50.0
176
     1
 90
        0
176
     1
290
     0
176
     1
290
     1
176
     1
290
     1
176
     1
290
     0
176
     1
290
     0
176
     1
290
     0
176
     1
290
     0
176
     1
290
     0
176
     1
290
     0
176
     1
 90
       50
176
     1
 40
0.0
176
     1
 40
1.0
176
     1
 90
        0
176
     1
 62
    18
420
        0
176
     1
 90
       50
176
     1
 90
        3
176
     1
 62
     5
420
      255
176
     1
290
     0
176
     1
 90
       50
176
     1
 90
       50
176
     1
 90
       50
176
     1
290
     0
176
     1
 90
       50
176
     1
 62
   256
176
     0
 40
1.0
176
     0
 90
        2
176
     1
  1
strokes_ogs.tif
176
     1
290
     0
176
     1
 40
1.0
176
     1
 40
1.0
176
     1
  0
VISUALSTYLE
  5
3A
102
{ACAD_REACTORS
330
2A
102
}
330
2A
100
AcDbVisualStyle
  2
ColorChange
 70
    16
177
     3
291
     1
 70
    58
 90
        2
176
     1
 90
        2
176
     1
 90
        3
176
     1
 90
        0
176
     1
 40
0.6
176
     1
 40
30.0
176
     1
 62
     8
420
  8421504
176
     1
 90
        1
176
     1
 90
        4
176
     1
 62
     7
176
     1
 62
   257
176
     1
 90
        1
176
     1
 90
        1
176
     1
 40
1.0
176
     1
 90
        8
176
     1
 62
     8
420
  8421504
176
     1
 40
1.0
176
     1
 90
        1
176
     1
 90
        6
176
     1
 90
        2
176
     1
 62
     7
176
     1
 90
        5
176
     1
 90
        0
176
     1
 90
        0
176
     1
290
     0
176
     1
 90
        1
176
     1
 40
0.0
176
     1
 90
        0
176
     1
290
     0
176
     1
290
     1
176
     1
290
     1
176
     1
290
     0
176
     1
290
     0
176
     1
290
     0
176
     1
290
     0
176
     1
290
     0
176
     1
290
     0
176
     1
 90
       50
176
     1
 40
0.0
176
     1
 40
1.0
176
     1
 90
        0
176
     1
 62
    18
420
        0
176
     1
 90
       50
176
     1
 90
        3
176
     1
 62
     5
420
      255
176
     1
290
     0
176
     1
 90
       50
176
     1
 90
       50
176
     1
 90
       50
176
     1
290
     0
176
     1
 90
       50
176
     1
 62
   256
176
     0
 40
1.0
176
     0
 90
        2
176
     1
  1
strokes_ogs.tif
176
     1
290
     0
176
     1
 40
1.0
176
     1
 40
1.0
176
     1
  0
VISUALSTYLE
  5
34
102
{ACAD_REACTORS
330
2A
102
}
330
2A
100
AcDbVisualStyle
  2
Conceptual
 70
     9
177
     3
291
     0
 70
    58
 90
        3
176
     1
 90
        2
176
     1
 90
        0
176
     1
 90
        0
176
     1
 40
0.6
176
     1
 40
30.0
176
     1
 62
     7
420
 16777215
176
     1
 90
        2
176
     1
 90
        2
176
     1
 62
     7
176
     1
 62
   257
176
     1
 90
        1
176
     1
 90
        1
176
     1
 40
179.0
176
     1
 90
        8
176
     1
 62
     7
176
     1
 40
1.0
176
     1
 90
        1
176
     1
 90
        6
176
     1
 90
        2
176
     1
 62
     7
176
     1
 90
        3
176
     1
 90
        0
176
     1
 90
        0
176
     1
290
     0
176
     1
 90
        1
176
     1
 40
0.0
176
     1
 90
        0
176
     1
290
     0
176
     1
290
     1
176
     1
290
     1
176
     1
290
     0
176
     1
290
     0
176
     1
290
     0
176
     1
290
     0
176
     1
290
     0
176
     1
290
     0
176
     1
 90
       50
176
     1
 40
0.0
176
     1
 40
1.0
176
     1
 90
        0
176
     1
 62
    18
420
        0
176
     1
 90
       50
176
     1
 90
        3
176
     1
 62
     5
420
      255
176
     1
290
     0
176
     1
 90
       50
176
     1
 90
       50
176
     1
 90
       50
176
     1
290
     0
176
     1
 90
       50
176
     1
 62
   256
176
     0
 40
1.0
176
     0
 90
        2
176
     1
  1
strokes_ogs.tif
176
     1
290
     0
176
     1
 40
1.0
176
     1
 40
1.0
176
     1
  0
VISUALSTYLE
  5
35
102
{ACAD_REACTORS
330
2A
102
}
330
2A
100
AcDbVisualStyle
  2
Dim
 70
    11
177
     3
291
     1
 70
    58
 90
        2
176
     1
 90
        2
176
     1
 90
        0
176
     1
 90
        0
176
     1
 40
0.6
176
     1
 40
30.0
176
     1
 62
     7
420
 16777215
176
     1
 90
        1
176
     1
 90
        4
176
     1
 62
     7
176
     1
 62
   257
176
     1
 90
        1
176
     1
 90
        1
176
     1
 40
1.0
176
     1
 90
        8
176
     1
 62
     7
176
     1
 40
1.0
176
     1
 90
        1
176
     1
 90
        6
176
     1
 90
        2
176
     1
 62
     7
176
     1
 90
        5
176
     1
 90
        0
176
     1
 90
        0
176
     1
290
     0
176
     1
 90
        1
176
     1
 40
-50.0
176
     1
 90
        0
176
     1
290
     0
176
     1
290
     1
176
     1
290
     1
176
     1
290
     0
176
     1
290
     0
176
     1
290
     0
176
     1
290
     0
176
     1
290
     0
176
     1
290
     0
176
     1
 90
       50
176
     1
 40
0.0
176
     1
 40
1.0
176
     1
 90
        0
176
     1
 62
    18
420
        0
176
     1
 90
       50
176
     1
 90
        3
176
     1
 62
     5
420
      255
176
     1
290
     0
176
     1
 90
       50
176
     1
 90
       50
176
     1
 90
       50
176
     1
290
     0
176
     1
 90
       50
176
     1
 62
   256
176
     0
 40
1.0
176
     0
 90
        2
176
     1
  1
strokes_ogs.tif
176
     1
290
     0
176
     1
 40
1.0
176
     1
 40
1.0
176
     1
  0
VISUALSTYLE
  5
3D
102
{ACAD_REACTORS
330
2A
102
}
330
2A
100
AcDbVisualStyle
  2
EdgeColorOff
 70
    22
177
     3
291
     1
 70
    58
 90
        2
176
     0
 90
        2
176
     0
 90
        0
176
     0
 90
        0
176
     0
 40
0.6
176
     0
 40
30.0
176
     0
 62
     7
420
 16777215
176
     0
 90
        1
176
     0
 90
        4
176
     0
 62
     7
176
     0
 62
   257
176
     0
 90
        1
176
     0
 90
        1
176
     0
 40
1.0
176
     0
 90
        8
176
     2
 62
     7
176
     0
 40
1.0
176
     0
 90
        1
176
     0
 90
        6
176
     0
 90
        2
176
     0
 62
     7
176
     0
 90
        5
176
     0
 90
        0
176
     0
 90
        0
176
     0
290
     0
176
     0
 90
        1
176
     0
 40
0.0
176
     0
 90
        0
176
     0
290
     0
176
     0
290
     1
176
     0
290
     1
176
     0
290
     0
176
     0
290
     0
176
     0
290
     0
176
     0
290
     0
176
     0
290
     0
176
     0
290
     0
176
     0
 90
       50
176
     0
 40
0.0
176
     0
 40
1.0
176
     0
 90
        0
176
     0
 62
    18
420
        0
176
     0
 90
       50
176
     0
 90
        3
176
     0
 62
     5
420
      255
176
     0
290
     0
176
     0
 90
       50
176
     0
 90
       50
176
     0
 90
       50
176
     0
290
     0
176
     0
 90
       50
176
     0
 62
   256
176
     0
 40
1.0
176
     0
 90
        2
176
     0
  1
strokes_ogs.tif
176
     0
290
     0
176
     0
 40
1.0
176
     0
 40
1.0
176
     0
  0
VISUALSTYLE
  5
39
102
{ACAD_REACTORS
330
2A
102
}
330
2A
100
AcDbVisualStyle
  2
Facepattern
 70
    15
177
     3
291
     1
 70
    58
 90
        2
176
     1
 90
        2
176
     1
 90
        0
176
     1
 90
        0
176
     1
 40
0.6
176
     1
 40
30.0
176
     1
 62
     7
420
 16777215
176
     1
 90
        1
176
     1
 90
        4
176
     1
 62
     7
176
     1
 62
   257
176
     1
 90
        1
176
     1
 90
        1
176
     1
 40
1.0
176
     1
 90
        8
176
     1
 62
     7
176
     1
 40
1.0
176
     1
 90
        1
176
     1
 90
        6
176
     1
 90
        2
176
     1
 62
     7
176
     1
 90
        5
176
     1
 90
        0
176
     1
 90
        0
176
     1
290
     0
176
     1
 90
        1
176
     1
 40
0.0
176
     1
 90
        0
176
     1
290
     0
176
     1
290
     1
176
     1
290
     1
176
     1
290
     0
176
     1
290
     0
176
     1
290
     0
176
     1
290
     0
176
     1
290
     0
176
     1
290
     0
176
     1
 90
       50
176
     1
 40
0.0
176
     1
 40
1.0
176
     1
 90
        0
176
     1
 62
    18
420
        0
176
     1
 90
       50
176
     1
 90
        3
176
     1
 62
     5
420
      255
176
     1
290
     0
176
     1
 90
       50
176
     1
 90
       50
176
     1
 90
       50
176
     1
290
     0
176
     1
 90
       50
176
     1
 62
   256
176
     0
 40
1.0
176
     0
 90
        2
176
     1
  1
strokes_ogs.tif
176
     1
290
     0
176
     1
 40
1.0
176
     1
 40
1.0
176
     1
  0
VISUALSTYLE
  5
2B
102
{ACAD_REACTORS
330
2A
102
}
330
2A
100
AcDbVisualStyle
  2
Flat
 70
     0
177
     3
291
     1
 70
    58
 90
        2
176
     1
 90
        1
176
     1
 90
        1
176
     1
 90
        2
176
     1
 40
0.6
176
     1
 40
30.0
176
     1
 62
     7
420
 16777215
176
     1
 90
        0
176
     1
 90
        0
176
     1
 62
     7
176
     1
 62
   257
176
     1
 90
        1
176
     1
 90
        1
176
     1
 40
1.0
176
     1
 90
        8
176
     1
 62
     7
176
     1
 40
1.0
176
     1
 90
        1
176
     1
 90
        6
176
     1
 90
        2
176
     1
 62
     7
176
     1
 90
        5
176
     1
 90
        0
176
     1
 90
        0
176
     1
290
     0
176
     1
 90
       13
176
     1
 40
0.0
176
     1
 90
        0
176
     1
290
     0
176
     1
290
     1
176
     1
290
     1
176
     1
290
     0
176
     1
290
     0
176
     1
290
     0
176
     1
290
     0
176
     1
290
     0
176
     1
290
     0
176
     1
 90
       50
176
     1
 40
0.0
176
     1
 40
1.0
176
     1
 90
        0
176
     1
 62
    18
420
        0
176
     1
 90
       50
176
     1
 90
        3
176
     1
 62
     5
420
      255
176
     1
290
     0
176
     1
 90
       50
176
     1
 90
       50
176
     1
 90
       50
176
     1
290
     0
176
     1
 90
       50
176
     1
 62
   256
176
     0
 40
1.0
176
     0
 90
        2
176
     1
  1
strokes_ogs.tif
176
     1
290
     0
176
     1
 40
1.0
176
     1
 40
1.0
176
     1
  0
VISUALSTYLE
  5
2C
102
{ACAD_REACTORS
330
2A
102
}
330
2A
100
AcDbVisualStyle
  2
FlatWithEdges
 70
     1
177
     3
291
     1
 70
    58
 90
        2
176
     1
 90
        1
176
     1
 90
        1
176
     1
 90
        2
176
     1
 40
0.6
176
     1
 40
30.0
176
     1
 62
     7
420
 16777215
176
     1
 90
        1
176
     1
 90
        0
176
     1
 62
     7
176
     1
 62
   257
176
     1
 90
        1
176
     1
 90
        1
176
     1
 40
1.0
176
     1
 90
        0
176
     1
 62
   257
176
     1
 40
1.0
176
     1
 90
        1
176
     1
 90
        6
176
     1
 90
        2
176
     1
 62
     7
176
     1
 90
        5
176
     1
 90
        0
176
     1
 90
        0
176
     1
290
     0
176
     1
 90
       13
176
     1
 40
0.0
176
     1
 90
        0
176
     1
290
     0
176
     1
290
     1
176
     1
290
     1
176
     1
290
     0
176
     1
290
     0
176
     1
290
     0
176
     1
290
     0
176
     1
290
     0
176
     1
290
     0
176
     1
 90
       50
176
     1
 40
0.0
176
     1
 40
1.0
176
     1
 90
        0
176
     1
 62
    18
420
        0
176
     1
 90
       50
176
     1
 90
        3
176
     1
 62
     5
420
      255
176
     1
290
     0
176
     1
 90
       50
176
     1
 90
       50
176
     1
 90
       50
176
     1
290
     0
176
     1
 90
       50
176
     1
 62
   256
176
     0
 40
1.0
176
     0
 90
        2
176
     1
  1
strokes_ogs.tif
176
     1
290
     0
176
     1
 40
1.0
176
     1
 40
1.0
176
     1
  0
VISUALSTYLE
  5
2D
102
{ACAD_REACTORS
330
2A
102
}
330
2A
100
AcDbVisualStyle
  2
Gouraud
 70
     2
177
     3
291
     1
 70
    58
 90
        2
176
     1
 90
        2
176
     1
 90
        1
176
     1
 90
        2
176
     1
 40
0.6
176
     1
 40
30.0
176
     1
 62
     7
420
 16777215
176
     1
 90
        0
176
     1
 90
        0
176
     1
 62
     7
176
     1
 62
   257
176
     1
 90
        1
176
     1
 90
        1
176
     1
 40
1.0
176
     1
 90
        0
176
     1
 62
     7
176
     1
 40
1.0
176
     1
 90
        1
176
     1
 90
        6
176
     1
 90
        2
176
     1
 62
     7
176
     1
 90
        5
176
     1
 90
        0
176
     1
 90
        0
176
     1
290
     0
176
     1
 90
       13
176
     1
 40
0.0
176
     1
 90
        0
176
     1
290
     0
176
     1
290
     1
176
     1
290
     1
176
     1
290
     0
176
     1
290
     0
176
     1
290
     0
176
     1
290
     0
176
     1
290
     0
176
     1
290
     0
176
     1
 90
       50
176
     1
 40
0.0
176
     1
 40
1.0
176
     1
 90
        0
176
     1
 62
    18
420
        0
176
     1
 90
       50
176
     1
 90
        3
176
     1
 62
     5
420
      255
176
     1
290
     0
176
     1
 90
       50
176
     1
 90
       50
176
     1
 90
       50
176
     1
290
     0
176
     1
 90
       50
176
     1
 62
   256
176
     0
 40
1.0
176
     0
 90
        2
176
     1
  1
strokes_ogs.tif
176
     1
290
     0
176
     1
 40
1.0
176
     1
 40
1.0
176
     1
  0
VISUALSTYLE
  5
2E
102
{ACAD_REACTORS
330
2A
102
}
330
2A
100
AcDbVisualStyle
  2
GouraudWithEdges
 70
     3
177
     3
291
     1
 70
    58
 90
        2
176
     1
 90
        2
176
     1
 90
        1
176
     1
 90
        2
176
     1
 40
0.6
176
     1
 40
30.0
176
     1
 62
     7
420
 16777215
176
     1
 90
        1
176
     1
 90
        0
176
     1
 62
     7
176
     1
 62
   257
176
     1
 90
        1
176
     1
 90
        1
176
     1
 40
1.0
176
     1
 90
        0
176
     1
 62
   257
176
     1
 40
1.0
176
     1
 90
        1
176
     1
 90
        6
176
     1
 90
        2
176
     1
 62
     7
176
     1
 90
        5
176
     1
 90
        0
176
     1
 90
        0
176
     1
290
     0
176
     1
 90
       13
176
     1
 40
0.0
176
     1
 90
        0
176
     1
290
     0
176
     1
290
     1
176
     1
290
     1
176
     1
290
     0
176
     1
290
     0
176
     1
290
     0
176
     1
290
     0
176
     1
290
     0
176
     1
290
     0
176
     1
 90
       50
176
     1
 40
0.0
176
     1
 40
1.0
176
     1
 90
        0
176
     1
 62
    18
420
        0
176
     1
 90
       50
176
     1
 90
        3
176
     1
 62
     5
420
      255
176
     1
290
     0
176
     1
 90
       50
176
     1
 90
       50
176
     1
 90
       50
176
     1
290
     0
176
     1
 90
       50
176
     1
 62
   256
176
     0
 40
1.0
176
     0
 90
        2
176
     1
  1
strokes_ogs.tif
176
     1
290
     0
176
     1
 40
1.0
176
     1
 40
1.0
176
     1
  0
VISUALSTYLE
  5
31
102
{ACAD_REACTORS
330
2A
102
}
330
2A
100
AcDbVisualStyle
  2
Hidden
 70
     6
177
     3
291
     0
 70
    58
 90
        1
176
     1
 90
        2
176
     1
 90
        2
176
     1
 90
        0
176
     1
 40
0.6
176
     1
 40
30.0
176
     1
 62
     7
420
 16777215
176
     1
 90
        2
176
     1
 90
        2
176
     1
 62
     7
176
     1
 62
   257
176
     1
 90
        2
176
     1
 90
        1
176
     1
 40
40.0
176
     1
 90
        0
176
     1
 62
   257
176
     1
 40
1.0
176
     1
 90
        1
176
     1
 90
        6
176
     1
 90
        2
176
     1
 62
     7
176
     1
 90
        3
176
     1
 90
        0
176
     1
 90
        0
176
     1
290
     0
176
     1
 90
        1
176
     1
 40
0.0
176
     1
 90
        0
176
     1
290
     0
176
     1
290
     1
176
     1
290
     1
176
     1
290
     0
176
     1
290
     0
176
     1
290
     0
176
     1
290
     0
176
     1
290
     0
176
     1
290
     0
176
     1
 90
       50
176
     1
 40
0.0
176
     1
 40
1.0
176
     1
 90
        0
176
     1
 62
    18
420
        0
176
     1
 90
       50
176
     1
 90
        3
176
     1
 62
     5
420
      255
176
     1
290
     0
176
     1
 90
       50
176
     1
 90
       50
176
     1
 90
       50
176
     1
290
     0
176
     1
 90
       50
176
     1
 62
   256
176
     0
 40
1.0
176
     0
 90
        2
176
     1
  1
strokes_ogs.tif
176
     1
290
     0
176
     1
 40
1.0
176
     1
 40
1.0
176
     1
  0
VISUALSTYLE
  5
3B
102
{ACAD_REACTORS
330
2A
102
}
330
2A
100
AcDbVisualStyle
  2
JitterOff
 70
    20
177
     3
291
     1
 70
    58
 90
        2
176
     0
 90
        2
176
     0
 90
        0
176
     0
 90
        0
176
     0
 40
0.6
176
     0
 40
30.0
176
     0
 62
     7
420
 16777215
176
     0
 90
        1
176
     0
 90
        4
176
     0
 62
     7
176
     0
 62
   257
176
     0
 90
        1
176
     0
 90
        1
176
     0
 40
1.0
176
     0
 90
       10
176
     2
 62
     7
176
     0
 40
1.0
176
     0
 90
        1
176
     0
 90
        6
176
     0
 90
        2
176
     0
 62
     7
176
     0
 90
        5
176
     0
 90
        0
176
     0
 90
        0
176
     0
290
     0
176
     0
 90
        1
176
     0
 40
0.0
176
     0
 90
        0
176
     0
290
     0
176
     0
290
     1
176
     0
290
     1
176
     0
290
     0
176
     0
290
     0
176
     0
290
     0
176
     0
290
     0
176
     0
290
     0
176
     0
290
     0
176
     0
 90
       50
176
     0
 40
0.0
176
     0
 40
1.0
176
     0
 90
        0
176
     0
 62
    18
420
        0
176
     0
 90
       50
176
     0
 90
        3
176
     0
 62
     5
420
      255
176
     0
290
     0
176
     0
 90
       50
176
     0
 90
       50
176
     0
 90
       50
176
     0
290
     0
176
     0
 90
       50
176
     0
 62
   256
176
     0
 40
1.0
176
     0
 90
        2
176
     0
  1
strokes_ogs.tif
176
     0
290
     0
176
     0
 40
1.0
176
     0
 40
1.0
176
     0
  0
VISUALSTYLE
  5
38
102
{ACAD_REACTORS
330
2A
102
}
330
2A
100
AcDbVisualStyle
  2
Linepattern
 70
    14
177
     3
291
     1
 70
    58
 90
        2
176
     1
 90
        2
176
     1
 90
        0
176
     1
 90
        0
176
     1
 40
0.6
176
     1
 40
30.0
176
     1
 62
     7
420
 16777215
176
     1
 90
        1
176
     1
 90
        4
176
     1
 62
     7
176
     1
 62
   257
176
     1
 90
        7
176
     1
 90
        7
176
     1
 40
1.0
176
     1
 90
        8
176
     1
 62
     7
176
     1
 40
1.0
176
     1
 90
        1
176
     1
 90
        6
176
     1
 90
        2
176
     1
 62
     7
176
     1
 90
        5
176
     1
 90
        0
176
     1
 90
        0
176
     1
290
     0
176
     1
 90
        1
176
     1
 40
0.0
176
     1
 90
        0
176
     1
290
     0
176
     1
290
     1
176
     1
290
     1
176
     1
290
     0
176
     1
290
     0
176
     1
290
     0
176
     1
290
     0
176
     1
290
     0
176
     1
290
     0
176
     1
 90
       50
176
     1
 40
0.0
176
     1
 40
1.0
176
     1
 90
        0
176
     1
 62
    18
420
        0
176
     1
 90
       50
176
     1
 90
        3
176
     1
 62
     5
420
      255
176
     1
290
     0
176
     1
 90
       50
176
     1
 90
       50
176
     1
 90
       50
176
     1
290
     0
176
     1
 90
       50
176
     1
 62
   256
176
     0
 40
1.0
176
     0
 90
        2
176
     1
  1
strokes_ogs.tif
176
     1
290
     0
176
     1
 40
1.0
176
     1
 40
1.0
176
     1
  0
VISUALSTYLE
  5
3C
102
{ACAD_REACTORS
330
2A
102
}
330
2A
100
AcDbVisualStyle
  2
OverhangOff
 70
    21
177
     3
291
     1
 70
    58
 90
        2
176
     0
 90
        2
176
     0
 90
        0
176
     0
 90
        0
176
     0
 40
0.6
176
     0
 40
30.0
176
     0
 62
     7
420
 16777215
176
     0
 90
        1
176
     0
 90
        4
176
     0
 62
     7
176
     0
 62
   257
176
     0
 90
        1
176
     0
 90
        1
176
     0
 40
1.0
176
     0
 90
        9
176
     2
 62
     7
176
     0
 40
1.0
176
     0
 90
        1
176
     0
 90
        6
176
     0
 90
        2
176
     0
 62
     7
176
     0
 90
        5
176
     0
 90
        0
176
     0
 90
        0
176
     0
290
     0
176
     0
 90
        1
176
     0
 40
0.0
176
     0
 90
        0
176
     0
290
     0
176
     0
290
     1
176
     0
290
     1
176
     0
290
     0
176
     0
290
     0
176
     0
290
     0
176
     0
290
     0
176
     0
290
     0
176
     0
290
     0
176
     0
 90
       50
176
     0
 40
0.0
176
     0
 40
1.0
176
     0
 90
        0
176
     0
 62
    18
420
        0
176
     0
 90
       50
176
     0
 90
        3
176
     0
 62
     5
420
      255
176
     0
290
     0
176
     0
 90
       50
176
     0
 90
       50
176
     0
 90
       50
176
     0
290
     0
176
     0
 90
       50
176
     0
 62
   256
176
     0
 40
1.0
176
     0
 90
        2
176
     0
  1
strokes_ogs.tif
176
     0
290
     0
176
     0
 40
1.0
176
     0
 40
1.0
176
     0
  0
VISUALSTYLE
  5
33
102
{ACAD_REACTORS
330
2A
102
}
330
2A
100
AcDbVisualStyle
  2
Realistic
 70
     8
177
     3
291
     0
 70
    58
 90
        2
176
     1
 90
        3
176
     1
 90
        0
176
     1
 90
        2
176
     1
 40
0.6
176
     1
 40
30.0
176
     1
 62
     7
420
 16777215
176
     1
 90
        0
176
     1
 90
        0
176
     1
 62
     7
176
     1
 62
   257
176
     1
 90
        1
176
     1
 90
        1
176
     1
 40
1.0
176
     1
 90
        8
176
     1
 62
   257
176
     1
 40
1.0
176
     1
 90
        1
176
     1
 90
        6
176
     1
 90
        2
176
     1
 62
     7
176
     1
 90
        3
176
     1
 90
        0
176
     1
 90
        0
176
     1
290
     0
176
     1
 90
       13
176
     1
 40
0.0
176
     1
 90
        0
176
     1
290
     0
176
     1
290
     1
176
     1
290
     1
176
     1
290
     0
176
     1
290
     0
176
     1
290
     0
176
     1
290
     0
176
     1
290
     0
176
     1
290
     0
176
     1
 90
       50
176
     1
 40
0.0
176
     1
 40
1.0
176
     1
 90
        0
176
     1
 62
    18
420
        0
176
     1
 90
       50
176
     1
 90
        3
176
     1
 62
     5
420
      255
176
     1
290
     0
176
     1
 90
       50
176
     1
 90
       50
176
     1
 90
       50
176
     1
290
     0
176
     1
 90
       50
176
     1
 62
   256
176
     0
 40
1.0
176
     0
 90
        2
176
     1
  1
strokes_ogs.tif
176
     1
290
     0
176
     1
 40
1.0
176
     1
 40
1.0
176
     1
  0
VISUALSTYLE
  5
42
102
{ACAD_REACTORS
330
2A
102
}
330
2A
100
AcDbVisualStyle
  2
Shaded
 70
    27
177
     3
291
     0
 70
    58
 90
        2
176
     1
 90
        2
176
     1
 90
        1
176
     1
 90
        2
176
     1
 40
0.6
176
     1
 40
30.0
176
     1
 62
     7
420
 16777215
176
     1
 90
        0
176
     1
 90
        4
176
     1
 62
     7
176
     1
 62
   257
176
     1
 90
        1
176
     1
 90
        1
176
     1
 40
1.0
176
     1
 90
        8
176
     1
 62
   257
176
     1
 40
1.0
176
     1
 90
        1
176
     1
 90
        6
176
     1
 90
        2
176
     1
 62
     8
420
  7895160
176
     1
 90
        3
176
     1
 90
        0
176
     1
 90
        0
176
     1
290
     0
176
     1
 90
        5
176
     1
 40
0.0
176
     1
 90
        0
176
     1
290
     0
176
     1
290
     1
176
     1
290
     1
176
     1
290
     0
176
     1
290
     0
176
     1
290
     0
176
     1
290
     0
176
     1
290
     0
176
     1
290
     0
176
     1
 90
       50
176
     1
 40
0.0
176
     1
 40
1.0
176
     1
 90
        0
176
     1
 62
    18
420
        0
176
     1
 90
       50
176
     1
 90
        3
176
     1
 62
     5
420
      255
176
     1
290
     0
176
     1
 90
       50
176
     1
 90
       50
176
     1
 90
       50
176
     1
290
     0
176
     1
 90
       50
176
     1
 62
   256
176
     0
 40
1.0
176
     0
 90
        2
176
     1
  1
strokes_ogs.tif
176
     1
290
     0
176
     1
 40
1.0
176
     1
 40
1.0
176
     1
  0
VISUALSTYLE
  5
41
102
{ACAD_REACTORS
330
2A
102
}
330
2A
100
AcDbVisualStyle
  2
Shaded with edges
 70
    26
177
     3
291
     0
 70
    58
 90
        2
176
     1
 90
        2
176
     1
 90
        1
176
     1
 90
        2
176
     1
 40
0.6
176
     1
 40
30.0
176
     1
 62
     7
420
 16777215
176
     1
 90
        1
176
     1
 90
       10
176
     1
 62
     7
176
     1
 62
   257
176
     1
 90
        2
176
     1
 90
        1
176
     1
 40
1.0
176
     1
 90
        8
176
     1
 62
   257
176
     1
 40
1.0
176
     1
 90
        1
176
     1
 90
        6
176
     1
 90
        2
176
     1
 62
     7
176
     1
 90
        3
176
     1
 90
        0
176
     1
 90
        0
176
     1
290
     0
176
     1
 90
        5
176
     1
 40
0.0
176
     1
 90
        0
176
     1
290
     0
176
     1
290
     1
176
     1
290
     1
176
     1
290
     0
176
     1
290
     0
176
     1
290
     0
176
     1
290
     0
176
     1
290
     0
176
     1
290
     0
176
     1
 90
       50
176
     1
 40
0.0
176
     1
 40
1.0
176
     1
 90
        0
176
     1
 62
    18
420
        0
176
     1
 90
       50
176
     1
 90
        3
176
     1
 62
     5
420
      255
176
     1
290
     0
176
     1
 90
       50
176
     1
 90
       50
176
     1
 90
       50
176
     1
290
     0
176
     1
 90
       50
176
     1
 62
   256
176
     0
 40
1.0
176
     0
 90
        2
176
     1
  1
strokes_ogs.tif
176
     1
290
     0
176
     1
 40
1.0
176
     1
 40
1.0
176
     1
  0
VISUALSTYLE
  5
3E
102
{ACAD_REACTORS
330
2A
102
}
330
2A
100
AcDbVisualStyle
  2
Shades of Gray
 70
    23
177
     3
291
     0
 70
    58
 90
        2
176
     1
 90
        2
176
     1
 90
        3
176
     1
 90
        0
176
     1
 40
0.6
176
     1
 40
30.0
176
     1
 62
     7
420
 16777215
176
     1
 90
        2
176
     1
 90
        2
176
     1
 62
     7
176
     1
 62
     7
176
     1
 90
        1
176
     1
 90
        1
176
     1
 40
40.0
176
     1
 90
        8
176
     1
 62
     7
176
     1
 40
1.0
176
     1
 90
        1
176
     1
 90
        6
176
     1
 90
        2
176
     1
 62
     7
176
     1
 90
        3
176
     1
 90
        0
176
     1
 90
        0
176
     1
290
     0
176
     1
 90
        1
176
     1
 40
0.0
176
     1
 90
        0
176
     1
290
     0
176
     1
290
     1
176
     1
290
     1
176
     1
290
     0
176
     1
290
     0
176
     1
290
     0
176
     1
290
     0
176
     1
290
     0
176
     1
290
     0
176
     1
 90
       50
176
     1
 40
0.0
176
     1
 40
1.0
176
     1
 90
        0
176
     1
 62
    18
420
        0
176
     1
 90
       50
176
     1
 90
        3
176
     1
 62
     5
420
      255
176
     1
290
     0
176
     1
 90
       50
176
     1
 90
       50
176
     1
 90
       50
176
     1
290
     0
176
     1
 90
       50
176
     1
 62
   256
176
     0
 40
1.0
176
     0
 90
        2
176
     1
  1
strokes_ogs.tif
176
     1
290
     0
176
     1
 40
1.0
176
     1
 40
1.0
176
     1
  0
VISUALSTYLE
  5
3F
102
{ACAD_REACTORS
330
2A
102
}
330
2A
100
AcDbVisualStyle
  2
Sketchy
 70
    24
177
     3
291
     0
 70
    58
 90
        1
176
     1
 90
        2
176
     1
 90
        2
176
     1
 90
        0
176
     1
 40
0.6
176
     1
 40
30.0
176
     1
 62
     7
420
 16777215
176
     1
 90
        2
176
     1
 90
        2
176
     1
 62
     7
176
     1
 62
     7
176
     1
 90
        1
176
     1
 90
        1
176
     1
 40
40.0
176
     1
 90
       11
176
     1
 62
     7
176
     1
 40
1.0
176
     1
 90
        1
176
     1
 90
        6
176
     1
 90
        2
176
     1
 62
     7
176
     1
 90
        6
176
     1
 90
        0
176
     1
 90
        0
176
     1
290
     0
176
     1
 90
        1
176
     1
 40
0.0
176
     1
 90
        0
176
     1
290
     0
176
     1
290
     1
176
     1
290
     1
176
     1
290
     0
176
     1
290
     0
176
     1
290
     0
176
     1
290
     0
176
     1
290
     0
176
     1
290
     0
176
     1
 90
       50
176
     1
 40
0.0
176
     1
 40
1.0
176
     1
 90
        0
176
     1
 62
    18
420
        0
176
     1
 90
       50
176
     1
 90
        3
176
     1
 62
     5
420
      255
176
     1
290
     0
176
     1
 90
       50
176
     1
 90
       50
176
     1
 90
       50
176
     1
290
     0
176
     1
 90
       50
176
     1
 62
   256
176
     0
 40
1.0
176
     0
 90
        2
176
     1
  1
strokes_ogs.tif
176
     1
290
     0
176
     1
 40
1.0
176
     1
 40
1.0
176
     1
  0
VISUALSTYLE
  5
37
102
{ACAD_REACTORS
330
2A
102
}
330
2A
100
AcDbVisualStyle
  2
Thicken
 70
    13
177
     3
291
     1
 70
    58
 90
        2
176
     1
 90
        2
176
     1
 90
        0
176
     1
 90
        0
176
     1
 40
0.6
176
     1
 40
30.0
176
     1
 62
     7
420
 16777215
176
     1
 90
        1
176
     1
 90
        4
176
     1
 62
     7
176
     1
 62
   257
176
     1
 90
        1
176
     1
 90
        1
176
     1
 40
1.0
176
     1
 90
       12
176
     1
 62
     7
176
     1
 40
1.0
176
     1
 90
        1
176
     1
 90
        6
176
     1
 90
        2
176
     1
 62
     7
176
     1
 90
        5
176
     1
 90
        0
176
     1
 90
        0
176
     1
290
     0
176
     1
 90
        1
176
     1
 40
0.0
176
     1
 90
        0
176
     1
290
     0
176
     1
290
     1
176
     1
290
     1
176
     1
290
     0
176
     1
290
     0
176
     1
290
     0
176
     1
290
     0
176
     1
290
     0
176
     1
290
     0
176
     1
 90
       50
176
     1
 40
0.0
176
     1
 40
1.0
176
     1
 90
        0
176
     1
 62
    18
420
        0
176
     1
 90
       50
176
     1
 90
        3
176
     1
 62
     5
420
      255
176
     1
290
     0
176
     1
 90
       50
176
     1
 90
       50
176
     1
 90
       50
176
     1
290
     0
176
     1
 90
       50
176
     1
 62
   256
176
     0
 40
1.0
176
     0
 90
        2
176
     1
  1
strokes_ogs.tif
176
     1
290
     0
176
     1
 40
1.0
176
     1
 40
1.0
176
     1
  0
VISUALSTYLE
  5
30
102
{ACAD_REACTORS
330
2A
102
}
330
2A
100
AcDbVisualStyle
  2
Wireframe
 70
     5
177
     3
291
     0
 70
    58
 90
        0
176
     1
 90
        2
176
     1
 90
        0
176
     1
 90
        0
176
     1
 40
0.6
176
     1
 40
30.0
176
     1
 62
     7
420
 16777215
176
     1
 90
        1
176
     1
 90
        4
176
     1
 62
     7
176
     1
 62
   257
176
     1
 90
        1
176
     1
 90
        1
176
     1
 40
1.0
176
     1
 90
        0
176
     1
 62
   257
176
     1
 40
1.0
176
     1
 90
        1
176
     1
 90
        6
176
     1
 90
        2
176
     1
 62
     7
176
     1
 90
        3
176
     1
 90
        0
176
     1
 90
        0
176
     1
290
     0
176
     1
 90
        1
176
     1
 40
0.0
176
     1
 90
        0
176
     1
290
     0
176
     1
290
     1
176
     1
290
     1
176
     1
290
     0
176
     1
290
     0
176
     1
290
     0
176
     1
290
     0
176
     1
290
     0
176
     1
290
     0
176
     1
 90
       50
176
     1
 40
0.0
176
     1
 40
1.0
176
     1
 90
        0
176
     1
 62
    18
420
        0
176
     1
 90
       50
176
     1
 90
        3
176
     1
 62
     5
420
      255
176
     1
290
     0
176
     1
 90
       50
176
     1
 90
       50
176
     1
 90
       50
176
     1
290
     0
176
     1
 90
       50
176
     1
 62
   256
176
     0
 40
1.0
176
     0
 90
        2
176
     1
  1
strokes_ogs.tif
176
     1
290
     0
176
     1
 40
1.0
176
     1
 40
1.0
176
     1
  0
VISUALSTYLE
  5
40
102
{ACAD_REACTORS
330
2A
102
}
330
2A
100
AcDbVisualStyle
  2
X-Ray
 70
    25
177
     3
291
     0
 70
    58
 90
        2
176
     1
 90
        2
176
     1
 90
        1
176
     1
 90
        1
176
     1
 40
0.5
176
     1
 40
30.0
176
     1
 62
     7
420
 16777215
176
     1
 90
        1
176
     1
 90
        0
176
     1
 62
     7
176
     1
 62
   257
176
     1
 90
        1
176
     1
 90
        1
176
     1
 40
1.0
176
     1
 90
        8
176
     1
 62
     7
176
     1
 40
1.0
176
     1
 90
        1
176
     1
 90
        6
176
     1
 90
        2
176
     1
 62
     7
176
     1
 90
        3
176
     1
 90
        0
176
     1
 90
        0
176
     1
290
     0
176
     1
 90
       13
176
     1
 40
0.0
176
     1
 90
        0
176
     1
290
     0
176
     1
290
     1
176
     1
290
     1
176
     1
290
     0
176
     1
290
     0
176
     1
290
     0
176
     1
290
     0
176
     1
290
     0
176
     1
290
     0
176
     1
 90
       50
176
     1
 40
0.0
176
     1
 40
1.0
176
     1
 90
        0
176
     1
 62
    18
420
        0
176
     1
 90
       50
176
     1
 90
        3
176
     1
 62
     5
420
      255
176
     1
290
     0
176
     1
 90
       50
176
     1
 90
       50
176
     1
 90
       50
176
     1
290
     0
176
     1
 90
       50
176
     1
 62
   256
176
     0
 40
1.0
176
     0
 90
        2
176
     1
  1
strokes_ogs.tif
176
     1
290
     0
176
     1
 40
1.0
176
     1
 40
1.0
176
     1
  0
DICTIONARYVAR
  5
BF
102
{ACAD_REACTORS
330
BE
102
}
330
BE
100
DictionaryVariables
280
     0
  1
1:1
  0
DICTIONARYVAR
  5
C4
102
{ACAD_REACTORS
330
BE
102
}
330
BE
100
DictionaryVariables
280
     0
  1
Standard
  0
DICTIONARYVAR
  5
C3
102
{ACAD_REACTORS
330
BE
102
}
330
BE
100
DictionaryVariables
280
     0
  1
Standard
  0
DICTIONARY
  5
C0
330
5A
100
AcDbDictionary
280
     1
281
     1
  3
ACAD_ROUNDTRIP_2008_TABLESTYLE_CELLSTYLEMAP
360
C1
  0
CELLSTYLEMAP
  5
C1
102
{ACAD_REACTORS
330
C0
102
}
330
C0
100
AcDbCellStyleMap
 90
        3
300
CELLSTYLE
  1
TABLEFORMAT_BEGIN
 90
        5
170
     1
 91
        0
 92
    32768
 62
   257
 93
        1
300
CONTENTFORMAT
  1
CONTENTFORMAT_BEGIN
 90
        0
 91
        0
 92
        4
 93
        0
300

 40
0.0
140
1.0
 94
        5
 62
     0
340
11
144
0.25
309
CONTENTFORMAT_END
171
     1
301
MARGIN
  1
CELLMARGIN_BEGIN
 40
0.06
 40
0.06
 40
0.06
 40
0.06
 40
0.06
 40
0.06
309
CELLMARGIN_END
 94
        6
 95
        1
302
GRIDFORMAT
  1
GRIDFORMAT_BEGIN
 90
        0
 91
        1
 62
     0
 92
       -2
340
14
 93
        0
 40
0.045
309
GRIDFORMAT_END
 95
        2
302
GRIDFORMAT
  1
GRIDFORMAT_BEGIN
 90
        0
 91
        1
 62
     0
 92
       -2
340
14
 93
        0
 40
0.045
309
GRIDFORMAT_END
 95
        4
302
GRIDFORMAT
  1
GRIDFORMAT_BEGIN
 90
        0
 91
        1
 62
     0
 92
       -2
340
14
 93
        0
 40
0.045
309
GRIDFORMAT_END
 95
        8
302
GRIDFORMAT
  1
GRIDFORMAT_BEGIN
 90
        0
 91
        1
 62
     0
 92
       -2
340
14
 93
        0
 40
0.045
309
GRIDFORMAT_END
 95
       16
302
GRIDFORMAT
  1
GRIDFORMAT_BEGIN
 90
        0
 91
        1
 62
     0
 92
       -2
340
14
 93
        0
 40
0.045
309
GRIDFORMAT_END
 95
       32
302
GRIDFORMAT
  1
GRIDFORMAT_BEGIN
 90
        0
 91
        1
 62
     0
 92
       -2
340
14
 93
        0
 40
0.045
309
GRIDFORMAT_END
309
TABLEFORMAT_END
  1
CELLSTYLE_BEGIN
 90
        1
 91
        1
300
_TITLE
309
CELLSTYLE_END
300
CELLSTYLE
  1
TABLEFORMAT_BEGIN
 90
        5
170
     1
 91
        0
 92
        0
 62
   257
 93
        1
300
CONTENTFORMAT
  1
CONTENTFORMAT_BEGIN
 90
        0
 91
        0
 92
        4
 93
        0
300

 40
0.0
140
1.0
 94
        5
 62
     0
340
11
144
0.18
309
CONTENTFORMAT_END
171
     1
301
MARGIN
  1
CELLMARGIN_BEGIN
 40
0.06
 40
0.06
 40
0.06
 40
0.06
 40
0.06
 40
0.06
309
CELLMARGIN_END
 94
        6
 95
        1
302
GRIDFORMAT
  1
GRIDFORMAT_BEGIN
 90
        0
 91
        1
 62
     0
 92
       -2
340
14
 93
        0
 40
0.045
309
GRIDFORMAT_END
 95
        2
302
GRIDFORMAT
  1
GRIDFORMAT_BEGIN
 90
        0
 91
        1
 62
     0
 92
       -2
340
14
 93
        0
 40
0.045
309
GRIDFORMAT_END
 95
        4
302
GRIDFORMAT
  1
GRIDFORMAT_BEGIN
 90
        0
 91
        1
 62
     0
 92
       -2
340
14
 93
        0
 40
0.045
309
GRIDFORMAT_END
 95
        8
302
GRIDFORMAT
  1
GRIDFORMAT_BEGIN
 90
        0
 91
        1
 62
     0
 92
       -2
340
14
 93
        0
 40
0.045
309
GRIDFORMAT_END
 95
       16
302
GRIDFORMAT
  1
GRIDFORMAT_BEGIN
 90
        0
 91
        1
 62
     0
 92
       -2
340
14
 93
        0
 40
0.045
309
GRIDFORMAT_END
 95
       32
302
GRIDFORMAT
  1
GRIDFORMAT_BEGIN
 90
        0
 91
        1
 62
     0
 92
       -2
340
14
 93
        0
 40
0.045
309
GRIDFORMAT_END
309
TABLEFORMAT_END
  1
CELLSTYLE_BEGIN
 90
        2
 91
        1
300
_HEADER
309
CELLSTYLE_END
300
CELLSTYLE
  1
TABLEFORMAT_BEGIN
 90
        5
170
     1
 91
        0
 92
        0
 62
   257
 93
        1
300
CONTENTFORMAT
  1
CONTENTFORMAT_BEGIN
 90
        0
 91
        0
 92
        4
 93
        0
300

 40
0.0
140
1.0
 94
        2
 62
     0
340
11
144
0.18
309
CONTENTFORMAT_END
171
     1
301
MARGIN
  1
CELLMARGIN_BEGIN
 40
0.06
 40
0.06
 40
0.06
 40
0.06
 40
0.06
 40
0.06
309
CELLMARGIN_END
 94
        6
 95
        1
302
GRIDFORMAT
  1
GRIDFORMAT_BEGIN
 90
        0
 91
        1
 62
     0
 92
       -2
340
14
 93
        0
 40
0.045
309
GRIDFORMAT_END
 95
        2
302
GRIDFORMAT
  1
GRIDFORMAT_BEGIN
 90
        0
 91
        1
 62
     0
 92
       -2
340
14
 93
        0
 40
0.045
309
GRIDFORMAT_END
 95
        4
302
GRIDFORMAT
  1
GRIDFORMAT_BEGIN
 90
        0
 91
        1
 62
     0
 92
       -2
340
14
 93
        0
 40
0.045
309
GRIDFORMAT_END
 95
        8
302
GRIDFORMAT
  1
GRIDFORMAT_BEGIN
 90
        0
 91
        1
 62
     0
 92
       -2
340
14
 93
        0
 40
0.045
309
GRIDFORMAT_END
 95
       16
302
GRIDFORMAT
  1
GRIDFORMAT_BEGIN
 90
        0
 91
        1
 62
     0
 92
       -2
340
14
 93
        0
 40
0.045
309
GRIDFORMAT_END
 95
       32
302
GRIDFORMAT
  1
GRIDFORMAT_BEGIN
 90
        0
 91
        1
 62
     0
 92
       -2
340
14
 93
        0
 40
0.045
309
GRIDFORMAT_END
309
TABLEFORMAT_END
  1
CELLSTYLE_BEGIN
 90
        3
 91
        2
300
_DATA
309
CELLSTYLE_END
  0
ENDSEC
  0
EOF
