  0
SECTION
  2
HEADER
  9
$ACADVER
  1
AC1032
  9
$ACADMAINTVER
 90
       55
  9
$DWGCODEPAGE
  3
ANSI_1251
  9
$LASTSAVEDBY
  1
torde
  9
$REQUIREDVERSIONS
160
                 0
  9
$INSBASE
 10
0.0
 20
0.0
 30
0.0
  9
$EXTMIN
 10
-16.57989
 20
-12.95077
 30
0.0
  9
$EXTMAX
 10
21.49649
 20
11.30234
 30
0.0
  9
$LIMMIN
 10
0.0
 20
0.0
  9
$LIMMAX
 10
12.0
 20
9.0
  9
$ORTHOMODE
 70
     0
  9
$REGENMODE
 70
     1
  9
$FILLMODE
 70
     1
  9
$QTEXTMODE
 70
     0
  9
$MIRRTEXT
 70
     1
  9
$LTSCALE
 40
1.0
  9
$ATTMODE
 70
     1
  9
$TEXTSIZE
 40
0.2
  9
$TRACEWID
 40
0.05
  9
$TEXTSTYLE
  7
Standard
  9
$CLAYER
  8
0
  9
$CELTYPE
  6
ByLayer
  9
$CECOLOR
 62
   256
  9
$CELTSCALE
 40
1.0
  9
$DISPSILH
 70
     0
  9
$DIMSCALE
 40
1.0
  9
$DIMASZ
 40
0.18
  9
$DIMEXO
 40
0.0625
  9
$DIMDLI
 40
0.38
  9
$DIMRND
 40
0.0
  9
$DIMDLE
 40
0.0
  9
$DIMEXE
 40
0.18
  9
$DIMTP
 40
0.0
  9
$DIMTM
 40
0.0
  9
$DIMTXT
 40
0.18
  9
$DIMCEN
 40
0.09
  9
$DIMTSZ
 40
0.0
  9
$DIMTOL
 70
     0
  9
$DIMLIM
 70
     0
  9
$DIMTIH
 70
     1
  9
$DIMTOH
 70
     1
  9
$DIMSE1
 70
     0
  9
$DIMSE2
 70
     0
  9
$DIMTAD
 70
     0
  9
$DIMZIN
 70
     0
  9
$DIMBLK
  1

  9
$DIMASO
 70
     1
  9
$DIMSHO
 70
     1
  9
$DIMPOST
  1

  9
$DIMAPOST
  1

  9
$DIMALT
 70
     0
  9
$DIMALTD
 70
     2
  9
$DIMALTF
 40
25.4
  9
$DIMLFAC
 40
1.0
  9
$DIMTOFL
 70
     0
  9
$DIMTVP
 40
0.0
  9
$DIMTIX
 70
     0
  9
$DIMSOXD
 70
     0
  9
$DIMSAH
 70
     0
  9
$DIMBLK1
  1

  9
$DIMBLK2
  1

  9
$DIMSTYLE
  2
Standard
  9
$DIMCLRD
 70
     0
  9
$DIMCLRE
 70
     0
  9
$DIMCLRT
 70
     0
  9
$DIMTFAC
 40
1.0
  9
$DIMGAP
 40
0.09
  9
$DIMJUST
 70
     0
  9
$DIMSD1
 70
     0
  9
$DIMSD2
 70
     0
  9
$DIMTOLJ
 70
     1
  9
$DIMTZIN
 70
     0
  9
$DIMALTZ
 70
     0
  9
$DIMALTTZ
 70
     0
  9
$DIMUPT
 70
     0
  9
$DIMDEC
 70
     4
  9
$DIMTDEC
 70
     4
  9
$DIMALTU
 70
     2
  9
$DIMALTTD
 70
     2
  9
$DIMTXSTY
  7
Standard
  9
$DIMAUNIT
 70
     0
  9
$DIMADEC
 70
     0
  9
$DIMALTRND
 40
0.0
  9
$DIMAZIN
 70
     0
  9
$DIMDSEP
 70
    46
  9
$DIMATFIT
 70
     3
  9
$DIMFRAC
 70
     0
  9
$DIMLDRBLK
  1

  9
$DIMLUNIT
 70
     2
  9
$DIMLWD
 70
    -2
  9
$DIMLWE
 70
    -2
  9
$DIMTMOVE
 70
     0
  9
$DIMFXL
 40
1.0
  9
$DIMFXLON
 70
     0
  9
$DIMJOGANG
 40
0.7853981633974483
  9
$DIMTFILL
 70
     0
  9
$DIMTFILLCLR
 70
     0
  9
$DIMARCSYM
 70
     0
  9
$DIMLTYPE
  6

  9
$DIMLTEX1
  6

  9
$DIMLTEX2
  6

  9
$DIMTXTDIRECTION
 70
     0
  9
$LUNITS
 70
     2
  9
$LUPREC
 70
     4
  9
$SKETCHINC
 40
0.1
  9
$FILLETRAD
 40
0.0
  9
$AUNITS
 70
     0
  9
$AUPREC
 70
     0
  9
$MENU
  1
.
  9
$ELEVATION
 40
0.0
  9
$PELEVATION
 40
0.0
  9
$THICKNESS
 40
0.0
  9
$LIMCHECK
 70
     0
  9
$CHAMFERA
 40
0.0
  9
$CHAMFERB
 40
0.0
  9
$CHAMFERC
 40
0.0
  9
$CHAMFERD
 40
0.0
  9
$SKPOLY
 70
     0
  9
$TDCREATE
 40
2461096.63844566
  9
$TDUCREATE
 40
2461096.51344566
  9
$TDUPDATE
 40
2461096.63844566
  9
$TDUUPDATE
 40
2461096.51344566
  9
$TDINDWG
 40
0.0000000116
  9
$TDUSRTIMER
 40
0.0000000116
  9
$USRTIMER
 70
     1
  9
$ANGBASE
 50
0.0
  9
$ANGDIR
 70
     0
  9
$PDMODE
 70
     0
  9
$PDSIZE
 40
0.0
  9
$PLINEWID
 40
0.0
  9
$SPLFRAME
 70
     0
  9
$SPLINETYPE
 70
     6
  9
$SPLINESEGS
 70
     8
  9
$HANDSEED
  5
DD
  9
$SURFTAB1
 70
     6
  9
$SURFTAB2
 70
     6
  9
$SURFTYPE
 70
     6
  9
$SURFU
 70
     6
  9
$SURFV
 70
     6
  9
$UCSBASE
  2

  9
$UCSNAME
  2

  9
$UCSORG
 10
0.0
 20
0.0
 30
0.0
  9
$UCSXDIR
 10
1.0
 20
0.0
 30
0.0
  9
$UCSYDIR
 10
0.0
 20
1.0
 30
0.0
  9
$UCSORTHOREF
  2

  9
$UCSORTHOVIEW
 70
     0
  9
$UCSORGTOP
 10
0.0
 20
0.0
 30
0.0
  9
$UCSORGBOTTOM
 10
0.0
 20
0.0
 30
0.0
  9
$UCSORGLEFT
 10
0.0
 20
0.0
 30
0.0
  9
$UCSORGRIGHT
 10
0.0
 20
0.0
 30
0.0
  9
$UCSORGFRONT
 10
0.0
 20
0.0
 30
0.0
  9
$UCSORGBACK
 10
0.0
 20
0.0
 30
0.0
  9
$PUCSBASE
  2

  9
$PUCSNAME
  2

  9
$PUCSORG
 10
0.0
 20
0.0
 30
0.0
  9
$PUCSXDIR
 10
1.0
 20
0.0
 30
0.0
  9
$PUCSYDIR
 10
0.0
 20
1.0
 30
0.0
  9
$PUCSORTHOREF
  2

  9
$PUCSORTHOVIEW
 70
     0
  9
$PUCSORGTOP
 10
0.0
 20
0.0
 30
0.0
  9
$PUCSORGBOTTOM
 10
0.0
 20
0.0
 30
0.0
  9
$PUCSORGLEFT
 10
0.0
 20
0.0
 30
0.0
  9
$PUCSORGRIGHT
 10
0.0
 20
0.0
 30
0.0
  9
$PUCSORGFRONT
 10
0.0
 20
0.0
 30
0.0
  9
$PUCSORGBACK
 10
0.0
 20
0.0
 30
0.0
  9
$USERI1
 70
     0
  9
$USERI2
 70
     0
  9
$USERI3
 70
     0
  9
$USERI4
 70
     0
  9
$USERI5
 70
     0
  9
$USERR1
 40
0.0
  9
$USERR2
 40
0.0
  9
$USERR3
 40
0.0
  9
$USERR4
 40
0.0
  9
$USERR5
 40
0.0
  9
$WORLDVIEW
 70
     1
  9
$SHADEDGE
 70
     3
  9
$SHADEDIF
 70
    70
  9
$TILEMODE
 70
     1
  9
$MAXACTVP
 70
    64
  9
$PINSBASE
 10
0.0
 20
0.0
 30
0.0
  9
$PLIMCHECK
 70
     0
  9
$PEXTMIN
 10
1.000000000000000E+20
 20
1.000000000000000E+20
 30
1.000000000000000E+20
  9
$PEXTMAX
 10
-1.000000000000000E+20
 20
-1.000000000000000E+20
 30
-1.000000000000000E+20
  9
$PLIMMIN
 10
0.0
 20
0.0
  9
$PLIMMAX
 10
12.0
 20
9.0
  9
$UNITMODE
 70
     0
  9
$VISRETAIN
 70
     1
  9
$PLINEGEN
 70
     0
  9
$PSLTSCALE
 70
     1
  9
$TREEDEPTH
 70
  3020
  9
$CMLSTYLE
  2
Standard
  9
$CMLJUST
 70
     0
  9
$CMLSCALE
 40
1.0
  9
$PROXYGRAPHICS
 70
     1
  9
$MEASUREMENT
 70
     0
  9
$CELWEIGHT
370
    -1
  9
$ENDCAPS
280
     0
  9
$JOINSTYLE
280
     0
  9
$LWDISPLAY
290
     0
  9
$INSUNITS
 70
     5
  9
$HYPERLINKBASE
  1

  9
$STYLESHEET
  1

  9
$XEDIT
290
     1
  9
$CEPSNTYPE
380
     0
  9
$PSTYLEMODE
290
     1
  9
$FINGERPRINTGUID
  2
{6b971691-0d1d-488e-9711-412d5823b2e8}
  9
$VERSIONGUID
  2
{FAEB1C32-E019-11D5-929B-00C0DF256EC4}
  9
$EXTNAMES
290
     1
  9
$PSVPSCALE
 40
0.0
  9
$OLESTARTUP
290
     0
  9
$SORTENTS
280
   127
  9
$INDEXCTL
280
     0
  9
$HIDETEXT
280
     1
  9
$XCLIPFRAME
280
     2
  9
$HALOGAP
280
     0
  9
$OBSCOLOR
 70
   257
  9
$OBSLTYPE
280
     0
  9
$INTERSECTIONDISPLAY
280
     0
  9
$INTERSECTIONCOLOR
 70
   257
  9
$DIMASSOC
280
     2
  9
$PROJECTNAME
  1

  9
$CAMERADISPLAY
290
     0
  9
$LENSLENGTH
 40
50.0
  9
$CAMERAHEIGHT
 40
0.0
  9
$STEPSPERSEC
 40
2.0
  9
$STEPSIZE
 40
6.0
  9
$3DDWFPREC
 40
2.0
  9
$PSOLWIDTH
 40
0.25
  9
$PSOLHEIGHT
 40
4.0
  9
$LOFTANG1
 40
1.570796326794897
  9
$LOFTANG2
 40
1.570796326794897
  9
$LOFTMAG1
 40
0.0
  9
$LOFTMAG2
 40
0.0
  9
$LOFTPARAM
 70
     7
  9
$LOFTNORMALS
280
     1
  9
$LATITUDE
 40
37.795
  9
$LONGITUDE
 40
-122.394
  9
$NORTHDIRECTION
 40
0.0
  9
$TIMEZONE
 70
 -8000
  9
$LIGHTGLYPHDISPLAY
280
     1
  9
$TILEMODELIGHTSYNCH
280
     1
  9
$CMATERIAL
347
44
  9
$SOLIDHIST
280
     0
  9
$SHOWHIST
280
     1
  9
$DWFFRAME
280
     2
  9
$DGNFRAME
280
     2
  9
$REALWORLDSCALE
290
     1
  9
$INTERFERECOLOR
 62
   256
  9
$CSHADOW
280
     0
  9
$SHADOWPLANELOCATION
 40
0.0
  0
ENDSEC
  0
SECTION
  2
CLASSES
  0
CLASS
  1
ACDBDICTIONARYWDFLT
  2
AcDbDictionaryWithDefault
  3
ObjectDBX Classes
 90
        0
 91
        3
280
     0
281
     0
  0
CLASS
  1
VISUALSTYLE
  2
AcDbVisualStyle
  3
ObjectDBX Classes
 90
     4095
 91
        3
280
     0
281
     0
  0
CLASS
  1
MATERIAL
  2
AcDbMaterial
  3
ObjectDBX Classes
 90
     1153
 91
        3
280
     0
281
     0
  0
CLASS
  1
SCALE
  2
AcDbScale
  3
ObjectDBX Classes
 90
     1153
 91
        3
280
     0
281
     0
  0
CLASS
  1
TABLESTYLE
  2
AcDbTableStyle
  3
ObjectDBX Classes
 90
     4095
 91
        3
280
     0
281
     0
  0
CLASS
  1
MLEADERSTYLE
  2
AcDbMLeaderStyle
  3
ACDB_MLEADERSTYLE_CLASS
 90
     4095
 91
        3
280
     0
281
     0
  0
CLASS
  1
SUN
  2
AcDbSun
  3
SCENEOE
 90
     1153
 91
        3
280
     0
281
     0
  0
CLASS
  1
DICTIONARYVAR
  2
AcDbDictionaryVar
  3
ObjectDBX Classes
 90
        0
 91
        3
280
     0
281
     0
  0
CLASS
  1
CELLSTYLEMAP
  2
AcDbCellStyleMap
  3
ObjectDBX Classes
 90
     1152
 91
        3
280
     0
281
     0
  0
ENDSEC
  0
SECTION
  2
TABLES
  0
TABLE
  2
VPORT
  5
8
330
0
100
AcDbSymbolTable
 70
     1
  0
VPORT
  5
29
330
8
100
AcDbSymbolTableRecord
100
AcDbViewportTableRecord
  2
*Active
 70
     0
 10
0.0
 20
0.0
 11
1.0
 21
1.0
 12
10.42990654205607
 22
4.5
 13
0.0
 23
0.0
 14
0.5
 24
0.5
 15
0.5
 25
0.5
 16
0.0
 26
0.0
 36
1.0
 17
0.0
 27
0.0
 37
0.0
 40
9.0
 41
1.972972972850329
 42
50.0
 43
0.0
 44
0.0
 50
0.0
 51
0.0
 71
     0
 72
   100
 73
     1
 74
     3
 75
     0
 76
     0
 77
     0
 78
     0
281
     0
 65
     1
110
0.0
120
0.0
130
0.0
111
1.0
121
0.0
131
0.0
112
0.0
122
1.0
132
0.0
 79
     0
146
0.0
348
2F
 60
     3
 61
     5
292
     1
282
     1
141
0.0
142
0.0
 63
   250
361
5D
  0
ENDTAB
  0
TABLE
  2
LTYPE
  5
5
330
0
100
AcDbSymbolTable
 70
     1
  0
LTYPE
  5
14
330
5
100
AcDbSymbolTableRecord
100
AcDbLinetypeTableRecord
  2
ByBlock
 70
     0
  3

 72
    65
 73
     0
 40
0.0
  0
LTYPE
  5
15
330
5
100
AcDbSymbolTableRecord
100
AcDbLinetypeTableRecord
  2
ByLayer
 70
     0
  3

 72
    65
 73
     0
 40
0.0
  0
LTYPE
  5
16
330
5
100
AcDbSymbolTableRecord
100
AcDbLinetypeTableRecord
  2
Continuous
 70
     0
  3
Solid line
 72
    65
 73
     0
 40
0.0
  0
ENDTAB
  0
TABLE
  2
LAYER
  5
2
330
0
100
AcDbSymbolTable
 70
     2
  0
LAYER
  5
10
330
2
100
AcDbSymbolTableRecord
100
AcDbLayerTableRecord
  2
0
 70
     0
 62
     7
  6
Continuous
370
    -3
390
F
347
46
348
0
  0
LAYER
  5
5F
330
2
100
AcDbSymbolTableRecord
100
AcDbLayerTableRecord
  2
Layer 1
 70
     0
 62
     7
  6
Continuous
370
    -3
390
F
347
46
348
0
  0
ENDTAB
  0
TABLE
  2
STYLE
  5
3
330
0
100
AcDbSymbolTable
 70
     1
  0
STYLE
  5
11
330
3
100
AcDbSymbolTableRecord
100
AcDbTextStyleTableRecord
  2
Standard
 70
     0
 40
0.0
 41
1.0
 50
0.0
 71
     0
 42
0.2
  3
txt
  4

  0
ENDTAB
  0
TABLE
  2
VIEW
  5
6
330
0
100
AcDbSymbolTable
 70
     0
  0
ENDTAB
  0
TABLE
  2
UCS
  5
7
330
0
100
AcDbSymbolTable
 70
     0
  0
ENDTAB
  0
TABLE
  2
APPID
  5
9
330
0
100
AcDbSymbolTable
 70
     2
  0
APPID
  5
12
330
9
100
AcDbSymbolTableRecord
100
AcDbRegAppTableRecord
  2
ACAD
 70
     0
  0
APPID
  5
5E
330
9
100
AcDbSymbolTableRecord
100
AcDbRegAppTableRecord
  2
ODA
 70
     0
  0
ENDTAB
  0
TABLE
  2
DIMSTYLE
  5
A
330
0
100
AcDbSymbolTable
 70
     1
100
AcDbDimStyleTable
  0
DIMSTYLE
105
27
330
A
100
AcDbSymbolTableRecord
100
AcDbDimStyleTableRecord
  2
Standard
 70
     0
178
     0
340
11
  0
ENDTAB
  0
TABLE
  2
BLOCK_RECORD
  5
1
330
0
100
AcDbSymbolTable
 70
     1
  0
BLOCK_RECORD
  5
1F
330
1
100
AcDbSymbolTableRecord
100
AcDbBlockTableRecord
  2
*Model_Space
340
22
 70
     0
280
     1
281
     0
  0
BLOCK_RECORD
  5
1B
330
1
100
AcDbSymbolTableRecord
100
AcDbBlockTableRecord
  2
*Paper_Space
340
1E
 70
     0
280
     1
281
     0
  0
BLOCK_RECORD
  5
23
330
1
100
AcDbSymbolTableRecord
100
AcDbBlockTableRecord
  2
*Paper_Space0
340
26
 70
     0
280
     1
281
     0
  0
ENDTAB
  0
ENDSEC
  0
SECTION
  2
BLOCKS
  0
BLOCK
  5
20
330
1F
100
AcDbEntity
  8
0
100
AcDbBlockBegin
  2
*Model_Space
 70
     0
 10
0.0
 20
0.0
 30
0.0
  3
*Model_Space
  1

  0
ENDBLK
  5
21
330
1F
100
AcDbEntity
  8
0
100
AcDbBlockEnd
  0
BLOCK
  5
1C
330
1B
100
AcDbEntity
 67
     1
  8
0
100
AcDbBlockBegin
  2
*Paper_Space
 70
     0
 10
0.0
 20
0.0
 30
0.0
  3
*Paper_Space
  1

  0
ENDBLK
  5
1D
330
1B
100
AcDbEntity
 67
     1
  8
0
100
AcDbBlockEnd
  0
BLOCK
  5
24
330
23
100
AcDbEntity
  8
0
100
AcDbBlockBegin
  2
*Paper_Space0
 70
     0
 10
0.0
 20
0.0
 30
0.0
  3
*Paper_Space0
  1

  0
ENDBLK
  5
25
330
23
100
AcDbEntity
  8
0
100
AcDbBlockEnd
  0
ENDSEC
  0
SECTION
  2
ENTITIES
  0
SPLINE
  5
60
330
1F
100
AcDbEntity
  8
Layer 1
 62
   250
370
    20
100
AcDbSpline
210
0.0
220
0.0
230
1.0
 70
     8
 71
     3
 72
    50
 73
    46
 74
     0
 42
0.0000000001
 43
0.0000000001
 40
0.0
 40
0.0
 40
0.0
 40
0.0
 40
0.0666666666666667
 40
0.0666666666666667
 40
0.0666666666666667
 40
0.1333333333333333
 40
0.1333333333333333
 40
0.1333333333333333
 40
0.2
 40
0.2
 40
0.2
 40
0.2666666666666667
 40
0.2666666666666667
 40
0.2666666666666667
 40
0.3333333333333333
 40
0.3333333333333333
 40
0.3333333333333333
 40
0.4
 40
0.4
 40
0.4
 40
0.4666666666666667
 40
0.4666666666666667
 40
0.4666666666666667
 40
0.5333333333333333
 40
0.5333333333333333
 40
0.5333333333333333
 40
0.6
 40
0.6
 40
0.6
 40
0.6666666666666666
 40
0.6666666666666666
 40
0.6666666666666666
 40
0.7333333333333333
 40
0.7333333333333333
 40
0.7333333333333333
 40
0.8
 40
0.8
 40
0.8
 40
0.8666666666666667
 40
0.8666666666666667
 40
0.8666666666666667
 40
0.9333333333333333
 40
0.9333333333333333
 40
0.9333333333333333
 40
1.0
 40
1.0
 40
1.0
 40
1.0
 10
-15.51726
 20
-12.93116
 30
0.0
 10
-15.51726
 20
-12.93116
 30
0.0
 10
-16.25102
 20
-12.93116
 30
0.0
 10
-16.25102
 20
-12.93116
 30
0.0
 10
-16.25102
 20
-12.93116
 30
0.0
 10
-16.25102
 20
-12.42491
 30
0.0
 10
-16.25102
 20
-12.42491
 30
0.0
 10
-16.25102
 20
-12.42491
 30
0.0
 10
-15.95099
 20
-12.42491
 30
0.0
 10
-15.95099
 20
-12.42491
 30
0.0
 10
-15.95099
 20
-12.42491
 30
0.0
 10
-15.95099
 20
-11.91867
 30
0.0
 10
-15.95099
 20
-11.91867
 30
0.0
 10
-15.95099
 20
-11.91867
 30
0.0
 10
-16.25102
 20
-11.91867
 30
0.0
 10
-16.25102
 20
-11.91867
 30
0.0
 10
-16.25102
 20
-11.91867
 30
0.0
 10
-16.25102
 20
-11.41242
 30
0.0
 10
-16.25102
 20
-11.41242
 30
0.0
 10
-16.25102
 20
-11.41242
 30
0.0
 10
-15.95099
 20
-11.41242
 30
0.0
 10
-15.95099
 20
-11.41242
 30
0.0
 10
-15.95099
 20
-11.41242
 30
0.0
 10
-15.95099
 20
-10.90618
 30
0.0
 10
-15.95099
 20
-10.90618
 30
0.0
 10
-15.95099
 20
-10.90618
 30
0.0
 10
-16.25102
 20
-10.90618
 30
0.0
 10
-16.25102
 20
-10.90618
 30
0.0
 10
-16.25102
 20
-10.90618
 30
0.0
 10
-16.25102
 20
-10.39996
 30
0.0
 10
-16.25102
 20
-10.39996
 30
0.0
 10
-16.25102
 20
-10.39996
 30
0.0
 10
-15.74038
 20
-10.39996
 30
0.0
 10
-15.74038
 20
-10.39996
 30
0.0
 10
-15.58857
 20
-11.07618
 30
0.0
 10
-15.62321
 20
-11.05681
 30
0.0
 10
-15.42928
 20
-11.26481
 30
0.0
 10
-15.44074
 20
-11.78697
 30
0.0
 10
-15.32554
 20
-12.11422
 30
0.0
 10
-14.7616
 20
-12.08553
 30
0.0
 10
-14.80395
 20
-12.27419
 30
0.0
 10
-14.82402
 20
-12.36981
 30
0.0
 10
-14.8218
 20
-12.3724
 30
0.0
 10
-15.25004
 20
-12.41986
 30
0.0
 10
-15.4826
 20
-12.61229
 30
0.0
 10
-15.5195
 20
-12.94968
 30
0.0
  0
SPLINE
  5
61
330
1F
100
AcDbEntity
  8
Layer 1
 62
   250
370
    20
100
AcDbSpline
210
0.0
220
0.0
230
1.0
 70
     8
 71
     3
 72
    50
 73
    46
 74
     0
 42
0.0000000001
 43
0.0000000001
 40
0.0
 40
0.0
 40
0.0
 40
0.0
 40
0.0666666666666667
 40
0.0666666666666667
 40
0.0666666666666667
 40
0.1333333333333333
 40
0.1333333333333333
 40
0.1333333333333333
 40
0.2
 40
0.2
 40
0.2
 40
0.2666666666666667
 40
0.2666666666666667
 40
0.2666666666666667
 40
0.3333333333333333
 40
0.3333333333333333
 40
0.3333333333333333
 40
0.4
 40
0.4
 40
0.4
 40
0.4666666666666667
 40
0.4666666666666667
 40
0.4666666666666667
 40
0.5333333333333333
 40
0.5333333333333333
 40
0.5333333333333333
 40
0.6
 40
0.6
 40
0.6
 40
0.6666666666666666
 40
0.6666666666666666
 40
0.6666666666666666
 40
0.7333333333333333
 40
0.7333333333333333
 40
0.7333333333333333
 40
0.8
 40
0.8
 40
0.8
 40
0.8666666666666667
 40
0.8666666666666667
 40
0.8666666666666667
 40
0.9333333333333333
 40
0.9333333333333333
 40
0.9333333333333333
 40
1.0
 40
1.0
 40
1.0
 40
1.0
 10
-13.85593
 20
-12.93116
 30
0.0
 10
-13.85593
 20
-12.93116
 30
0.0
 10
-13.4222
 20
-12.93116
 30
0.0
 10
-13.4222
 20
-12.93116
 30
0.0
 10
-13.4222
 20
-12.93116
 30
0.0
 10
-13.4222
 20
-12.42491
 30
0.0
 10
-13.4222
 20
-12.42491
 30
0.0
 10
-13.4222
 20
-12.42491
 30
0.0
 10
-13.12217
 20
-12.42491
 30
0.0
 10
-13.12217
 20
-12.42491
 30
0.0
 10
-13.12217
 20
-12.42491
 30
0.0
 10
-13.12217
 20
-11.9187
 30
0.0
 10
-13.12217
 20
-11.9187
 30
0.0
 10
-13.12217
 20
-11.9187
 30
0.0
 10
-13.4222
 20
-11.9187
 30
0.0
 10
-13.4222
 20
-11.9187
 30
0.0
 10
-13.4222
 20
-11.9187
 30
0.0
 10
-13.4222
 20
-11.41245
 30
0.0
 10
-13.4222
 20
-11.41245
 30
0.0
 10
-13.4222
 20
-11.41245
 30
0.0
 10
-13.12217
 20
-11.41245
 30
0.0
 10
-13.12217
 20
-11.41245
 30
0.0
 10
-13.12217
 20
-11.41245
 30
0.0
 10
-13.12217
 20
-10.90621
 30
0.0
 10
-13.12217
 20
-10.90621
 30
0.0
 10
-13.12217
 20
-10.90621
 30
0.0
 10
-13.4222
 20
-10.90621
 30
0.0
 10
-13.4222
 20
-10.90621
 30
0.0
 10
-13.4222
 20
-10.90621
 30
0.0
 10
-13.4222
 20
-10.39996
 30
0.0
 10
-13.4222
 20
-10.39996
 30
0.0
 10
-13.4222
 20
-10.39996
 30
0.0
 10
-13.63281
 20
-10.39996
 30
0.0
 10
-13.63281
 20
-10.39996
 30
0.0
 10
-13.78462
 20
-11.07618
 30
0.0
 10
-13.74998
 20
-11.05681
 30
0.0
 10
-13.94391
 20
-11.26481
 30
0.0
 10
-13.93245
 20
-11.78697
 30
0.0
 10
-14.04764
 20
-12.11422
 30
0.0
 10
-14.61159
 20
-12.08553
 30
0.0
 10
-14.56924
 20
-12.27419
 30
0.0
 10
-14.54916
 20
-12.36981
 30
0.0
 10
-14.55138
 20
-12.3724
 30
0.0
 10
-14.12315
 20
-12.41986
 30
0.0
 10
-13.89058
 20
-12.61229
 30
0.0
 10
-13.85369
 20
-12.94968
 30
0.0
  0
SPLINE
  5
62
330
1F
100
AcDbEntity
  8
Layer 1
 62
   250
370
    20
100
AcDbSpline
210
0.0
220
0.0
230
1.0
 70
     8
 71
     3
 72
    11
 73
     7
 74
     0
 42
0.0000000001
 43
0.0000000001
 40
0.0
 40
0.0
 40
0.0
 40
0.0
 40
0.5
 40
0.5
 40
0.5
 40
1.0
 40
1.0
 40
1.0
 40
1.0
 10
-8.91776
 20
-7.20005
 30
0.0
 10
-8.91776
 20
-7.20005
 30
0.0
 10
-8.91776
 20
-5.61172
 30
0.0
 10
-8.91776
 20
-5.61172
 30
0.0
 10
-8.91776
 20
-5.61172
 30
0.0
 10
-12.29312
 20
-5.61172
 30
0.0
 10
-12.29312
 20
-5.61172
 30
0.0
  0
SPLINE
  5
63
330
1F
100
AcDbEntity
  8
Layer 1
 62
   250
370
    20
100
AcDbSpline
210
0.0
220
0.0
230
1.0
 70
     8
 71
     3
 72
    11
 73
     7
 74
     0
 42
0.0000000001
 43
0.0000000001
 40
0.0
 40
0.0
 40
0.0
 40
0.0
 40
0.5
 40
0.5
 40
0.5
 40
1.0
 40
1.0
 40
1.0
 40
1.0
 10
-13.04322
 20
-5.61172
 30
0.0
 10
-13.04322
 20
-5.61172
 30
0.0
 10
-16.41858
 20
-5.61172
 30
0.0
 10
-16.41858
 20
-5.61172
 30
0.0
 10
-16.41858
 20
-5.61172
 30
0.0
 10
-16.41858
 20
-7.77777
 30
0.0
 10
-16.41858
 20
-7.77777
 30
0.0
  0
SPLINE
  5
64
330
1F
100
AcDbEntity
  8
Layer 1
 62
   250
370
    20
100
AcDbSpline
210
0.0
220
0.0
230
1.0
 70
     8
 71
     3
 72
    47
 73
    43
 74
     0
 42
0.0000000001
 43
0.0000000001
 40
0.0
 40
0.0
 40
0.0
 40
0.0
 40
0.0714285714285714
 40
0.0714285714285714
 40
0.0714285714285714
 40
0.1428571428571428
 40
0.1428571428571428
 40
0.1428571428571428
 40
0.2142857142857143
 40
0.2142857142857143
 40
0.2142857142857143
 40
0.2857142857142857
 40
0.2857142857142857
 40
0.2857142857142857
 40
0.3571428571428571
 40
0.3571428571428571
 40
0.3571428571428571
 40
0.4285714285714285
 40
0.4285714285714285
 40
0.4285714285714285
 40
0.5
 40
0.5
 40
0.5
 40
0.5714285714285714
 40
0.5714285714285714
 40
0.5714285714285714
 40
0.6428571428571428
 40
0.6428571428571428
 40
0.6428571428571428
 40
0.7142857142857142
 40
0.7142857142857142
 40
0.7142857142857142
 40
0.7857142857142857
 40
0.7857142857142857
 40
0.7857142857142857
 40
0.8571428571428571
 40
0.8571428571428571
 40
0.8571428571428571
 40
0.9285714285714285
 40
0.9285714285714285
 40
0.9285714285714285
 40
1.0
 40
1.0
 40
1.0
 40
1.0
 10
-16.41858
 20
-7.77777
 30
0.0
 10
-16.41858
 20
-7.77777
 30
0.0
 10
-16.08575
 20
-7.50525
 30
0.0
 10
-16.08575
 20
-7.50525
 30
0.0
 10
-16.08575
 20
-7.50525
 30
0.0
 10
-15.11956
 20
-7.39997
 30
0.0
 10
-15.11956
 20
-7.39997
 30
0.0
 10
-15.11956
 20
-7.39997
 30
0.0
 10
-15.09477
 20
-6.81157
 30
0.0
 10
-15.09477
 20
-6.81157
 30
0.0
 10
-15.09477
 20
-6.81157
 30
0.0
 10
-14.99567
 20
-7.62914
 30
0.0
 10
-14.99567
 20
-7.62914
 30
0.0
 10
-14.99567
 20
-7.62914
 30
0.0
 10
-13.5154
 20
-7.2761
 30
0.0
 10
-13.5154
 20
-7.2761
 30
0.0
 10
-13.5154
 20
-7.2761
 30
0.0
 10
-12.79073
 20
-7.54862
 30
0.0
 10
-12.79073
 20
-7.54862
 30
0.0
 10
-12.79073
 20
-7.54862
 30
0.0
 10
-12.2395
 20
-6.91067
 30
0.0
 10
-12.2395
 20
-6.91067
 30
0.0
 10
-12.2395
 20
-6.91067
 30
0.0
 10
-11.95024
 20
-6.96741
 30
0.0
 10
-11.95024
 20
-6.96741
 30
0.0
 10
-11.95024
 20
-6.96741
 30
0.0
 10
-11.80769
 20
-6.61718
 30
0.0
 10
-11.80769
 20
-6.61718
 30
0.0
 10
-11.80769
 20
-6.61718
 30
0.0
 10
-11.72219
 20
-7.04072
 30
0.0
 10
-11.72219
 20
-7.04072
 30
0.0
 10
-11.72219
 20
-7.04072
 30
0.0
 10
-10.97286
 20
-7.26878
 30
0.0
 10
-10.97286
 20
-7.26878
 30
0.0
 10
-10.97286
 20
-7.26878
 30
0.0
 10
-9.82441
 20
-6.86154
 30
0.0
 10
-9.82441
 20
-6.86154
 30
0.0
 10
-9.82441
 20
-6.86154
 30
0.0
 10
-9.56377
 20
-7.25657
 30
0.0
 10
-9.56377
 20
-7.25657
 30
0.0
 10
-9.56377
 20
-7.25657
 30
0.0
 10
-8.91776
 20
-7.20005
 30
0.0
 10
-8.91776
 20
-7.20005
 30
0.0
  0
SPLINE
  5
65
330
1F
100
AcDbEntity
  8
Layer 1
 62
   250
370
    20
100
AcDbSpline
210
0.0
220
0.0
230
1.0
 70
     8
 71
     3
 72
    14
 73
    10
 74
     0
 42
0.0000000001
 43
0.0000000001
 40
0.0
 40
0.0
 40
0.0
 40
0.0
 40
0.3333333333333333
 40
0.3333333333333333
 40
0.3333333333333333
 40
0.6666666666666666
 40
0.6666666666666666
 40
0.6666666666666666
 40
1.0
 40
1.0
 40
1.0
 40
1.0
 10
-12.29312
 20
-5.61172
 30
0.0
 10
-12.29312
 20
-5.61172
 30
0.0
 10
-12.29312
 20
-5.91175
 30
0.0
 10
-12.29312
 20
-5.91175
 30
0.0
 10
-12.29312
 20
-5.91175
 30
0.0
 10
-13.04322
 20
-5.91175
 30
0.0
 10
-13.04322
 20
-5.91175
 30
0.0
 10
-13.04322
 20
-5.91175
 30
0.0
 10
-13.04322
 20
-5.61172
 30
0.0
 10
-13.04322
 20
-5.61172
 30
0.0
  0
SPLINE
  5
66
330
1F
100
AcDbEntity
  8
Layer 1
 62
   250
370
    20
100
AcDbSpline
210
0.0
220
0.0
230
1.0
 70
     8
 71
     3
 72
    59
 73
    55
 74
     0
 42
0.0000000001
 43
0.0000000001
 40
0.0
 40
0.0
 40
0.0
 40
0.0
 40
0.0555555555555556
 40
0.0555555555555556
 40
0.0555555555555556
 40
0.1111111111111111
 40
0.1111111111111111
 40
0.1111111111111111
 40
0.1666666666666667
 40
0.1666666666666667
 40
0.1666666666666667
 40
0.2222222222222222
 40
0.2222222222222222
 40
0.2222222222222222
 40
0.2777777777777778
 40
0.2777777777777778
 40
0.2777777777777778
 40
0.3333333333333333
 40
0.3333333333333333
 40
0.3333333333333333
 40
0.3888888888888888
 40
0.3888888888888888
 40
0.3888888888888888
 40
0.4444444444444444
 40
0.4444444444444444
 40
0.4444444444444444
 40
0.5
 40
0.5
 40
0.5
 40
0.5555555555555556
 40
0.5555555555555556
 40
0.5555555555555556
 40
0.611111111111111
 40
0.611111111111111
 40
0.611111111111111
 40
0.6666666666666666
 40
0.6666666666666666
 40
0.6666666666666666
 40
0.7222222222222222
 40
0.7222222222222222
 40
0.7222222222222222
 40
0.7777777777777777
 40
0.7777777777777777
 40
0.7777777777777777
 40
0.8333333333333333
 40
0.8333333333333333
 40
0.8333333333333333
 40
0.8888888888888888
 40
0.8888888888888888
 40
0.8888888888888888
 40
0.9444444444444444
 40
0.9444444444444444
 40
0.9444444444444444
 40
1.0
 40
1.0
 40
1.0
 40
1.0
 10
-16.52927
 20
1.03424
 30
0.0
 10
-16.52927
 20
1.03424
 30
0.0
 10
-15.69082
 20
1.78191
 30
0.0
 10
-15.69082
 20
1.78191
 30
0.0
 10
-15.69082
 20
1.78191
 30
0.0
 10
-15.19237
 20
1.25498
 30
0.0
 10
-15.19237
 20
1.25498
 30
0.0
 10
-15.19237
 20
1.25498
 30
0.0
 10
-15.16389
 20
0.48593
 30
0.0
 10
-15.16389
 20
0.48593
 30
0.0
 10
-15.16389
 20
0.48593
 30
0.0
 10
-15.09268
 20
1.24073
 30
0.0
 10
-15.09268
 20
1.24073
 30
0.0
 10
-15.09268
 20
1.24073
 30
0.0
 10
-14.1029
 20
1.70359
 30
0.0
 10
-14.1029
 20
1.70359
 30
0.0
 10
-14.1029
 20
1.70359
 30
0.0
 10
-14.01033
 20
1.48284
 30
0.0
 10
-14.01033
 20
1.48284
 30
0.0
 10
-14.01033
 20
1.48284
 30
0.0
 10
-13.39082
 20
1.48284
 30
0.0
 10
-13.39082
 20
1.48284
 30
0.0
 10
-13.39082
 20
1.48284
 30
0.0
 10
-13.36121
 20
1.07279
 30
0.0
 10
-13.36121
 20
1.07279
 30
0.0
 10
-13.36121
 20
1.07279
 30
0.0
 10
-13.23272
 20
1.48506
 30
0.0
 10
-13.23272
 20
1.48506
 30
0.0
 10
-13.23272
 20
1.48506
 30
0.0
 10
-12.92753
 20
1.49576
 30
0.0
 10
-12.92753
 20
1.49576
 30
0.0
 10
-12.92753
 20
1.49576
 30
0.0
 10
-12.21276
 20
1.19058
 30
0.0
 10
-12.21276
 20
1.19058
 30
0.0
 10
-12.21276
 20
1.19058
 30
0.0
 10
-11.85404
 20
1.46096
 30
0.0
 10
-11.85404
 20
1.46096
 30
0.0
 10
-11.85404
 20
1.46096
 30
0.0
 10
-11.83262
 20
1.19058
 30
0.0
 10
-11.83262
 20
1.19058
 30
0.0
 10
-11.83262
 20
1.19058
 30
0.0
 10
-11.74161
 20
1.52521
 30
0.0
 10
-11.74161
 20
1.52521
 30
0.0
 10
-11.74161
 20
1.52521
 30
0.0
 10
-11.22494
 20
1.92409
 30
0.0
 10
-11.22494
 20
1.92409
 30
0.0
 10
-11.22494
 20
1.92409
 30
0.0
 10
-10.89834
 20
1.70189
 30
0.0
 10
-10.89834
 20
1.70189
 30
0.0
 10
-10.89834
 20
1.70189
 30
0.0
 10
-9.95067
 20
1.97677
 30
0.0
 10
-9.95067
 20
1.97677
 30
0.0
 10
-9.95067
 20
1.97677
 30
0.0
 10
-9.02845
 20
1.53057
 30
0.0
 10
-9.02845
 20
1.53057
 30
0.0
  0
SPLINE
  5
67
330
1F
100
AcDbEntity
  8
Layer 1
 62
   250
370
    20
100
AcDbSpline
210
0.0
220
0.0
230
1.0
 70
     8
 71
     3
 72
    11
 73
     7
 74
     0
 42
0.0000000001
 43
0.0000000001
 40
0.0
 40
0.0
 40
0.0
 40
0.0
 40
0.5
 40
0.5
 40
0.5
 40
1.0
 40
1.0
 40
1.0
 40
1.0
 10
-14.84994
 20
-5.52405
 30
0.0
 10
-14.84994
 20
-5.52405
 30
0.0
 10
-16.52927
 20
-5.52405
 30
0.0
 10
-16.52927
 20
-5.52405
 30
0.0
 10
-16.52927
 20
-5.52405
 30
0.0
 10
-16.52927
 20
1.03424
 30
0.0
 10
-16.52927
 20
1.03424
 30
0.0
  0
SPLINE
  5
68
330
1F
100
AcDbEntity
  8
Layer 1
 62
   250
370
    20
100
AcDbSpline
210
0.0
220
0.0
230
1.0
 70
     8
 71
     3
 72
    11
 73
     7
 74
     0
 42
0.0000000001
 43
0.0000000001
 40
0.0
 40
0.0
 40
0.0
 40
0.0
 40
0.5
 40
0.5
 40
0.5
 40
1.0
 40
1.0
 40
1.0
 40
1.0
 10
-9.02845
 20
1.53057
 30
0.0
 10
-9.02845
 20
1.53057
 30
0.0
 10
-9.02845
 20
-5.52405
 30
0.0
 10
-9.02845
 20
-5.52405
 30
0.0
 10
-9.02845
 20
-5.52405
 30
0.0
 10
-12.03977
 20
-5.52405
 30
0.0
 10
-12.03977
 20
-5.52405
 30
0.0
  0
SPLINE
  5
69
330
1F
100
AcDbEntity
  8
Layer 1
 62
   250
370
    20
100
AcDbSpline
210
0.0
220
0.0
230
1.0
 70
    24
 71
     3
 72
     8
 73
     4
 74
     0
 42
0.0000000001
 43
0.0000000001
 40
0.0
 40
0.0
 40
0.0
 40
0.0
 40
1.0
 40
1.0
 40
1.0
 40
1.0
 10
-12.1878
 20
-5.52405
 30
0.0
 10
-12.1878
 20
-5.52405
 30
0.0
 10
-12.40382
 20
-5.52405
 30
0.0
 10
-12.40382
 20
-5.52405
 30
0.0
  0
SPLINE
  5
6A
330
1F
100
AcDbEntity
  8
Layer 1
 62
   250
370
    20
100
AcDbSpline
210
0.0
220
0.0
230
1.0
 70
    24
 71
     3
 72
     8
 73
     4
 74
     0
 42
0.0000000001
 43
0.0000000001
 40
0.0
 40
0.0
 40
0.0
 40
0.0
 40
1.0
 40
1.0
 40
1.0
 40
1.0
 10
-13.1539
 20
-5.52405
 30
0.0
 10
-13.1539
 20
-5.52405
 30
0.0
 10
-14.73663
 20
-5.52405
 30
0.0
 10
-14.73663
 20
-5.52405
 30
0.0
  0
SPLINE
  5
6B
330
1F
100
AcDbEntity
  8
Layer 1
 62
   250
370
    20
100
AcDbSpline
210
0.0
220
0.0
230
1.0
 70
     8
 71
     3
 72
    17
 73
    13
 74
     0
 42
0.0000000001
 43
0.0000000001
 40
0.0
 40
0.0
 40
0.0
 40
0.0
 40
0.25
 40
0.25
 40
0.25
 40
0.5
 40
0.5
 40
0.5
 40
0.75
 40
0.75
 40
0.75
 40
1.0
 40
1.0
 40
1.0
 40
1.0
 10
-14.05749
 20
-0.49743
 30
0.0
 10
-14.05749
 20
-0.49743
 30
0.0
 10
-13.13802
 20
-0.9458
 30
0.0
 10
-13.13802
 20
-0.9458
 30
0.0
 10
-13.13802
 20
-0.9458
 30
0.0
 10
-14.37444
 20
-1.76462
 30
0.0
 10
-14.37444
 20
-1.76462
 30
0.0
 10
-14.37444
 20
-1.76462
 30
0.0
 10
-15.45529
 20
0.18417
 30
0.0
 10
-15.45529
 20
0.18417
 30
0.0
 10
-15.45529
 20
0.18417
 30
0.0
 10
-14.14792
 20
-0.45334
 30
0.0
 10
-14.14792
 20
-0.45334
 30
0.0
  0
SPLINE
  5
6C
330
1F
100
AcDbEntity
  8
Layer 1
 62
   250
370
    20
100
AcDbSpline
210
0.0
220
0.0
230
1.0
 70
    11
 71
     3
 72
    14
 73
    10
 74
     0
 42
0.0000000001
 43
0.0000000001
 40
0.0
 40
0.0
 40
0.0
 40
0.0
 40
0.3333333333333333
 40
0.3333333333333333
 40
0.3333333333333333
 40
0.6666666666666666
 40
0.6666666666666666
 40
0.6666666666666666
 40
1.0
 40
1.0
 40
1.0
 40
1.0
 10
-11.27111
 20
-1.68274
 30
0.0
 10
-11.27111
 20
-1.68274
 30
0.0
 10
-12.51571
 20
-0.86392
 30
0.0
 10
-12.51571
 20
-0.86392
 30
0.0
 10
-12.51571
 20
-0.86392
 30
0.0
 10
-9.77266
 20
0.54445
 30
0.0
 10
-9.77266
 20
0.54445
 30
0.0
 10
-9.77266
 20
0.54445
 30
0.0
 10
-11.27111
 20
-1.68274
 30
0.0
 10
-11.27111
 20
-1.68274
 30
0.0
  0
SPLINE
  5
6D
330
1F
100
AcDbEntity
  8
Layer 1
 62
   250
370
    20
100
AcDbSpline
210
0.0
220
0.0
230
1.0
 70
    11
 71
     3
 72
    14
 73
    10
 74
     0
 42
0.0000000001
 43
0.0000000001
 40
0.0
 40
0.0
 40
0.0
 40
0.0
 40
0.3333333333333333
 40
0.3333333333333333
 40
0.3333333333333333
 40
0.6666666666666666
 40
0.6666666666666666
 40
0.6666666666666666
 40
1.0
 40
1.0
 40
1.0
 40
1.0
 10
-13.30179
 20
-2.41149
 30
0.0
 10
-13.30179
 20
-2.41149
 30
0.0
 10
-12.85144
 20
-1.59267
 30
0.0
 10
-12.85144
 20
-1.59267
 30
0.0
 10
-12.85144
 20
-1.59267
 30
0.0
 10
-12.42564
 20
-2.4033
 30
0.0
 10
-12.42564
 20
-2.4033
 30
0.0
 10
-12.42564
 20
-2.4033
 30
0.0
 10
-13.30179
 20
-2.41149
 30
0.0
 10
-13.30179
 20
-2.41149
 30
0.0
  0
SPLINE
  5
6E
330
1F
100
AcDbEntity
  8
Layer 1
 62
   250
370
    20
100
AcDbSpline
210
0.0
220
0.0
230
1.0
 70
     8
 71
     3
 72
    11
 73
     7
 74
     0
 42
0.0000000001
 43
0.0000000001
 40
0.0
 40
0.0
 40
0.0
 40
0.0
 40
0.5
 40
0.5
 40
0.5
 40
1.0
 40
1.0
 40
1.0
 40
1.0
 10
-15.50522
 20
-2.51547
 30
0.0
 10
-15.4654
 20
-2.62296
 30
0.0
 10
-15.42024
 20
-2.73578
 30
0.0
 10
-15.37204
 20
-2.8441
 30
0.0
 10
-15.34377
 20
-2.90761
 30
0.0
 10
-15.31444
 20
-2.96959
 30
0.0
 10
-15.28386
 20
-3.03006
 30
0.0
  0
SPLINE
  5
6F
330
1F
100
AcDbEntity
  8
Layer 1
 62
   250
370
    20
100
AcDbSpline
210
0.0
220
0.0
230
1.0
 70
     8
 71
     3
 72
    11
 73
     7
 74
     0
 42
0.0000000001
 43
0.0000000001
 40
0.0
 40
0.0
 40
0.0
 40
0.0
 40
0.5
 40
0.5
 40
0.5
 40
1.0
 40
1.0
 40
1.0
 40
1.0
 10
-15.04796
 20
-3.42691
 30
0.0
 10
-15.01838
 20
-3.46914
 30
0.0
 10
-14.98768
 20
-3.51051
 30
0.0
 10
-14.9558
 20
-3.55102
 30
0.0
 10
-14.91073
 20
-3.60827
 30
0.0
 10
-14.86326
 20
-3.66383
 30
0.0
 10
-14.81313
 20
-3.7175
 30
0.0
  0
SPLINE
  5
70
330
1F
100
AcDbEntity
  8
Layer 1
 62
   250
370
    20
100
AcDbSpline
210
0.0
220
0.0
230
1.0
 70
     8
 71
     3
 72
     8
 73
     4
 74
     0
 42
0.0000000001
 43
0.0000000001
 40
0.0
 40
0.0
 40
0.0
 40
0.0
 40
1.0
 40
1.0
 40
1.0
 40
1.0
 10
-14.18108
 20
-4.20087
 30
0.0
 10
-14.08106
 20
-4.25325
 30
0.0
 10
-13.97373
 20
-4.29968
 30
0.0
 10
-13.85772
 20
-4.33776
 30
0.0
  0
SPLINE
  5
71
330
1F
100
AcDbEntity
  8
Layer 1
 62
   250
370
    20
100
AcDbSpline
210
0.0
220
0.0
230
1.0
 70
     8
 71
     3
 72
    11
 73
     7
 74
     0
 42
0.0000000001
 43
0.0000000001
 40
0.0
 40
0.0
 40
0.0
 40
0.0
 40
0.5
 40
0.5
 40
0.5
 40
1.0
 40
1.0
 40
1.0
 40
1.0
 10
-13.7563
 20
-4.36825
 30
0.0
 10
-13.65789
 20
-4.39518
 30
0.0
 10
-13.55348
 20
-4.41615
 30
0.0
 10
-13.44235
 20
-4.42988
 30
0.0
 10
-13.43802
 20
-4.43041
 30
0.0
 10
-13.43368
 20
-4.43095
 30
0.0
 10
-13.42933
 20
-4.43146
 30
0.0
  0
SPLINE
  5
72
330
1F
100
AcDbEntity
  8
Layer 1
 62
   250
370
    20
100
AcDbSpline
210
0.0
220
0.0
230
1.0
 70
     8
 71
     3
 72
    11
 73
     7
 74
     0
 42
0.0000000001
 43
0.0000000001
 40
0.0
 40
0.0
 40
0.0
 40
0.0
 40
0.5
 40
0.5
 40
0.5
 40
1.0
 40
1.0
 40
1.0
 40
1.0
 10
-12.62194
 20
-4.40655
 30
0.0
 10
-12.49093
 20
-4.38437
 30
0.0
 10
-12.35943
 20
-4.35321
 30
0.0
 10
-12.2305
 20
-4.31252
 30
0.0
 10
-12.0973
 20
-4.27048
 30
0.0
 10
-11.96684
 20
-4.21825
 30
0.0
 10
-11.84059
 20
-4.15831
 30
0.0
  0
SPLINE
  5
73
330
1F
100
AcDbEntity
  8
Layer 1
 62
   250
370
    20
100
AcDbSpline
210
0.0
220
0.0
230
1.0
 70
     8
 71
     3
 72
    11
 73
     7
 74
     0
 42
0.0000000001
 43
0.0000000001
 40
0.0
 40
0.0
 40
0.0
 40
0.0
 40
0.5
 40
0.5
 40
0.5
 40
1.0
 40
1.0
 40
1.0
 40
1.0
 10
-11.38941
 20
-3.90188
 30
0.0
 10
-11.29498
 20
-3.83907
 30
0.0
 10
-11.20476
 20
-3.77304
 30
0.0
 10
-11.11962
 20
-3.70523
 30
0.0
 10
-11.00186
 20
-3.61143
 30
0.0
 10
-10.89381
 20
-3.5142
 30
0.0
 10
-10.79463
 20
-3.41497
 30
0.0
  0
SPLINE
  5
74
330
1F
100
AcDbEntity
  8
Layer 1
 62
   250
370
    20
100
AcDbSpline
210
0.0
220
0.0
230
1.0
 70
     8
 71
     3
 72
    23
 73
    19
 74
     0
 42
0.0000000001
 43
0.0000000001
 40
0.0
 40
0.0
 40
0.0
 40
0.0
 40
0.1666666666666667
 40
0.1666666666666667
 40
0.1666666666666667
 40
0.3333333333333333
 40
0.3333333333333333
 40
0.3333333333333333
 40
0.5
 40
0.5
 40
0.5
 40
0.6666666666666666
 40
0.6666666666666666
 40
0.6666666666666666
 40
0.8333333333333333
 40
0.8333333333333333
 40
0.8333333333333333
 40
1.0
 40
1.0
 40
1.0
 40
1.0
 10
-10.41578
 20
-2.97412
 30
0.0
 10
-10.39891
 20
-2.95125
 30
0.0
 10
-10.38242
 20
-2.92836
 30
0.0
 10
-10.36631
 20
-2.90551
 30
0.0
 10
-10.1739
 20
-2.63257
 30
0.0
 10
-10.03469
 20
-2.36236
 30
0.0
 10
-9.94325
 20
-2.15356
 30
0.0
 10
-9.85182
 20
-1.94476
 30
0.0
 10
-9.80815
 20
-1.79738
 30
0.0
 10
-9.80678
 20
-1.74279
 30
0.0
 10
-9.80542
 20
-1.6882
 30
0.0
 10
-9.84636
 20
-1.72641
 30
0.0
 10
-9.93506
 20
-1.81375
 30
0.0
 10
-10.02377
 20
-1.90109
 30
0.0
 10
-10.16024
 20
-2.03756
 30
0.0
 10
-10.33355
 20
-2.17949
 30
0.0
 10
-10.34058
 20
-2.18525
 30
0.0
 10
-10.34768
 20
-2.19102
 30
0.0
 10
-10.35482
 20
-2.19679
 30
0.0
  0
SPLINE
  5
75
330
1F
100
AcDbEntity
  8
Layer 1
 62
   250
370
    20
100
AcDbSpline
210
0.0
220
0.0
230
1.0
 70
     8
 71
     3
 72
    11
 73
     7
 74
     0
 42
0.0000000001
 43
0.0000000001
 40
0.0
 40
0.0
 40
0.0
 40
0.0
 40
0.5
 40
0.5
 40
0.5
 40
1.0
 40
1.0
 40
1.0
 40
1.0
 10
-10.53263
 20
-2.33262
 30
0.0
 10
-10.65923
 20
-2.42418
 30
0.0
 10
-10.79803
 20
-2.51418
 30
0.0
 10
-10.94358
 20
-2.59572
 30
0.0
 10
-11.04954
 20
-2.65508
 30
0.0
 10
-11.15909
 20
-2.70997
 30
0.0
 10
-11.27878
 20
-2.7615
 30
0.0
  0
SPLINE
  5
76
330
1F
100
AcDbEntity
  8
Layer 1
 62
   250
370
    20
100
AcDbSpline
210
0.0
220
0.0
230
1.0
 70
     8
 71
     3
 72
    11
 73
     7
 74
     0
 42
0.0000000001
 43
0.0000000001
 40
0.0
 40
0.0
 40
0.0
 40
0.0
 40
0.5
 40
0.5
 40
0.5
 40
1.0
 40
1.0
 40
1.0
 40
1.0
 10
-11.59878
 20
-2.88257
 30
0.0
 10
-11.64307
 20
-2.89727
 30
0.0
 10
-11.6889
 20
-2.91174
 30
0.0
 10
-11.73647
 20
-2.92598
 30
0.0
 10
-11.86671
 20
-2.965
 30
0.0
 10
-12.01001
 20
-3.00247
 30
0.0
 10
-12.16056
 20
-3.03518
 30
0.0
  0
SPLINE
  5
77
330
1F
100
AcDbEntity
  8
Layer 1
 62
   250
370
    20
100
AcDbSpline
210
0.0
220
0.0
230
1.0
 70
     8
 71
     3
 72
    11
 73
     7
 74
     0
 42
0.0000000001
 43
0.0000000001
 40
0.0
 40
0.0
 40
0.0
 40
0.0
 40
0.5
 40
0.5
 40
0.5
 40
1.0
 40
1.0
 40
1.0
 40
1.0
 10
-12.76125
 20
-3.13058
 30
0.0
 10
-12.79405
 20
-3.13372
 30
0.0
 10
-12.82688
 20
-3.1365
 30
0.0
 10
-12.85962
 20
-3.13887
 30
0.0
 10
-12.98892
 20
-3.14823
 30
0.0
 10
-13.11735
 20
-3.15132
 30
0.0
 10
-13.24276
 20
-3.14859
 30
0.0
  0
SPLINE
  5
78
330
1F
100
AcDbEntity
  8
Layer 1
 62
   250
370
    20
100
AcDbSpline
210
0.0
220
0.0
230
1.0
 70
     8
 71
     3
 72
    11
 73
     7
 74
     0
 42
0.0000000001
 43
0.0000000001
 40
0.0
 40
0.0
 40
0.0
 40
0.0
 40
0.5
 40
0.5
 40
0.5
 40
1.0
 40
1.0
 40
1.0
 40
1.0
 10
-13.66996
 20
-3.11533
 30
0.0
 10
-13.77176
 20
-3.10131
 30
0.0
 10
-13.86925
 20
-3.08312
 30
0.0
 10
-13.96094
 20
-3.06109
 30
0.0
 10
-14.03651
 20
-3.04292
 30
0.0
 10
-14.10816
 20
-3.02213
 30
0.0
 10
-14.17651
 20
-2.99886
 30
0.0
  0
SPLINE
  5
79
330
1F
100
AcDbEntity
  8
Layer 1
 62
   250
370
    20
100
AcDbSpline
210
0.0
220
0.0
230
1.0
 70
     8
 71
     3
 72
    11
 73
     7
 74
     0
 42
0.0000000001
 43
0.0000000001
 40
0.0
 40
0.0
 40
0.0
 40
0.0
 40
0.5
 40
0.5
 40
0.5
 40
1.0
 40
1.0
 40
1.0
 40
1.0
 10
-14.54792
 20
-2.83276
 30
0.0
 10
-14.61922
 20
-2.79256
 30
0.0
 10
-14.68747
 20
-2.74894
 30
0.0
 10
-14.75383
 20
-2.70217
 30
0.0
 10
-14.81252
 20
-2.6608
 30
0.0
 10
-14.86975
 20
-2.61695
 30
0.0
 10
-14.9249
 20
-2.5719
 30
0.0
  0
SPLINE
  5
7A
330
1F
100
AcDbEntity
  8
Layer 1
 62
   250
370
    20
100
AcDbSpline
210
0.0
220
0.0
230
1.0
 70
     8
 71
     3
 72
    20
 73
    16
 74
     0
 42
0.0000000001
 43
0.0000000001
 40
0.0
 40
0.0
 40
0.0
 40
0.0
 40
0.2
 40
0.2
 40
0.2
 40
0.4
 40
0.4
 40
0.4
 40
0.6000000000000001
 40
0.6000000000000001
 40
0.6000000000000001
 40
0.8
 40
0.8
 40
0.8
 40
1.0
 40
1.0
 40
1.0
 40
1.0
 10
-15.24847
 20
-2.27394
 30
0.0
 10
-15.27815
 20
-2.24342
 30
0.0
 10
-15.30621
 20
-2.21361
 30
0.0
 10
-15.33245
 20
-2.18495
 30
0.0
 10
-15.47984
 20
-2.02392
 30
0.0
 10
-15.56992
 20
-1.89836
 30
0.0
 10
-15.61905
 20
-1.84241
 30
0.0
 10
-15.66818
 20
-1.78646
 30
0.0
 10
-15.67637
 20
-1.80011
 30
0.0
 10
-15.68046
 20
-1.83968
 30
0.0
 10
-15.68456
 20
-1.87926
 30
0.0
 10
-15.68456
 20
-1.94476
 30
0.0
 10
-15.63543
 20
-2.12081
 30
0.0
 10
-15.61859
 20
-2.18114
 30
0.0
 10
-15.59597
 20
-2.25446
 30
0.0
 10
-15.56886
 20
-2.33528
 30
0.0
  0
SPLINE
  5
7B
330
1F
100
AcDbEntity
  8
Layer 1
 62
   250
370
    20
100
AcDbSpline
210
0.0
220
0.0
230
1.0
 70
     8
 71
     3
 72
    11
 73
     7
 74
     0
 42
0.0000000001
 43
0.0000000001
 40
0.0
 40
0.0
 40
0.0
 40
0.0
 40
0.5
 40
0.5
 40
0.5
 40
1.0
 40
1.0
 40
1.0
 40
1.0
 10
-15.56886
 20
-2.33528
 30
0.0
 10
-15.56886
 20
-2.33528
 30
0.0
 10
-15.38874
 20
-2.3642
 30
0.0
 10
-15.38874
 20
-2.3642
 30
0.0
 10
-15.38874
 20
-2.3642
 30
0.0
 10
-15.50522
 20
-2.51547
 30
0.0
 10
-15.50522
 20
-2.51547
 30
0.0
  0
SPLINE
  5
7C
330
1F
100
AcDbEntity
  8
Layer 1
 62
   250
370
    20
100
AcDbSpline
210
0.0
220
0.0
230
1.0
 70
     8
 71
     3
 72
    11
 73
     7
 74
     0
 42
0.0000000001
 43
0.0000000001
 40
0.0
 40
0.0
 40
0.0
 40
0.0
 40
0.5
 40
0.5
 40
0.5
 40
1.0
 40
1.0
 40
1.0
 40
1.0
 10
-15.24847
 20
-2.27393
 30
0.0
 10
-15.24847
 20
-2.27393
 30
0.0
 10
-15.1728
 20
-2.73944
 30
0.0
 10
-15.1728
 20
-2.73944
 30
0.0
 10
-15.1728
 20
-2.73944
 30
0.0
 10
-14.9249
 20
-2.5719
 30
0.0
 10
-14.9249
 20
-2.5719
 30
0.0
  0
SPLINE
  5
7D
330
1F
100
AcDbEntity
  8
Layer 1
 62
   250
370
    20
100
AcDbSpline
210
0.0
220
0.0
230
1.0
 70
     8
 71
     3
 72
    11
 73
     7
 74
     0
 42
0.0000000001
 43
0.0000000001
 40
0.0
 40
0.0
 40
0.0
 40
0.0
 40
0.5
 40
0.5
 40
0.5
 40
1.0
 40
1.0
 40
1.0
 40
1.0
 10
-15.28386
 20
-3.03006
 30
0.0
 10
-15.28386
 20
-3.03006
 30
0.0
 10
-14.80818
 20
-2.9306
 30
0.0
 10
-14.80818
 20
-2.9306
 30
0.0
 10
-14.80818
 20
-2.9306
 30
0.0
 10
-15.04796
 20
-3.42691
 30
0.0
 10
-15.04796
 20
-3.42691
 30
0.0
  0
SPLINE
  5
7E
330
1F
100
AcDbEntity
  8
Layer 1
 62
   250
370
    20
100
AcDbSpline
210
0.0
220
0.0
230
1.0
 70
     8
 71
     3
 72
    11
 73
     7
 74
     0
 42
0.0000000001
 43
0.0000000001
 40
0.0
 40
0.0
 40
0.0
 40
0.0
 40
0.5
 40
0.5
 40
0.5
 40
1.0
 40
1.0
 40
1.0
 40
1.0
 10
-14.54792
 20
-2.83276
 30
0.0
 10
-14.54792
 20
-2.83276
 30
0.0
 10
-14.61348
 20
-3.21734
 30
0.0
 10
-14.61348
 20
-3.21734
 30
0.0
 10
-14.61348
 20
-3.21734
 30
0.0
 10
-14.17651
 20
-2.99886
 30
0.0
 10
-14.17651
 20
-2.99886
 30
0.0
  0
SPLINE
  5
7F
330
1F
100
AcDbEntity
  8
Layer 1
 62
   250
370
    20
100
AcDbSpline
210
0.0
220
0.0
230
1.0
 70
     8
 71
     3
 72
    11
 73
     7
 74
     0
 42
0.0000000001
 43
0.0000000001
 40
0.0
 40
0.0
 40
0.0
 40
0.0
 40
0.5
 40
0.5
 40
0.5
 40
1.0
 40
1.0
 40
1.0
 40
1.0
 10
-14.81313
 20
-3.7175
 30
0.0
 10
-14.81313
 20
-3.7175
 30
0.0
 10
-14.08955
 20
-3.46869
 30
0.0
 10
-14.08955
 20
-3.46869
 30
0.0
 10
-14.08955
 20
-3.46869
 30
0.0
 10
-14.18108
 20
-4.20087
 30
0.0
 10
-14.18108
 20
-4.20087
 30
0.0
  0
SPLINE
  5
80
330
1F
100
AcDbEntity
  8
Layer 1
 62
   250
370
    20
100
AcDbSpline
210
0.0
220
0.0
230
1.0
 70
     8
 71
     3
 72
    11
 73
     7
 74
     0
 42
0.0000000001
 43
0.0000000001
 40
0.0
 40
0.0
 40
0.0
 40
0.0
 40
0.5
 40
0.5
 40
0.5
 40
1.0
 40
1.0
 40
1.0
 40
1.0
 10
-13.66996
 20
-3.11533
 30
0.0
 10
-13.66996
 20
-3.11533
 30
0.0
 10
-13.62935
 20
-3.49346
 30
0.0
 10
-13.62935
 20
-3.49346
 30
0.0
 10
-13.62935
 20
-3.49346
 30
0.0
 10
-13.24276
 20
-3.14859
 30
0.0
 10
-13.24276
 20
-3.14859
 30
0.0
  0
SPLINE
  5
81
330
1F
100
AcDbEntity
  8
Layer 1
 62
   250
370
    20
100
AcDbSpline
210
0.0
220
0.0
230
1.0
 70
     8
 71
     3
 72
    11
 73
     7
 74
     0
 42
0.0000000001
 43
0.0000000001
 40
0.0
 40
0.0
 40
0.0
 40
0.0
 40
0.5
 40
0.5
 40
0.5
 40
1.0
 40
1.0
 40
1.0
 40
1.0
 10
-13.42933
 20
-4.43146
 30
0.0
 10
-13.42933
 20
-4.43146
 30
0.0
 10
-12.83285
 20
-3.80853
 30
0.0
 10
-12.83285
 20
-3.80853
 30
0.0
 10
-12.83285
 20
-3.80853
 30
0.0
 10
-12.62194
 20
-4.40655
 30
0.0
 10
-12.62194
 20
-4.40655
 30
0.0
  0
SPLINE
  5
82
330
1F
100
AcDbEntity
  8
Layer 1
 62
   250
370
    20
100
AcDbSpline
210
0.0
220
0.0
230
1.0
 70
     8
 71
     3
 72
    11
 73
     7
 74
     0
 42
0.0000000001
 43
0.0000000001
 40
0.0
 40
0.0
 40
0.0
 40
0.0
 40
0.5
 40
0.5
 40
0.5
 40
1.0
 40
1.0
 40
1.0
 40
1.0
 10
-12.76125
 20
-3.13058
 30
0.0
 10
-12.76125
 20
-3.13058
 30
0.0
 10
-12.42928
 20
-3.63506
 30
0.0
 10
-12.42928
 20
-3.63506
 30
0.0
 10
-12.42928
 20
-3.63506
 30
0.0
 10
-12.16056
 20
-3.03518
 30
0.0
 10
-12.16056
 20
-3.03518
 30
0.0
  0
SPLINE
  5
83
330
1F
100
AcDbEntity
  8
Layer 1
 62
   250
370
    20
100
AcDbSpline
210
0.0
220
0.0
230
1.0
 70
     8
 71
     3
 72
    11
 73
     7
 74
     0
 42
0.0000000001
 43
0.0000000001
 40
0.0
 40
0.0
 40
0.0
 40
0.0
 40
0.5
 40
0.5
 40
0.5
 40
1.0
 40
1.0
 40
1.0
 40
1.0
 10
-11.59878
 20
-2.88257
 30
0.0
 10
-11.59878
 20
-2.88257
 30
0.0
 10
-11.27878
 20
-3.17487
 30
0.0
 10
-11.27878
 20
-3.17487
 30
0.0
 10
-11.27878
 20
-3.17487
 30
0.0
 10
-11.27878
 20
-2.7615
 30
0.0
 10
-11.27878
 20
-2.7615
 30
0.0
  0
SPLINE
  5
84
330
1F
100
AcDbEntity
  8
Layer 1
 62
   250
370
    20
100
AcDbSpline
210
0.0
220
0.0
230
1.0
 70
     8
 71
     3
 72
    11
 73
     7
 74
     0
 42
0.0000000001
 43
0.0000000001
 40
0.0
 40
0.0
 40
0.0
 40
0.0
 40
0.5
 40
0.5
 40
0.5
 40
1.0
 40
1.0
 40
1.0
 40
1.0
 10
-11.84059
 20
-4.15831
 30
0.0
 10
-11.84059
 20
-4.15831
 30
0.0
 10
-11.77084
 20
-3.54303
 30
0.0
 10
-11.77084
 20
-3.54303
 30
0.0
 10
-11.77084
 20
-3.54303
 30
0.0
 10
-11.38941
 20
-3.90188
 30
0.0
 10
-11.38941
 20
-3.90188
 30
0.0
  0
SPLINE
  5
85
330
1F
100
AcDbEntity
  8
Layer 1
 62
   250
370
    20
100
AcDbSpline
210
0.0
220
0.0
230
1.0
 70
     8
 71
     3
 72
    11
 73
     7
 74
     0
 42
0.0000000001
 43
0.0000000001
 40
0.0
 40
0.0
 40
0.0
 40
0.0
 40
0.5
 40
0.5
 40
0.5
 40
1.0
 40
1.0
 40
1.0
 40
1.0
 10
-10.79463
 20
-3.41498
 30
0.0
 10
-10.79463
 20
-3.41498
 30
0.0
 10
-10.78671
 20
-2.88458
 30
0.0
 10
-10.78671
 20
-2.88458
 30
0.0
 10
-10.78671
 20
-2.88458
 30
0.0
 10
-10.41578
 20
-2.97412
 30
0.0
 10
-10.41578
 20
-2.97412
 30
0.0
  0
SPLINE
  5
86
330
1F
100
AcDbEntity
  8
Layer 1
 62
   250
370
    20
100
AcDbSpline
210
0.0
220
0.0
230
1.0
 70
     8
 71
     3
 72
    11
 73
     7
 74
     0
 42
0.0000000001
 43
0.0000000001
 40
0.0
 40
0.0
 40
0.0
 40
0.0
 40
0.5
 40
0.5
 40
0.5
 40
1.0
 40
1.0
 40
1.0
 40
1.0
 10
-10.53263
 20
-2.33262
 30
0.0
 10
-10.53263
 20
-2.33262
 30
0.0
 10
-10.33005
 20
-2.48456
 30
0.0
 10
-10.33005
 20
-2.48456
 30
0.0
 10
-10.33005
 20
-2.48456
 30
0.0
 10
-10.35482
 20
-2.19679
 30
0.0
 10
-10.35482
 20
-2.19679
 30
0.0
  0
SPLINE
  5
87
330
1F
100
AcDbEntity
  8
Layer 1
 62
   250
370
    20
100
AcDbSpline
210
0.0
220
0.0
230
1.0
 70
     8
 71
     3
 72
    11
 73
     7
 74
     0
 42
0.0000000001
 43
0.0000000001
 40
0.0
 40
0.0
 40
0.0
 40
0.0
 40
0.5
 40
0.5
 40
0.5
 40
1.0
 40
1.0
 40
1.0
 40
1.0
 10
-14.14792
 20
-0.45334
 30
0.0
 10
-14.14792
 20
-0.45334
 30
0.0
 10
-14.01117
 20
0.3765
 30
0.0
 10
-14.01117
 20
0.3765
 30
0.0
 10
-14.01117
 20
0.3765
 30
0.0
 10
-14.05749
 20
-0.49743
 30
0.0
 10
-14.05749
 20
-0.49743
 30
0.0
  0
SPLINE
  5
88
330
1F
100
AcDbEntity
  8
Layer 1
 62
   250
370
    20
100
AcDbSpline
210
0.0
220
0.0
230
1.0
 70
     8
 71
     3
 72
    11
 73
     7
 74
     0
 42
0.0000000001
 43
0.0000000001
 40
0.0
 40
0.0
 40
0.0
 40
0.0
 40
0.5
 40
0.5
 40
0.5
 40
1.0
 40
1.0
 40
1.0
 40
1.0
 10
-14.84994
 20
-5.52405
 30
0.0
 10
-14.84994
 20
-5.52405
 30
0.0
 10
-14.83165
 20
-5.00477
 30
0.0
 10
-14.83165
 20
-5.00477
 30
0.0
 10
-14.83165
 20
-5.00477
 30
0.0
 10
-14.73663
 20
-5.52405
 30
0.0
 10
-14.73663
 20
-5.52405
 30
0.0
  0
SPLINE
  5
89
330
1F
100
AcDbEntity
  8
Layer 1
 62
   250
370
    20
100
AcDbSpline
210
0.0
220
0.0
230
1.0
 70
     8
 71
     3
 72
    11
 73
     7
 74
     0
 42
0.0000000001
 43
0.0000000001
 40
0.0
 40
0.0
 40
0.0
 40
0.0
 40
0.5
 40
0.5
 40
0.5
 40
1.0
 40
1.0
 40
1.0
 40
1.0
 10
-12.1878
 20
-5.52405
 30
0.0
 10
-12.1878
 20
-5.52405
 30
0.0
 10
-12.08447
 20
-5.27821
 30
0.0
 10
-12.08447
 20
-5.27821
 30
0.0
 10
-12.08447
 20
-5.27821
 30
0.0
 10
-12.03977
 20
-5.52405
 30
0.0
 10
-12.03977
 20
-5.52405
 30
0.0
  0
SPLINE
  5
8A
330
1F
100
AcDbEntity
  8
Layer 1
 62
   250
370
    20
100
AcDbSpline
210
0.0
220
0.0
230
1.0
 70
     8
 71
     3
 72
    11
 73
     7
 74
     0
 42
0.0000000001
 43
0.0000000001
 40
0.0
 40
0.0
 40
0.0
 40
0.0
 40
0.5
 40
0.5
 40
0.5
 40
1.0
 40
1.0
 40
1.0
 40
1.0
 10
-13.85772
 20
-4.33775
 30
0.0
 10
-13.85772
 20
-4.33775
 30
0.0
 10
-13.80301
 20
-4.82518
 30
0.0
 10
-13.80301
 20
-4.82518
 30
0.0
 10
-13.80301
 20
-4.82518
 30
0.0
 10
-13.7563
 20
-4.36825
 30
0.0
 10
-13.7563
 20
-4.36825
 30
0.0
  0
SPLINE
  5
8B
330
1F
100
AcDbEntity
  8
Layer 1
 62
   250
370
    20
100
AcDbSpline
210
0.0
220
0.0
230
1.0
 70
     8
 71
     3
 72
    14
 73
    10
 74
     0
 42
0.0000000001
 43
0.0000000001
 40
0.0
 40
0.0
 40
0.0
 40
0.0
 40
0.3333333333333333
 40
0.3333333333333333
 40
0.3333333333333333
 40
0.6666666666666666
 40
0.6666666666666666
 40
0.6666666666666666
 40
1.0
 40
1.0
 40
1.0
 40
1.0
 10
-12.40382
 20
-5.52405
 30
0.0
 10
-12.40382
 20
-5.52405
 30
0.0
 10
-12.40382
 20
-5.22402
 30
0.0
 10
-12.40382
 20
-5.22402
 30
0.0
 10
-12.40382
 20
-5.22402
 30
0.0
 10
-13.1539
 20
-5.22402
 30
0.0
 10
-13.1539
 20
-5.22402
 30
0.0
 10
-13.1539
 20
-5.22402
 30
0.0
 10
-13.1539
 20
-5.52405
 30
0.0
 10
-13.1539
 20
-5.52405
 30
0.0
  0
SPLINE
  5
8C
330
1F
100
AcDbEntity
  8
Layer 1
 62
   250
370
    20
100
AcDbSpline
210
0.0
220
0.0
230
1.0
 70
    11
 71
     3
 72
    98
 73
    94
 74
     0
 42
0.0000000001
 43
0.0000000001
 40
0.0
 40
0.0
 40
0.0
 40
0.0
 40
0.032258064516129
 40
0.032258064516129
 40
0.032258064516129
 40
0.0645161290322581
 40
0.0645161290322581
 40
0.0645161290322581
 40
0.0967741935483871
 40
0.0967741935483871
 40
0.0967741935483871
 40
0.1290322580645161
 40
0.1290322580645161
 40
0.1290322580645161
 40
0.1612903225806452
 40
0.1612903225806452
 40
0.1612903225806452
 40
0.1935483870967742
 40
0.1935483870967742
 40
0.1935483870967742
 40
0.2258064516129032
 40
0.2258064516129032
 40
0.2258064516129032
 40
0.2580645161290323
 40
0.2580645161290323
 40
0.2580645161290323
 40
0.2903225806451613
 40
0.2903225806451613
 40
0.2903225806451613
 40
0.3225806451612903
 40
0.3225806451612903
 40
0.3225806451612903
 40
0.3548387096774194
 40
0.3548387096774194
 40
0.3548387096774194
 40
0.3870967741935484
 40
0.3870967741935484
 40
0.3870967741935484
 40
0.4193548387096774
 40
0.4193548387096774
 40
0.4193548387096774
 40
0.4516129032258064
 40
0.4516129032258064
 40
0.4516129032258064
 40
0.4838709677419355
 40
0.4838709677419355
 40
0.4838709677419355
 40
0.5161290322580645
 40
0.5161290322580645
 40
0.5161290322580645
 40
0.5483870967741935
 40
0.5483870967741935
 40
0.5483870967741935
 40
0.5806451612903225
 40
0.5806451612903225
 40
0.5806451612903225
 40
0.6129032258064516
 40
0.6129032258064516
 40
0.6129032258064516
 40
0.6451612903225806
 40
0.6451612903225806
 40
0.6451612903225806
 40
0.6774193548387096
 40
0.6774193548387096
 40
0.6774193548387096
 40
0.7096774193548387
 40
0.7096774193548387
 40
0.7096774193548387
 40
0.7419354838709677
 40
0.7419354838709677
 40
0.7419354838709677
 40
0.7741935483870968
 40
0.7741935483870968
 40
0.7741935483870968
 40
0.8064516129032258
 40
0.8064516129032258
 40
0.8064516129032258
 40
0.8387096774193548
 40
0.8387096774193548
 40
0.8387096774193548
 40
0.8709677419354839
 40
0.8709677419354839
 40
0.8709677419354839
 40
0.9032258064516129
 40
0.9032258064516129
 40
0.9032258064516129
 40
0.9354838709677419
 40
0.9354838709677419
 40
0.9354838709677419
 40
0.967741935483871
 40
0.967741935483871
 40
0.967741935483871
 40
1.0
 40
1.0
 40
1.0
 40
1.0
 10
-3.11649
 20
-5.51861
 30
0.0
 10
-3.11649
 20
-5.51861
 30
0.0
 10
-3.02146
 20
-4.99933
 30
0.0
 10
-3.02146
 20
-4.99933
 30
0.0
 10
-3.02146
 20
-4.99933
 30
0.0
 10
-3.00318
 20
-5.51861
 30
0.0
 10
-3.00318
 20
-5.51861
 30
0.0
 10
-3.00318
 20
-5.51861
 30
0.0
 10
-1.32385
 20
-5.51861
 30
0.0
 10
-1.32385
 20
-5.51861
 30
0.0
 10
-1.32385
 20
-5.51861
 30
0.0
 10
-1.32385
 20
1.03968
 30
0.0
 10
-1.32385
 20
1.03968
 30
0.0
 10
-1.32385
 20
1.03968
 30
0.0
 10
-2.1623
 20
1.78735
 30
0.0
 10
-2.1623
 20
1.78735
 30
0.0
 10
-2.1623
 20
1.78735
 30
0.0
 10
-2.66075
 20
1.26042
 30
0.0
 10
-2.66075
 20
1.26042
 30
0.0
 10
-2.66075
 20
1.26042
 30
0.0
 10
-2.68923
 20
0.49137
 30
0.0
 10
-2.68923
 20
0.49137
 30
0.0
 10
-2.68923
 20
0.49137
 30
0.0
 10
-2.76043
 20
1.24617
 30
0.0
 10
-2.76043
 20
1.24617
 30
0.0
 10
-2.76043
 20
1.24617
 30
0.0
 10
-3.75022
 20
1.70903
 30
0.0
 10
-3.75022
 20
1.70903
 30
0.0
 10
-3.75022
 20
1.70903
 30
0.0
 10
-3.84279
 20
1.48828
 30
0.0
 10
-3.84279
 20
1.48828
 30
0.0
 10
-3.84279
 20
1.48828
 30
0.0
 10
-4.4623
 20
1.48828
 30
0.0
 10
-4.4623
 20
1.48828
 30
0.0
 10
-4.4623
 20
1.48828
 30
0.0
 10
-4.4919
 20
1.07823
 30
0.0
 10
-4.4919
 20
1.07823
 30
0.0
 10
-4.4919
 20
1.07823
 30
0.0
 10
-4.6204
 20
1.4905
 30
0.0
 10
-4.6204
 20
1.4905
 30
0.0
 10
-4.6204
 20
1.4905
 30
0.0
 10
-4.92558
 20
1.5012
 30
0.0
 10
-4.92558
 20
1.5012
 30
0.0
 10
-4.92558
 20
1.5012
 30
0.0
 10
-5.64035
 20
1.19602
 30
0.0
 10
-5.64035
 20
1.19602
 30
0.0
 10
-5.64035
 20
1.19602
 30
0.0
 10
-5.99907
 20
1.4664
 30
0.0
 10
-5.99907
 20
1.4664
 30
0.0
 10
-5.99907
 20
1.4664
 30
0.0
 10
-6.02049
 20
1.19602
 30
0.0
 10
-6.02049
 20
1.19602
 30
0.0
 10
-6.02049
 20
1.19602
 30
0.0
 10
-6.11151
 20
1.53065
 30
0.0
 10
-6.11151
 20
1.53065
 30
0.0
 10
-6.11151
 20
1.53065
 30
0.0
 10
-6.62818
 20
1.92953
 30
0.0
 10
-6.62818
 20
1.92953
 30
0.0
 10
-6.62818
 20
1.92953
 30
0.0
 10
-6.95478
 20
1.70733
 30
0.0
 10
-6.95478
 20
1.70733
 30
0.0
 10
-6.95478
 20
1.70733
 30
0.0
 10
-7.90244
 20
1.98221
 30
0.0
 10
-7.90244
 20
1.98221
 30
0.0
 10
-7.90244
 20
1.98221
 30
0.0
 10
-8.82467
 20
1.53601
 30
0.0
 10
-8.82467
 20
1.53601
 30
0.0
 10
-8.82467
 20
1.53601
 30
0.0
 10
-8.82467
 20
-5.51861
 30
0.0
 10
-8.82467
 20
-5.51861
 30
0.0
 10
-8.82467
 20
-5.51861
 30
0.0
 10
-5.81334
 20
-5.51861
 30
0.0
 10
-5.81334
 20
-5.51861
 30
0.0
 10
-5.81334
 20
-5.51861
 30
0.0
 10
-5.76865
 20
-5.27277
 30
0.0
 10
-5.76865
 20
-5.27277
 30
0.0
 10
-5.76865
 20
-5.27277
 30
0.0
 10
-5.66532
 20
-5.51861
 30
0.0
 10
-5.66532
 20
-5.51861
 30
0.0
 10
-5.66532
 20
-5.51861
 30
0.0
 10
-5.4493
 20
-5.51861
 30
0.0
 10
-5.4493
 20
-5.51861
 30
0.0
 10
-5.4493
 20
-5.51861
 30
0.0
 10
-5.4493
 20
-5.21858
 30
0.0
 10
-5.4493
 20
-5.21858
 30
0.0
 10
-5.4493
 20
-5.21858
 30
0.0
 10
-4.69922
 20
-5.21858
 30
0.0
 10
-4.69922
 20
-5.21858
 30
0.0
 10
-4.69922
 20
-5.21858
 30
0.0
 10
-4.69922
 20
-5.51861
 30
0.0
 10
-4.69922
 20
-5.51861
 30
0.0
 10
-4.69922
 20
-5.51861
 30
0.0
 10
-3.11649
 20
-5.51861
 30
0.0
 10
-3.11649
 20
-5.51861
 30
0.0
  0
SPLINE
  5
8D
330
1F
100
AcDbEntity
  8
Layer 1
 62
   250
370
    20
100
AcDbSpline
210
0.0
220
0.0
230
1.0
 70
     8
 71
     3
 72
    11
 73
     7
 74
     0
 42
0.0000000001
 43
0.0000000001
 40
0.0
 40
0.0
 40
0.0
 40
0.0
 40
0.5
 40
0.5
 40
0.5
 40
1.0
 40
1.0
 40
1.0
 40
1.0
 10
-8.58772
 20
-7.20005
 30
0.0
 10
-8.58772
 20
-7.20005
 30
0.0
 10
-8.58772
 20
-5.61172
 30
0.0
 10
-8.58772
 20
-5.61172
 30
0.0
 10
-8.58772
 20
-5.61172
 30
0.0
 10
-5.21236
 20
-5.61172
 30
0.0
 10
-5.21236
 20
-5.61172
 30
0.0
  0
SPLINE
  5
8E
330
1F
100
AcDbEntity
  8
Layer 1
 62
   250
370
    20
100
AcDbSpline
210
0.0
220
0.0
230
1.0
 70
     8
 71
     3
 72
    11
 73
     7
 74
     0
 42
0.0000000001
 43
0.0000000001
 40
0.0
 40
0.0
 40
0.0
 40
0.0
 40
0.5
 40
0.5
 40
0.5
 40
1.0
 40
1.0
 40
1.0
 40
1.0
 10
-4.46226
 20
-5.61172
 30
0.0
 10
-4.46226
 20
-5.61172
 30
0.0
 10
-1.08689
 20
-5.61172
 30
0.0
 10
-1.08689
 20
-5.61172
 30
0.0
 10
-1.08689
 20
-5.61172
 30
0.0
 10
-1.08689
 20
-7.77777
 30
0.0
 10
-1.08689
 20
-7.77777
 30
0.0
  0
SPLINE
  5
8F
330
1F
100
AcDbEntity
  8
Layer 1
 62
   250
370
    20
100
AcDbSpline
210
0.0
220
0.0
230
1.0
 70
     8
 71
     3
 72
    47
 73
    43
 74
     0
 42
0.0000000001
 43
0.0000000001
 40
0.0
 40
0.0
 40
0.0
 40
0.0
 40
0.0714285714285714
 40
0.0714285714285714
 40
0.0714285714285714
 40
0.1428571428571428
 40
0.1428571428571428
 40
0.1428571428571428
 40
0.2142857142857143
 40
0.2142857142857143
 40
0.2142857142857143
 40
0.2857142857142857
 40
0.2857142857142857
 40
0.2857142857142857
 40
0.3571428571428571
 40
0.3571428571428571
 40
0.3571428571428571
 40
0.4285714285714285
 40
0.4285714285714285
 40
0.4285714285714285
 40
0.5
 40
0.5
 40
0.5
 40
0.5714285714285714
 40
0.5714285714285714
 40
0.5714285714285714
 40
0.6428571428571428
 40
0.6428571428571428
 40
0.6428571428571428
 40
0.7142857142857142
 40
0.7142857142857142
 40
0.7142857142857142
 40
0.7857142857142857
 40
0.7857142857142857
 40
0.7857142857142857
 40
0.8571428571428571
 40
0.8571428571428571
 40
0.8571428571428571
 40
0.9285714285714285
 40
0.9285714285714285
 40
0.9285714285714285
 40
1.0
 40
1.0
 40
1.0
 40
1.0
 10
-1.08689
 20
-7.77777
 30
0.0
 10
-1.08689
 20
-7.77777
 30
0.0
 10
-1.41972
 20
-7.50525
 30
0.0
 10
-1.41972
 20
-7.50525
 30
0.0
 10
-1.41972
 20
-7.50525
 30
0.0
 10
-2.38592
 20
-7.39997
 30
0.0
 10
-2.38592
 20
-7.39997
 30
0.0
 10
-2.38592
 20
-7.39997
 30
0.0
 10
-2.4107
 20
-6.81157
 30
0.0
 10
-2.4107
 20
-6.81157
 30
0.0
 10
-2.4107
 20
-6.81157
 30
0.0
 10
-2.50981
 20
-7.62914
 30
0.0
 10
-2.50981
 20
-7.62914
 30
0.0
 10
-2.50981
 20
-7.62914
 30
0.0
 10
-3.99008
 20
-7.2761
 30
0.0
 10
-3.99008
 20
-7.2761
 30
0.0
 10
-3.99008
 20
-7.2761
 30
0.0
 10
-4.71474
 20
-7.54862
 30
0.0
 10
-4.71474
 20
-7.54862
 30
0.0
 10
-4.71474
 20
-7.54862
 30
0.0
 10
-5.26597
 20
-6.91067
 30
0.0
 10
-5.26597
 20
-6.91067
 30
0.0
 10
-5.26597
 20
-6.91067
 30
0.0
 10
-5.55522
 20
-6.96741
 30
0.0
 10
-5.55522
 20
-6.96741
 30
0.0
 10
-5.55522
 20
-6.96741
 30
0.0
 10
-5.69777
 20
-6.61718
 30
0.0
 10
-5.69777
 20
-6.61718
 30
0.0
 10
-5.69777
 20
-6.61718
 30
0.0
 10
-5.78328
 20
-7.04072
 30
0.0
 10
-5.78328
 20
-7.04072
 30
0.0
 10
-5.78328
 20
-7.04072
 30
0.0
 10
-6.53262
 20
-7.26878
 30
0.0
 10
-6.53262
 20
-7.26878
 30
0.0
 10
-6.53262
 20
-7.26878
 30
0.0
 10
-7.68106
 20
-6.86154
 30
0.0
 10
-7.68106
 20
-6.86154
 30
0.0
 10
-7.68106
 20
-6.86154
 30
0.0
 10
-7.9417
 20
-7.25657
 30
0.0
 10
-7.9417
 20
-7.25657
 30
0.0
 10
-7.9417
 20
-7.25657
 30
0.0
 10
-8.58772
 20
-7.20005
 30
0.0
 10
-8.58772
 20
-7.20005
 30
0.0
  0
SPLINE
  5
90
330
1F
100
AcDbEntity
  8
Layer 1
 62
   250
370
    20
100
AcDbSpline
210
0.0
220
0.0
230
1.0
 70
     8
 71
     3
 72
    14
 73
    10
 74
     0
 42
0.0000000001
 43
0.0000000001
 40
0.0
 40
0.0
 40
0.0
 40
0.0
 40
0.3333333333333333
 40
0.3333333333333333
 40
0.3333333333333333
 40
0.6666666666666666
 40
0.6666666666666666
 40
0.6666666666666666
 40
1.0
 40
1.0
 40
1.0
 40
1.0
 10
-5.21236
 20
-5.61172
 30
0.0
 10
-5.21236
 20
-5.61172
 30
0.0
 10
-5.21236
 20
-5.91175
 30
0.0
 10
-5.21236
 20
-5.91175
 30
0.0
 10
-5.21236
 20
-5.91175
 30
0.0
 10
-4.46226
 20
-5.91175
 30
0.0
 10
-4.46226
 20
-5.91175
 30
0.0
 10
-4.46226
 20
-5.91175
 30
0.0
 10
-4.46226
 20
-5.61172
 30
0.0
 10
-4.46226
 20
-5.61172
 30
0.0
  0
SPLINE
  5
91
330
1F
100
AcDbEntity
  8
Layer 1
 62
   250
370
    20
100
AcDbSpline
210
0.0
220
0.0
230
1.0
 70
    11
 71
     3
 72
    65
 73
    61
 74
     0
 42
0.0000000001
 43
0.0000000001
 40
0.0
 40
0.0
 40
0.0
 40
0.0
 40
0.05
 40
0.05
 40
0.05
 40
0.1
 40
0.1
 40
0.1
 40
0.15
 40
0.15
 40
0.15
 40
0.2
 40
0.2
 40
0.2
 40
0.25
 40
0.25
 40
0.25
 40
0.3
 40
0.3
 40
0.3
 40
0.35
 40
0.35
 40
0.35
 40
0.4
 40
0.4
 40
0.4
 40
0.45
 40
0.45
 40
0.45
 40
0.5
 40
0.5
 40
0.5
 40
0.55
 40
0.55
 40
0.55
 40
0.6000000000000001
 40
0.6000000000000001
 40
0.6000000000000001
 40
0.65
 40
0.65
 40
0.65
 40
0.7000000000000001
 40
0.7000000000000001
 40
0.7000000000000001
 40
0.75
 40
0.75
 40
0.75
 40
0.8
 40
0.8
 40
0.8
 40
0.8500000000000001
 40
0.8500000000000001
 40
0.8500000000000001
 40
0.9
 40
0.9
 40
0.9
 40
0.9500000000000001
 40
0.9500000000000001
 40
0.9500000000000001
 40
1.0
 40
1.0
 40
1.0
 40
1.0
 10
16.83655
 20
10.99231
 30
0.0
 10
16.83655
 20
10.99231
 30
0.0
 10
19.91188
 20
10.99231
 30
0.0
 10
19.91188
 20
10.99231
 30
0.0
 10
19.91188
 20
10.99231
 30
0.0
 10
19.91188
 20
7.61694
 30
0.0
 10
19.91188
 20
7.61694
 30
0.0
 10
19.91188
 20
7.61694
 30
0.0
 10
20.21192
 20
7.61694
 30
0.0
 10
20.21192
 20
7.61694
 30
0.0
 10
20.21192
 20
7.61694
 30
0.0
 10
20.21192
 20
6.86686
 30
0.0
 10
20.21192
 20
6.86686
 30
0.0
 10
20.21192
 20
6.86686
 30
0.0
 10
19.91188
 20
6.86686
 30
0.0
 10
19.91188
 20
6.86686
 30
0.0
 10
19.91188
 20
6.86686
 30
0.0
 10
19.91188
 20
3.49149
 30
0.0
 10
19.91188
 20
3.49149
 30
0.0
 10
19.91188
 20
3.49149
 30
0.0
 10
16.83655
 20
3.49149
 30
0.0
 10
16.83655
 20
3.49149
 30
0.0
 10
16.83655
 20
3.49149
 30
0.0
 10
16.83655
 20
3.19145
 30
0.0
 10
16.83655
 20
3.19145
 30
0.0
 10
16.83655
 20
3.19145
 30
0.0
 10
16.08646
 20
3.19145
 30
0.0
 10
16.08646
 20
3.19145
 30
0.0
 10
16.08646
 20
3.19145
 30
0.0
 10
16.08646
 20
3.49149
 30
0.0
 10
16.08646
 20
3.49149
 30
0.0
 10
16.08646
 20
3.49149
 30
0.0
 10
13.01113
 20
3.49149
 30
0.0
 10
13.01113
 20
3.49149
 30
0.0
 10
13.01113
 20
3.49149
 30
0.0
 10
13.01113
 20
6.86686
 30
0.0
 10
13.01113
 20
6.86686
 30
0.0
 10
13.01113
 20
6.86686
 30
0.0
 10
12.71109
 20
6.86686
 30
0.0
 10
12.71109
 20
6.86686
 30
0.0
 10
12.71109
 20
6.86686
 30
0.0
 10
12.71109
 20
7.61694
 30
0.0
 10
12.71109
 20
7.61694
 30
0.0
 10
12.71109
 20
7.61694
 30
0.0
 10
13.01113
 20
7.61694
 30
0.0
 10
13.01113
 20
7.61694
 30
0.0
 10
13.01113
 20
7.61694
 30
0.0
 10
13.01113
 20
10.99231
 30
0.0
 10
13.01113
 20
10.99231
 30
0.0
 10
13.01113
 20
10.99231
 30
0.0
 10
16.08646
 20
10.99231
 30
0.0
 10
16.08646
 20
10.99231
 30
0.0
 10
16.08646
 20
10.99231
 30
0.0
 10
16.08646
 20
11.29234
 30
0.0
 10
16.08646
 20
11.29234
 30
0.0
 10
16.08646
 20
11.29234
 30
0.0
 10
16.83655
 20
11.29234
 30
0.0
 10
16.83655
 20
11.29234
 30
0.0
 10
16.83655
 20
11.29234
 30
0.0
 10
16.83655
 20
10.99231
 30
0.0
 10
16.83655
 20
10.99231
 30
0.0
  0
SPLINE
  5
92
330
1F
100
AcDbEntity
  8
Layer 1
 62
   250
370
    20
100
AcDbSpline
210
0.0
220
0.0
230
1.0
 70
     8
 71
     3
 72
    50
 73
    46
 74
     0
 42
0.0000000001
 43
0.0000000001
 40
0.0
 40
0.0
 40
0.0
 40
0.0
 40
0.0666666666666667
 40
0.0666666666666667
 40
0.0666666666666667
 40
0.1333333333333333
 40
0.1333333333333333
 40
0.1333333333333333
 40
0.2
 40
0.2
 40
0.2
 40
0.2666666666666667
 40
0.2666666666666667
 40
0.2666666666666667
 40
0.3333333333333333
 40
0.3333333333333333
 40
0.3333333333333333
 40
0.4
 40
0.4
 40
0.4
 40
0.4666666666666667
 40
0.4666666666666667
 40
0.4666666666666667
 40
0.5333333333333333
 40
0.5333333333333333
 40
0.5333333333333333
 40
0.6
 40
0.6
 40
0.6
 40
0.6666666666666666
 40
0.6666666666666666
 40
0.6666666666666666
 40
0.7333333333333333
 40
0.7333333333333333
 40
0.7333333333333333
 40
0.8
 40
0.8
 40
0.8
 40
0.8666666666666667
 40
0.8666666666666667
 40
0.8666666666666667
 40
0.9333333333333333
 40
0.9333333333333333
 40
0.9333333333333333
 40
1.0
 40
1.0
 40
1.0
 40
1.0
 10
-12.23839
 20
-12.93116
 30
0.0
 10
-12.23839
 20
-12.93116
 30
0.0
 10
-12.97215
 20
-12.93116
 30
0.0
 10
-12.97215
 20
-12.93116
 30
0.0
 10
-12.97215
 20
-12.93116
 30
0.0
 10
-12.97215
 20
-12.42491
 30
0.0
 10
-12.97215
 20
-12.42491
 30
0.0
 10
-12.97215
 20
-12.42491
 30
0.0
 10
-12.67212
 20
-12.42491
 30
0.0
 10
-12.67212
 20
-12.42491
 30
0.0
 10
-12.67212
 20
-12.42491
 30
0.0
 10
-12.67212
 20
-11.91867
 30
0.0
 10
-12.67212
 20
-11.91867
 30
0.0
 10
-12.67212
 20
-11.91867
 30
0.0
 10
-12.97215
 20
-11.91867
 30
0.0
 10
-12.97215
 20
-11.91867
 30
0.0
 10
-12.97215
 20
-11.91867
 30
0.0
 10
-12.97215
 20
-11.41242
 30
0.0
 10
-12.97215
 20
-11.41242
 30
0.0
 10
-12.97215
 20
-11.41242
 30
0.0
 10
-12.67212
 20
-11.41242
 30
0.0
 10
-12.67212
 20
-11.41242
 30
0.0
 10
-12.67212
 20
-11.41242
 30
0.0
 10
-12.67212
 20
-10.90618
 30
0.0
 10
-12.67212
 20
-10.90618
 30
0.0
 10
-12.67212
 20
-10.90618
 30
0.0
 10
-12.97215
 20
-10.90618
 30
0.0
 10
-12.97215
 20
-10.90618
 30
0.0
 10
-12.97215
 20
-10.90618
 30
0.0
 10
-12.97215
 20
-10.39996
 30
0.0
 10
-12.97215
 20
-10.39996
 30
0.0
 10
-12.97215
 20
-10.39996
 30
0.0
 10
-12.46151
 20
-10.39996
 30
0.0
 10
-12.46151
 20
-10.39996
 30
0.0
 10
-12.3097
 20
-11.07618
 30
0.0
 10
-12.34434
 20
-11.05681
 30
0.0
 10
-12.15042
 20
-11.26481
 30
0.0
 10
-12.16187
 20
-11.78697
 30
0.0
 10
-12.04668
 20
-12.11422
 30
0.0
 10
-11.48274
 20
-12.08553
 30
0.0
 10
-11.52509
 20
-12.27419
 30
0.0
 10
-11.54516
 20
-12.36981
 30
0.0
 10
-11.54294
 20
-12.3724
 30
0.0
 10
-11.97118
 20
-12.41986
 30
0.0
 10
-12.20374
 20
-12.61229
 30
0.0
 10
-12.24064
 20
-12.94968
 30
0.0
  0
SPLINE
  5
93
330
1F
100
AcDbEntity
  8
Layer 1
 62
   250
370
    20
100
AcDbSpline
210
0.0
220
0.0
230
1.0
 70
     8
 71
     3
 72
    50
 73
    46
 74
     0
 42
0.0000000001
 43
0.0000000001
 40
0.0
 40
0.0
 40
0.0
 40
0.0
 40
0.0666666666666667
 40
0.0666666666666667
 40
0.0666666666666667
 40
0.1333333333333333
 40
0.1333333333333333
 40
0.1333333333333333
 40
0.2
 40
0.2
 40
0.2
 40
0.2666666666666667
 40
0.2666666666666667
 40
0.2666666666666667
 40
0.3333333333333333
 40
0.3333333333333333
 40
0.3333333333333333
 40
0.4
 40
0.4
 40
0.4
 40
0.4666666666666667
 40
0.4666666666666667
 40
0.4666666666666667
 40
0.5333333333333333
 40
0.5333333333333333
 40
0.5333333333333333
 40
0.6
 40
0.6
 40
0.6
 40
0.6666666666666666
 40
0.6666666666666666
 40
0.6666666666666666
 40
0.7333333333333333
 40
0.7333333333333333
 40
0.7333333333333333
 40
0.8
 40
0.8
 40
0.8
 40
0.8666666666666667
 40
0.8666666666666667
 40
0.8666666666666667
 40
0.9333333333333333
 40
0.9333333333333333
 40
0.9333333333333333
 40
1.0
 40
1.0
 40
1.0
 40
1.0
 10
-10.57707
 20
-12.93116
 30
0.0
 10
-10.57707
 20
-12.93116
 30
0.0
 10
-10.14334
 20
-12.93116
 30
0.0
 10
-10.14334
 20
-12.93116
 30
0.0
 10
-10.14334
 20
-12.93116
 30
0.0
 10
-10.14334
 20
-12.42491
 30
0.0
 10
-10.14334
 20
-12.42491
 30
0.0
 10
-10.14334
 20
-12.42491
 30
0.0
 10
-9.84331
 20
-12.42491
 30
0.0
 10
-9.84331
 20
-12.42491
 30
0.0
 10
-9.84331
 20
-12.42491
 30
0.0
 10
-9.84331
 20
-11.9187
 30
0.0
 10
-9.84331
 20
-11.9187
 30
0.0
 10
-9.84331
 20
-11.9187
 30
0.0
 10
-10.14334
 20
-11.9187
 30
0.0
 10
-10.14334
 20
-11.9187
 30
0.0
 10
-10.14334
 20
-11.9187
 30
0.0
 10
-10.14334
 20
-11.41245
 30
0.0
 10
-10.14334
 20
-11.41245
 30
0.0
 10
-10.14334
 20
-11.41245
 30
0.0
 10
-9.84331
 20
-11.41245
 30
0.0
 10
-9.84331
 20
-11.41245
 30
0.0
 10
-9.84331
 20
-11.41245
 30
0.0
 10
-9.84331
 20
-10.90621
 30
0.0
 10
-9.84331
 20
-10.90621
 30
0.0
 10
-9.84331
 20
-10.90621
 30
0.0
 10
-10.14334
 20
-10.90621
 30
0.0
 10
-10.14334
 20
-10.90621
 30
0.0
 10
-10.14334
 20
-10.90621
 30
0.0
 10
-10.14334
 20
-10.39996
 30
0.0
 10
-10.14334
 20
-10.39996
 30
0.0
 10
-10.14334
 20
-10.39996
 30
0.0
 10
-10.35395
 20
-10.39996
 30
0.0
 10
-10.35395
 20
-10.39996
 30
0.0
 10
-10.50576
 20
-11.07618
 30
0.0
 10
-10.47112
 20
-11.05681
 30
0.0
 10
-10.66504
 20
-11.26481
 30
0.0
 10
-10.65359
 20
-11.78697
 30
0.0
 10
-10.76878
 20
-12.11422
 30
0.0
 10
-11.33272
 20
-12.08553
 30
0.0
 10
-11.29037
 20
-12.27419
 30
0.0
 10
-11.2703
 20
-12.36981
 30
0.0
 10
-11.27252
 20
-12.3724
 30
0.0
 10
-10.84428
 20
-12.41986
 30
0.0
 10
-10.61172
 20
-12.61229
 30
0.0
 10
-10.57482
 20
-12.94968
 30
0.0
  0
SPLINE
  5
94
330
1F
100
AcDbEntity
  8
Layer 1
 62
   250
370
    20
100
AcDbSpline
210
0.0
220
0.0
230
1.0
 70
     8
 71
     3
 72
    50
 73
    46
 74
     0
 42
0.0000000001
 43
0.0000000001
 40
0.0
 40
0.0
 40
0.0
 40
0.0
 40
0.0666666666666667
 40
0.0666666666666667
 40
0.0666666666666667
 40
0.1333333333333333
 40
0.1333333333333333
 40
0.1333333333333333
 40
0.2
 40
0.2
 40
0.2
 40
0.2666666666666667
 40
0.2666666666666667
 40
0.2666666666666667
 40
0.3333333333333333
 40
0.3333333333333333
 40
0.3333333333333333
 40
0.4
 40
0.4
 40
0.4
 40
0.4666666666666667
 40
0.4666666666666667
 40
0.4666666666666667
 40
0.5333333333333333
 40
0.5333333333333333
 40
0.5333333333333333
 40
0.6
 40
0.6
 40
0.6
 40
0.6666666666666666
 40
0.6666666666666666
 40
0.6666666666666666
 40
0.7333333333333333
 40
0.7333333333333333
 40
0.7333333333333333
 40
0.8
 40
0.8
 40
0.8
 40
0.8666666666666667
 40
0.8666666666666667
 40
0.8666666666666667
 40
0.9333333333333333
 40
0.9333333333333333
 40
0.9333333333333333
 40
1.0
 40
1.0
 40
1.0
 40
1.0
 10
-8.95953
 20
-12.93116
 30
0.0
 10
-8.95953
 20
-12.93116
 30
0.0
 10
-9.69329
 20
-12.93116
 30
0.0
 10
-9.69329
 20
-12.93116
 30
0.0
 10
-9.69329
 20
-12.93116
 30
0.0
 10
-9.69329
 20
-12.42491
 30
0.0
 10
-9.69329
 20
-12.42491
 30
0.0
 10
-9.69329
 20
-12.42491
 30
0.0
 10
-9.39326
 20
-12.42491
 30
0.0
 10
-9.39326
 20
-12.42491
 30
0.0
 10
-9.39326
 20
-12.42491
 30
0.0
 10
-9.39326
 20
-11.91867
 30
0.0
 10
-9.39326
 20
-11.91867
 30
0.0
 10
-9.39326
 20
-11.91867
 30
0.0
 10
-9.69329
 20
-11.91867
 30
0.0
 10
-9.69329
 20
-11.91867
 30
0.0
 10
-9.69329
 20
-11.91867
 30
0.0
 10
-9.69329
 20
-11.41242
 30
0.0
 10
-9.69329
 20
-11.41242
 30
0.0
 10
-9.69329
 20
-11.41242
 30
0.0
 10
-9.39326
 20
-11.41242
 30
0.0
 10
-9.39326
 20
-11.41242
 30
0.0
 10
-9.39326
 20
-11.41242
 30
0.0
 10
-9.39326
 20
-10.90618
 30
0.0
 10
-9.39326
 20
-10.90618
 30
0.0
 10
-9.39326
 20
-10.90618
 30
0.0
 10
-9.69329
 20
-10.90618
 30
0.0
 10
-9.69329
 20
-10.90618
 30
0.0
 10
-9.69329
 20
-10.90618
 30
0.0
 10
-9.69329
 20
-10.39996
 30
0.0
 10
-9.69329
 20
-10.39996
 30
0.0
 10
-9.69329
 20
-10.39996
 30
0.0
 10
-9.18265
 20
-10.39996
 30
0.0
 10
-9.18265
 20
-10.39996
 30
0.0
 10
-9.03084
 20
-11.07618
 30
0.0
 10
-9.06548
 20
-11.05681
 30
0.0
 10
-8.87155
 20
-11.26481
 30
0.0
 10
-8.88301
 20
-11.78697
 30
0.0
 10
-8.76782
 20
-12.11422
 30
0.0
 10
-8.20387
 20
-12.08553
 30
0.0
 10
-8.24622
 20
-12.27419
 30
0.0
 10
-8.26629
 20
-12.36981
 30
0.0
 10
-8.26407
 20
-12.3724
 30
0.0
 10
-8.69231
 20
-12.41986
 30
0.0
 10
-8.92487
 20
-12.61229
 30
0.0
 10
-8.96177
 20
-12.94968
 30
0.0
  0
SPLINE
  5
95
330
1F
100
AcDbEntity
  8
Layer 1
 62
   250
370
    20
100
AcDbSpline
210
0.0
220
0.0
230
1.0
 70
     8
 71
     3
 72
    50
 73
    46
 74
     0
 42
0.0000000001
 43
0.0000000001
 40
0.0
 40
0.0
 40
0.0
 40
0.0
 40
0.0666666666666667
 40
0.0666666666666667
 40
0.0666666666666667
 40
0.1333333333333333
 40
0.1333333333333333
 40
0.1333333333333333
 40
0.2
 40
0.2
 40
0.2
 40
0.2666666666666667
 40
0.2666666666666667
 40
0.2666666666666667
 40
0.3333333333333333
 40
0.3333333333333333
 40
0.3333333333333333
 40
0.4
 40
0.4
 40
0.4
 40
0.4666666666666667
 40
0.4666666666666667
 40
0.4666666666666667
 40
0.5333333333333333
 40
0.5333333333333333
 40
0.5333333333333333
 40
0.6
 40
0.6
 40
0.6
 40
0.6666666666666666
 40
0.6666666666666666
 40
0.6666666666666666
 40
0.7333333333333333
 40
0.7333333333333333
 40
0.7333333333333333
 40
0.8
 40
0.8
 40
0.8
 40
0.8666666666666667
 40
0.8666666666666667
 40
0.8666666666666667
 40
0.9333333333333333
 40
0.9333333333333333
 40
0.9333333333333333
 40
1.0
 40
1.0
 40
1.0
 40
1.0
 10
-7.2982
 20
-12.93116
 30
0.0
 10
-7.2982
 20
-12.93116
 30
0.0
 10
-6.86447
 20
-12.93116
 30
0.0
 10
-6.86447
 20
-12.93116
 30
0.0
 10
-6.86447
 20
-12.93116
 30
0.0
 10
-6.86447
 20
-12.42491
 30
0.0
 10
-6.86447
 20
-12.42491
 30
0.0
 10
-6.86447
 20
-12.42491
 30
0.0
 10
-6.56444
 20
-12.42491
 30
0.0
 10
-6.56444
 20
-12.42491
 30
0.0
 10
-6.56444
 20
-12.42491
 30
0.0
 10
-6.56444
 20
-11.9187
 30
0.0
 10
-6.56444
 20
-11.9187
 30
0.0
 10
-6.56444
 20
-11.9187
 30
0.0
 10
-6.86447
 20
-11.9187
 30
0.0
 10
-6.86447
 20
-11.9187
 30
0.0
 10
-6.86447
 20
-11.9187
 30
0.0
 10
-6.86447
 20
-11.41245
 30
0.0
 10
-6.86447
 20
-11.41245
 30
0.0
 10
-6.86447
 20
-11.41245
 30
0.0
 10
-6.56444
 20
-11.41245
 30
0.0
 10
-6.56444
 20
-11.41245
 30
0.0
 10
-6.56444
 20
-11.41245
 30
0.0
 10
-6.56444
 20
-10.90621
 30
0.0
 10
-6.56444
 20
-10.90621
 30
0.0
 10
-6.56444
 20
-10.90621
 30
0.0
 10
-6.86447
 20
-10.90621
 30
0.0
 10
-6.86447
 20
-10.90621
 30
0.0
 10
-6.86447
 20
-10.90621
 30
0.0
 10
-6.86447
 20
-10.39996
 30
0.0
 10
-6.86447
 20
-10.39996
 30
0.0
 10
-6.86447
 20
-10.39996
 30
0.0
 10
-7.07508
 20
-10.39996
 30
0.0
 10
-7.07508
 20
-10.39996
 30
0.0
 10
-7.22689
 20
-11.07618
 30
0.0
 10
-7.19225
 20
-11.05681
 30
0.0
 10
-7.38618
 20
-11.26481
 30
0.0
 10
-7.37472
 20
-11.78697
 30
0.0
 10
-7.48991
 20
-12.11422
 30
0.0
 10
-8.05386
 20
-12.08553
 30
0.0
 10
-8.01151
 20
-12.27419
 30
0.0
 10
-7.99143
 20
-12.36981
 30
0.0
 10
-7.99366
 20
-12.3724
 30
0.0
 10
-7.56542
 20
-12.41986
 30
0.0
 10
-7.33285
 20
-12.61229
 30
0.0
 10
-7.29596
 20
-12.94968
 30
0.0
  0
SPLINE
  5
96
330
1F
100
AcDbEntity
  8
Layer 1
 62
   250
370
    20
100
AcDbSpline
210
0.0
220
0.0
230
1.0
 70
     8
 71
     3
 72
    50
 73
    46
 74
     0
 42
0.0000000001
 43
0.0000000001
 40
0.0
 40
0.0
 40
0.0
 40
0.0
 40
0.0666666666666667
 40
0.0666666666666667
 40
0.0666666666666667
 40
0.1333333333333333
 40
0.1333333333333333
 40
0.1333333333333333
 40
0.2
 40
0.2
 40
0.2
 40
0.2666666666666667
 40
0.2666666666666667
 40
0.2666666666666667
 40
0.3333333333333333
 40
0.3333333333333333
 40
0.3333333333333333
 40
0.4
 40
0.4
 40
0.4
 40
0.4666666666666667
 40
0.4666666666666667
 40
0.4666666666666667
 40
0.5333333333333333
 40
0.5333333333333333
 40
0.5333333333333333
 40
0.6
 40
0.6
 40
0.6
 40
0.6666666666666666
 40
0.6666666666666666
 40
0.6666666666666666
 40
0.7333333333333333
 40
0.7333333333333333
 40
0.7333333333333333
 40
0.8
 40
0.8
 40
0.8
 40
0.8666666666666667
 40
0.8666666666666667
 40
0.8666666666666667
 40
0.9333333333333333
 40
0.9333333333333333
 40
0.9333333333333333
 40
1.0
 40
1.0
 40
1.0
 40
1.0
 10
-5.68066
 20
-12.93116
 30
0.0
 10
-5.68066
 20
-12.93116
 30
0.0
 10
-6.41442
 20
-12.93116
 30
0.0
 10
-6.41442
 20
-12.93116
 30
0.0
 10
-6.41442
 20
-12.93116
 30
0.0
 10
-6.41442
 20
-12.42491
 30
0.0
 10
-6.41442
 20
-12.42491
 30
0.0
 10
-6.41442
 20
-12.42491
 30
0.0
 10
-6.11439
 20
-12.42491
 30
0.0
 10
-6.11439
 20
-12.42491
 30
0.0
 10
-6.11439
 20
-12.42491
 30
0.0
 10
-6.11439
 20
-11.91867
 30
0.0
 10
-6.11439
 20
-11.91867
 30
0.0
 10
-6.11439
 20
-11.91867
 30
0.0
 10
-6.41442
 20
-11.91867
 30
0.0
 10
-6.41442
 20
-11.91867
 30
0.0
 10
-6.41442
 20
-11.91867
 30
0.0
 10
-6.41442
 20
-11.41242
 30
0.0
 10
-6.41442
 20
-11.41242
 30
0.0
 10
-6.41442
 20
-11.41242
 30
0.0
 10
-6.11439
 20
-11.41242
 30
0.0
 10
-6.11439
 20
-11.41242
 30
0.0
 10
-6.11439
 20
-11.41242
 30
0.0
 10
-6.11439
 20
-10.90618
 30
0.0
 10
-6.11439
 20
-10.90618
 30
0.0
 10
-6.11439
 20
-10.90618
 30
0.0
 10
-6.41442
 20
-10.90618
 30
0.0
 10
-6.41442
 20
-10.90618
 30
0.0
 10
-6.41442
 20
-10.90618
 30
0.0
 10
-6.41442
 20
-10.39996
 30
0.0
 10
-6.41442
 20
-10.39996
 30
0.0
 10
-6.41442
 20
-10.39996
 30
0.0
 10
-5.90378
 20
-10.39996
 30
0.0
 10
-5.90378
 20
-10.39996
 30
0.0
 10
-5.75197
 20
-11.07618
 30
0.0
 10
-5.78661
 20
-11.05681
 30
0.0
 10
-5.59269
 20
-11.26481
 30
0.0
 10
-5.60414
 20
-11.78697
 30
0.0
 10
-5.48895
 20
-12.11422
 30
0.0
 10
-4.92501
 20
-12.08553
 30
0.0
 10
-4.96736
 20
-12.27419
 30
0.0
 10
-4.98743
 20
-12.36981
 30
0.0
 10
-4.98521
 20
-12.3724
 30
0.0
 10
-5.41345
 20
-12.41986
 30
0.0
 10
-5.64601
 20
-12.61229
 30
0.0
 10
-5.68291
 20
-12.94968
 30
0.0
  0
SPLINE
  5
97
330
1F
100
AcDbEntity
  8
Layer 1
 62
   250
370
    20
100
AcDbSpline
210
0.0
220
0.0
230
1.0
 70
     8
 71
     3
 72
    50
 73
    46
 74
     0
 42
0.0000000001
 43
0.0000000001
 40
0.0
 40
0.0
 40
0.0
 40
0.0
 40
0.0666666666666667
 40
0.0666666666666667
 40
0.0666666666666667
 40
0.1333333333333333
 40
0.1333333333333333
 40
0.1333333333333333
 40
0.2
 40
0.2
 40
0.2
 40
0.2666666666666667
 40
0.2666666666666667
 40
0.2666666666666667
 40
0.3333333333333333
 40
0.3333333333333333
 40
0.3333333333333333
 40
0.4
 40
0.4
 40
0.4
 40
0.4666666666666667
 40
0.4666666666666667
 40
0.4666666666666667
 40
0.5333333333333333
 40
0.5333333333333333
 40
0.5333333333333333
 40
0.6
 40
0.6
 40
0.6
 40
0.6666666666666666
 40
0.6666666666666666
 40
0.6666666666666666
 40
0.7333333333333333
 40
0.7333333333333333
 40
0.7333333333333333
 40
0.8
 40
0.8
 40
0.8
 40
0.8666666666666667
 40
0.8666666666666667
 40
0.8666666666666667
 40
0.9333333333333333
 40
0.9333333333333333
 40
0.9333333333333333
 40
1.0
 40
1.0
 40
1.0
 40
1.0
 10
-4.79472
 20
-11.31344
 30
0.0
 10
-4.79472
 20
-11.31344
 30
0.0
 10
-4.36099
 20
-11.31344
 30
0.0
 10
-4.36099
 20
-11.31344
 30
0.0
 10
-4.36099
 20
-11.31344
 30
0.0
 10
-4.36099
 20
-10.8072
 30
0.0
 10
-4.36099
 20
-10.8072
 30
0.0
 10
-4.36099
 20
-10.8072
 30
0.0
 10
-4.06096
 20
-10.8072
 30
0.0
 10
-4.06096
 20
-10.8072
 30
0.0
 10
-4.06096
 20
-10.8072
 30
0.0
 10
-4.06096
 20
-10.30098
 30
0.0
 10
-4.06096
 20
-10.30098
 30
0.0
 10
-4.06096
 20
-10.30098
 30
0.0
 10
-4.36099
 20
-10.30098
 30
0.0
 10
-4.36099
 20
-10.30098
 30
0.0
 10
-4.36099
 20
-10.30098
 30
0.0
 10
-4.36099
 20
-9.79474
 30
0.0
 10
-4.36099
 20
-9.79474
 30
0.0
 10
-4.36099
 20
-9.79474
 30
0.0
 10
-4.06096
 20
-9.79474
 30
0.0
 10
-4.06096
 20
-9.79474
 30
0.0
 10
-4.06096
 20
-9.79474
 30
0.0
 10
-4.06096
 20
-9.28849
 30
0.0
 10
-4.06096
 20
-9.28849
 30
0.0
 10
-4.06096
 20
-9.28849
 30
0.0
 10
-4.36099
 20
-9.28849
 30
0.0
 10
-4.36099
 20
-9.28849
 30
0.0
 10
-4.36099
 20
-9.28849
 30
0.0
 10
-4.36099
 20
-8.78224
 30
0.0
 10
-4.36099
 20
-8.78224
 30
0.0
 10
-4.36099
 20
-8.78224
 30
0.0
 10
-4.5716
 20
-8.78224
 30
0.0
 10
-4.5716
 20
-8.78224
 30
0.0
 10
-4.72341
 20
-9.45846
 30
0.0
 10
-4.68877
 20
-9.43909
 30
0.0
 10
-4.8827
 20
-9.6471
 30
0.0
 10
-4.87124
 20
-10.16925
 30
0.0
 10
-4.98643
 20
-10.49651
 30
0.0
 10
-5.55037
 20
-10.46781
 30
0.0
 10
-5.50802
 20
-10.65647
 30
0.0
 10
-5.48795
 20
-10.75209
 30
0.0
 10
-5.49017
 20
-10.75468
 30
0.0
 10
-5.06194
 20
-10.80214
 30
0.0
 10
-4.82937
 20
-10.99457
 30
0.0
 10
-4.79248
 20
-11.33196
 30
0.0
  0
SPLINE
  5
98
330
1F
100
AcDbEntity
  8
Layer 1
 62
   250
370
    20
100
AcDbSpline
210
0.0
220
0.0
230
1.0
 70
    11
 71
     3
 72
    65
 73
    61
 74
     0
 42
0.0000000001
 43
0.0000000001
 40
0.0
 40
0.0
 40
0.0
 40
0.0
 40
0.05
 40
0.05
 40
0.05
 40
0.1
 40
0.1
 40
0.1
 40
0.15
 40
0.15
 40
0.15
 40
0.2
 40
0.2
 40
0.2
 40
0.25
 40
0.25
 40
0.25
 40
0.3
 40
0.3
 40
0.3
 40
0.35
 40
0.35
 40
0.35
 40
0.4
 40
0.4
 40
0.4
 40
0.45
 40
0.45
 40
0.45
 40
0.5
 40
0.5
 40
0.5
 40
0.55
 40
0.55
 40
0.55
 40
0.6000000000000001
 40
0.6000000000000001
 40
0.6000000000000001
 40
0.65
 40
0.65
 40
0.65
 40
0.7000000000000001
 40
0.7000000000000001
 40
0.7000000000000001
 40
0.75
 40
0.75
 40
0.75
 40
0.8
 40
0.8
 40
0.8
 40
0.8500000000000001
 40
0.8500000000000001
 40
0.8500000000000001
 40
0.9
 40
0.9
 40
0.9
 40
0.9500000000000001
 40
0.9500000000000001
 40
0.9500000000000001
 40
1.0
 40
1.0
 40
1.0
 40
1.0
 10
18.11111
 20
2.88336
 30
0.0
 10
18.11111
 20
2.88336
 30
0.0
 10
21.18645
 20
2.88336
 30
0.0
 10
21.18645
 20
2.88336
 30
0.0
 10
21.18645
 20
2.88336
 30
0.0
 10
21.18645
 20
-0.49201
 30
0.0
 10
21.18645
 20
-0.49201
 30
0.0
 10
21.18645
 20
-0.49201
 30
0.0
 10
21.48649
 20
-0.49201
 30
0.0
 10
21.48649
 20
-0.49201
 30
0.0
 10
21.48649
 20
-0.49201
 30
0.0
 10
21.48649
 20
-1.24209
 30
0.0
 10
21.48649
 20
-1.24209
 30
0.0
 10
21.48649
 20
-1.24209
 30
0.0
 10
21.18645
 20
-1.24209
 30
0.0
 10
21.18645
 20
-1.24209
 30
0.0
 10
21.18645
 20
-1.24209
 30
0.0
 10
21.18645
 20
-4.61746
 30
0.0
 10
21.18645
 20
-4.61746
 30
0.0
 10
21.18645
 20
-4.61746
 30
0.0
 10
18.11111
 20
-4.61746
 30
0.0
 10
18.11111
 20
-4.61746
 30
0.0
 10
18.11111
 20
-4.61746
 30
0.0
 10
18.11111
 20
-4.91749
 30
0.0
 10
18.11111
 20
-4.91749
 30
0.0
 10
18.11111
 20
-4.91749
 30
0.0
 10
17.36103
 20
-4.91749
 30
0.0
 10
17.36103
 20
-4.91749
 30
0.0
 10
17.36103
 20
-4.91749
 30
0.0
 10
17.36103
 20
-4.61746
 30
0.0
 10
17.36103
 20
-4.61746
 30
0.0
 10
17.36103
 20
-4.61746
 30
0.0
 10
14.28569
 20
-4.61746
 30
0.0
 10
14.28569
 20
-4.61746
 30
0.0
 10
14.28569
 20
-4.61746
 30
0.0
 10
14.28569
 20
-1.24209
 30
0.0
 10
14.28569
 20
-1.24209
 30
0.0
 10
14.28569
 20
-1.24209
 30
0.0
 10
13.98566
 20
-1.24209
 30
0.0
 10
13.98566
 20
-1.24209
 30
0.0
 10
13.98566
 20
-1.24209
 30
0.0
 10
13.98566
 20
-0.49201
 30
0.0
 10
13.98566
 20
-0.49201
 30
0.0
 10
13.98566
 20
-0.49201
 30
0.0
 10
14.28569
 20
-0.49201
 30
0.0
 10
14.28569
 20
-0.49201
 30
0.0
 10
14.28569
 20
-0.49201
 30
0.0
 10
14.28569
 20
2.88336
 30
0.0
 10
14.28569
 20
2.88336
 30
0.0
 10
14.28569
 20
2.88336
 30
0.0
 10
17.36103
 20
2.88336
 30
0.0
 10
17.36103
 20
2.88336
 30
0.0
 10
17.36103
 20
2.88336
 30
0.0
 10
17.36103
 20
3.1834
 30
0.0
 10
17.36103
 20
3.1834
 30
0.0
 10
17.36103
 20
3.1834
 30
0.0
 10
18.11111
 20
3.1834
 30
0.0
 10
18.11111
 20
3.1834
 30
0.0
 10
18.11111
 20
3.1834
 30
0.0
 10
18.11111
 20
2.88336
 30
0.0
 10
18.11111
 20
2.88336
 30
0.0
  0
SPLINE
  5
99
330
1F
100
AcDbEntity
  8
Layer 1
 62
   250
370
    20
100
AcDbSpline
210
0.0
220
0.0
230
1.0
 70
    11
 71
     3
 72
   101
 73
    97
 74
     0
 42
0.0000000001
 43
0.0000000001
 40
0.0
 40
0.0
 40
0.0
 40
0.0
 40
0.03125
 40
0.03125
 40
0.03125
 40
0.0625
 40
0.0625
 40
0.0625
 40
0.09375
 40
0.09375
 40
0.09375
 40
0.125
 40
0.125
 40
0.125
 40
0.15625
 40
0.15625
 40
0.15625
 40
0.1875
 40
0.1875
 40
0.1875
 40
0.21875
 40
0.21875
 40
0.21875
 40
0.25
 40
0.25
 40
0.25
 40
0.28125
 40
0.28125
 40
0.28125
 40
0.3125
 40
0.3125
 40
0.3125
 40
0.34375
 40
0.34375
 40
0.34375
 40
0.375
 40
0.375
 40
0.375
 40
0.40625
 40
0.40625
 40
0.40625
 40
0.4375
 40
0.4375
 40
0.4375
 40
0.46875
 40
0.46875
 40
0.46875
 40
0.5
 40
0.5
 40
0.5
 40
0.53125
 40
0.53125
 40
0.53125
 40
0.5625
 40
0.5625
 40
0.5625
 40
0.59375
 40
0.59375
 40
0.59375
 40
0.625
 40
0.625
 40
0.625
 40
0.65625
 40
0.65625
 40
0.65625
 40
0.6875
 40
0.6875
 40
0.6875
 40
0.71875
 40
0.71875
 40
0.71875
 40
0.75
 40
0.75
 40
0.75
 40
0.78125
 40
0.78125
 40
0.78125
 40
0.8125
 40
0.8125
 40
0.8125
 40
0.84375
 40
0.84375
 40
0.84375
 40
0.875
 40
0.875
 40
0.875
 40
0.90625
 40
0.90625
 40
0.90625
 40
0.9375
 40
0.9375
 40
0.9375
 40
0.96875
 40
0.96875
 40
0.96875
 40
1.0
 40
1.0
 40
1.0
 40
1.0
 10
-0.96818
 20
11.05234
 30
0.0
 10
-0.96818
 20
11.05234
 30
0.0
 10
5.33252
 20
11.05236
 30
0.0
 10
5.33252
 20
11.05236
 30
0.0
 10
5.33252
 20
11.05236
 30
0.0
 10
5.63255
 20
11.05236
 30
0.0
 10
5.63255
 20
11.05236
 30
0.0
 10
5.63255
 20
11.05236
 30
0.0
 10
5.63255
 20
9.82008
 30
0.0
 10
5.63255
 20
9.82008
 30
0.0
 10
5.63255
 20
9.82008
 30
0.0
 10
5.33252
 20
9.82008
 30
0.0
 10
5.33252
 20
9.82008
 30
0.0
 10
5.33252
 20
9.82008
 30
0.0
 10
5.33252
 20
8.5878
 30
0.0
 10
5.33252
 20
8.5878
 30
0.0
 10
5.33252
 20
8.5878
 30
0.0
 10
5.63255
 20
8.5878
 30
0.0
 10
5.63255
 20
8.5878
 30
0.0
 10
5.63255
 20
8.5878
 30
0.0
 10
5.63255
 20
7.35552
 30
0.0
 10
5.63255
 20
7.35552
 30
0.0
 10
5.63255
 20
7.35552
 30
0.0
 10
5.33252
 20
7.35552
 30
0.0
 10
5.33252
 20
7.35552
 30
0.0
 10
5.33252
 20
7.35552
 30
0.0
 10
5.33252
 20
6.12324
 30
0.0
 10
5.33252
 20
6.12324
 30
0.0
 10
5.33252
 20
6.12324
 30
0.0
 10
5.63255
 20
6.12324
 30
0.0
 10
5.63255
 20
6.12324
 30
0.0
 10
5.63255
 20
6.12324
 30
0.0
 10
5.63255
 20
4.89096
 30
0.0
 10
5.63255
 20
4.89096
 30
0.0
 10
5.63255
 20
4.89096
 30
0.0
 10
5.33252
 20
4.89096
 30
0.0
 10
5.33252
 20
4.89096
 30
0.0
 10
5.33252
 20
4.89096
 30
0.0
 10
5.33252
 20
3.65868
 30
0.0
 10
5.33252
 20
3.65868
 30
0.0
 10
5.33252
 20
3.65868
 30
0.0
 10
5.63255
 20
3.65868
 30
0.0
 10
5.63255
 20
3.65868
 30
0.0
 10
5.63255
 20
3.65868
 30
0.0
 10
5.63255
 20
2.4264
 30
0.0
 10
5.63255
 20
2.4264
 30
0.0
 10
5.63255
 20
2.4264
 30
0.0
 10
5.33252
 20
2.4264
 30
0.0
 10
5.33252
 20
2.4264
 30
0.0
 10
5.33252
 20
2.4264
 30
0.0
 10
-0.96818
 20
2.4264
 30
0.0
 10
-0.96818
 20
2.4264
 30
0.0
 10
-0.96818
 20
2.4264
 30
0.0
 10
-1.26821
 20
2.4264
 30
0.0
 10
-1.26821
 20
2.4264
 30
0.0
 10
-1.26821
 20
2.4264
 30
0.0
 10
-1.26821
 20
3.65868
 30
0.0
 10
-1.26821
 20
3.65868
 30
0.0
 10
-1.26821
 20
3.65868
 30
0.0
 10
-0.96818
 20
3.65868
 30
0.0
 10
-0.96818
 20
3.65868
 30
0.0
 10
-0.96818
 20
3.65868
 30
0.0
 10
-0.96818
 20
4.89096
 30
0.0
 10
-0.96818
 20
4.89096
 30
0.0
 10
-0.96818
 20
4.89096
 30
0.0
 10
-1.26821
 20
4.89096
 30
0.0
 10
-1.26821
 20
4.89096
 30
0.0
 10
-1.26821
 20
4.89096
 30
0.0
 10
-1.26821
 20
6.12324
 30
0.0
 10
-1.26821
 20
6.12324
 30
0.0
 10
-1.26821
 20
6.12324
 30
0.0
 10
-0.96818
 20
6.12324
 30
0.0
 10
-0.96818
 20
6.12324
 30
0.0
 10
-0.96818
 20
6.12324
 30
0.0
 10
-0.96818
 20
7.35552
 30
0.0
 10
-0.96818
 20
7.35552
 30
0.0
 10
-0.96818
 20
7.35552
 30
0.0
 10
-1.26821
 20
7.35552
 30
0.0
 10
-1.26821
 20
7.35552
 30
0.0
 10
-1.26821
 20
7.35552
 30
0.0
 10
-1.26821
 20
8.5878
 30
0.0
 10
-1.26821
 20
8.5878
 30
0.0
 10
-1.26821
 20
8.5878
 30
0.0
 10
-0.96818
 20
8.5878
 30
0.0
 10
-0.96818
 20
8.5878
 30
0.0
 10
-0.96818
 20
8.5878
 30
0.0
 10
-0.96818
 20
9.82008
 30
0.0
 10
-0.96818
 20
9.82008
 30
0.0
 10
-0.96818
 20
9.82008
 30
0.0
 10
-1.26821
 20
9.82008
 30
0.0
 10
-1.26821
 20
9.82008
 30
0.0
 10
-1.26821
 20
9.82008
 30
0.0
 10
-1.26821
 20
11.05236
 30
0.0
 10
-1.26821
 20
11.05236
 30
0.0
 10
-1.26821
 20
11.05236
 30
0.0
 10
-0.96818
 20
11.05234
 30
0.0
 10
-0.96818
 20
11.05234
 30
0.0
  0
SPLINE
  5
9A
330
1F
100
AcDbEntity
  8
Layer 1
 62
   250
370
    20
100
AcDbSpline
210
0.0
220
0.0
230
1.0
 70
    11
 71
     3
 72
    89
 73
    85
 74
     0
 42
0.0000000001
 43
0.0000000001
 40
0.0
 40
0.0
 40
0.0
 40
0.0
 40
0.0357142857142857
 40
0.0357142857142857
 40
0.0357142857142857
 40
0.0714285714285714
 40
0.0714285714285714
 40
0.0714285714285714
 40
0.1071428571428571
 40
0.1071428571428571
 40
0.1071428571428571
 40
0.1428571428571428
 40
0.1428571428571428
 40
0.1428571428571428
 40
0.1785714285714285
 40
0.1785714285714285
 40
0.1785714285714285
 40
0.2142857142857143
 40
0.2142857142857143
 40
0.2142857142857143
 40
0.25
 40
0.25
 40
0.25
 40
0.2857142857142857
 40
0.2857142857142857
 40
0.2857142857142857
 40
0.3214285714285714
 40
0.3214285714285714
 40
0.3214285714285714
 40
0.3571428571428571
 40
0.3571428571428571
 40
0.3571428571428571
 40
0.3928571428571428
 40
0.3928571428571428
 40
0.3928571428571428
 40
0.4285714285714285
 40
0.4285714285714285
 40
0.4285714285714285
 40
0.4642857142857142
 40
0.4642857142857142
 40
0.4642857142857142
 40
0.5
 40
0.5
 40
0.5
 40
0.5357142857142857
 40
0.5357142857142857
 40
0.5357142857142857
 40
0.5714285714285714
 40
0.5714285714285714
 40
0.5714285714285714
 40
0.6071428571428571
 40
0.6071428571428571
 40
0.6071428571428571
 40
0.6428571428571428
 40
0.6428571428571428
 40
0.6428571428571428
 40
0.6785714285714285
 40
0.6785714285714285
 40
0.6785714285714285
 40
0.7142857142857142
 40
0.7142857142857142
 40
0.7142857142857142
 40
0.75
 40
0.75
 40
0.75
 40
0.7857142857142857
 40
0.7857142857142857
 40
0.7857142857142857
 40
0.8214285714285714
 40
0.8214285714285714
 40
0.8214285714285714
 40
0.8571428571428571
 40
0.8571428571428571
 40
0.8571428571428571
 40
0.8928571428571428
 40
0.8928571428571428
 40
0.8928571428571428
 40
0.9285714285714285
 40
0.9285714285714285
 40
0.9285714285714285
 40
0.9642857142857142
 40
0.9642857142857142
 40
0.9642857142857142
 40
1.0
 40
1.0
 40
1.0
 40
1.0
 10
-9.3691
 20
11.05235
 30
0.0
 10
-9.3691
 20
11.05235
 30
0.0
 10
-9.3691
 20
9.82009
 30
0.0
 10
-9.3691
 20
9.82009
 30
0.0
 10
-9.3691
 20
9.82009
 30
0.0
 10
-9.06907
 20
9.82009
 30
0.0
 10
-9.06907
 20
9.82009
 30
0.0
 10
-9.06907
 20
9.82009
 30
0.0
 10
-9.06907
 20
8.58781
 30
0.0
 10
-9.06907
 20
8.58781
 30
0.0
 10
-9.06907
 20
8.58781
 30
0.0
 10
-9.3691
 20
8.58781
 30
0.0
 10
-9.3691
 20
8.58781
 30
0.0
 10
-9.3691
 20
8.58781
 30
0.0
 10
-9.3691
 20
7.35553
 30
0.0
 10
-9.3691
 20
7.35553
 30
0.0
 10
-9.3691
 20
7.35553
 30
0.0
 10
-9.06907
 20
7.35553
 30
0.0
 10
-9.06907
 20
7.35553
 30
0.0
 10
-9.06907
 20
7.35553
 30
0.0
 10
-9.06907
 20
6.12325
 30
0.0
 10
-9.06907
 20
6.12325
 30
0.0
 10
-9.06907
 20
6.12325
 30
0.0
 10
-9.3691
 20
6.12325
 30
0.0
 10
-9.3691
 20
6.12325
 30
0.0
 10
-9.3691
 20
6.12325
 30
0.0
 10
-9.3691
 20
4.89097
 30
0.0
 10
-9.3691
 20
4.89097
 30
0.0
 10
-9.3691
 20
4.89097
 30
0.0
 10
-9.06907
 20
4.89097
 30
0.0
 10
-9.06907
 20
4.89097
 30
0.0
 10
-9.06907
 20
4.89097
 30
0.0
 10
-9.06907
 20
3.65869
 30
0.0
 10
-9.06907
 20
3.65869
 30
0.0
 10
-9.06907
 20
3.65869
 30
0.0
 10
-9.3691
 20
3.65869
 30
0.0
 10
-9.3691
 20
3.65869
 30
0.0
 10
-9.3691
 20
3.65869
 30
0.0
 10
-9.3691
 20
2.42641
 30
0.0
 10
-9.3691
 20
2.42641
 30
0.0
 10
-9.3691
 20
2.42641
 30
0.0
 10
-16.26986
 20
2.42641
 30
0.0
 10
-16.26986
 20
2.42641
 30
0.0
 10
-16.26986
 20
2.42641
 30
0.0
 10
-16.26986
 20
3.65869
 30
0.0
 10
-16.26986
 20
3.65869
 30
0.0
 10
-16.26986
 20
3.65869
 30
0.0
 10
-16.56989
 20
3.65869
 30
0.0
 10
-16.56989
 20
3.65869
 30
0.0
 10
-16.56989
 20
3.65869
 30
0.0
 10
-16.56989
 20
4.89097
 30
0.0
 10
-16.56989
 20
4.89097
 30
0.0
 10
-16.56989
 20
4.89097
 30
0.0
 10
-16.26986
 20
4.89097
 30
0.0
 10
-16.26986
 20
4.89097
 30
0.0
 10
-16.26986
 20
4.89097
 30
0.0
 10
-16.26986
 20
6.12325
 30
0.0
 10
-16.26986
 20
6.12325
 30
0.0
 10
-16.26986
 20
6.12325
 30
0.0
 10
-16.56989
 20
6.12325
 30
0.0
 10
-16.56989
 20
6.12325
 30
0.0
 10
-16.56989
 20
6.12325
 30
0.0
 10
-16.56989
 20
7.35553
 30
0.0
 10
-16.56989
 20
7.35553
 30
0.0
 10
-16.56989
 20
7.35553
 30
0.0
 10
-16.26986
 20
7.35553
 30
0.0
 10
-16.26986
 20
7.35553
 30
0.0
 10
-16.26986
 20
7.35553
 30
0.0
 10
-16.26986
 20
8.58781
 30
0.0
 10
-16.26986
 20
8.58781
 30
0.0
 10
-16.26986
 20
8.58781
 30
0.0
 10
-16.56989
 20
8.58781
 30
0.0
 10
-16.56989
 20
8.58781
 30
0.0
 10
-16.56989
 20
8.58781
 30
0.0
 10
-16.56989
 20
9.82009
 30
0.0
 10
-16.56989
 20
9.82009
 30
0.0
 10
-16.56989
 20
9.82009
 30
0.0
 10
-16.26986
 20
9.82009
 30
0.0
 10
-16.26986
 20
9.82009
 30
0.0
 10
-16.26986
 20
9.82009
 30
0.0
 10
-16.26986
 20
11.05235
 30
0.0
 10
-16.26986
 20
11.05235
 30
0.0
 10
-16.26986
 20
11.05235
 30
0.0
 10
-9.3691
 20
11.05235
 30
0.0
 10
-9.3691
 20
11.05235
 30
0.0
  0
SPLINE
  5
9B
330
1F
100
AcDbEntity
  8
Layer 1
 62
   250
370
    20
100
AcDbSpline
210
0.0
220
0.0
230
1.0
 70
    11
 71
     3
 72
   101
 73
    97
 74
     0
 42
0.0000000001
 43
0.0000000001
 40
0.0
 40
0.0
 40
0.0
 40
0.0
 40
0.03125
 40
0.03125
 40
0.03125
 40
0.0625
 40
0.0625
 40
0.0625
 40
0.09375
 40
0.09375
 40
0.09375
 40
0.125
 40
0.125
 40
0.125
 40
0.15625
 40
0.15625
 40
0.15625
 40
0.1875
 40
0.1875
 40
0.1875
 40
0.21875
 40
0.21875
 40
0.21875
 40
0.25
 40
0.25
 40
0.25
 40
0.28125
 40
0.28125
 40
0.28125
 40
0.3125
 40
0.3125
 40
0.3125
 40
0.34375
 40
0.34375
 40
0.34375
 40
0.375
 40
0.375
 40
0.375
 40
0.40625
 40
0.40625
 40
0.40625
 40
0.4375
 40
0.4375
 40
0.4375
 40
0.46875
 40
0.46875
 40
0.46875
 40
0.5
 40
0.5
 40
0.5
 40
0.53125
 40
0.53125
 40
0.53125
 40
0.5625
 40
0.5625
 40
0.5625
 40
0.59375
 40
0.59375
 40
0.59375
 40
0.625
 40
0.625
 40
0.625
 40
0.65625
 40
0.65625
 40
0.65625
 40
0.6875
 40
0.6875
 40
0.6875
 40
0.71875
 40
0.71875
 40
0.71875
 40
0.75
 40
0.75
 40
0.75
 40
0.78125
 40
0.78125
 40
0.78125
 40
0.8125
 40
0.8125
 40
0.8125
 40
0.84375
 40
0.84375
 40
0.84375
 40
0.875
 40
0.875
 40
0.875
 40
0.90625
 40
0.90625
 40
0.90625
 40
0.9375
 40
0.9375
 40
0.9375
 40
0.96875
 40
0.96875
 40
0.96875
 40
1.0
 40
1.0
 40
1.0
 40
1.0
 10
6.0826
 20
11.05234
 30
0.0
 10
6.0826
 20
11.05234
 30
0.0
 10
12.38329
 20
11.05236
 30
0.0
 10
12.38329
 20
11.05236
 30
0.0
 10
12.38329
 20
11.05236
 30
0.0
 10
12.68332
 20
11.05236
 30
0.0
 10
12.68332
 20
11.05236
 30
0.0
 10
12.68332
 20
11.05236
 30
0.0
 10
12.68332
 20
9.82008
 30
0.0
 10
12.68332
 20
9.82008
 30
0.0
 10
12.68332
 20
9.82008
 30
0.0
 10
12.38329
 20
9.82008
 30
0.0
 10
12.38329
 20
9.82008
 30
0.0
 10
12.38329
 20
9.82008
 30
0.0
 10
12.38329
 20
8.5878
 30
0.0
 10
12.38329
 20
8.5878
 30
0.0
 10
12.38329
 20
8.5878
 30
0.0
 10
12.68332
 20
8.5878
 30
0.0
 10
12.68332
 20
8.5878
 30
0.0
 10
12.68332
 20
8.5878
 30
0.0
 10
12.68332
 20
7.35552
 30
0.0
 10
12.68332
 20
7.35552
 30
0.0
 10
12.68332
 20
7.35552
 30
0.0
 10
12.38329
 20
7.35552
 30
0.0
 10
12.38329
 20
7.35552
 30
0.0
 10
12.38329
 20
7.35552
 30
0.0
 10
12.38329
 20
6.12324
 30
0.0
 10
12.38329
 20
6.12324
 30
0.0
 10
12.38329
 20
6.12324
 30
0.0
 10
12.68332
 20
6.12324
 30
0.0
 10
12.68332
 20
6.12324
 30
0.0
 10
12.68332
 20
6.12324
 30
0.0
 10
12.68332
 20
4.89096
 30
0.0
 10
12.68332
 20
4.89096
 30
0.0
 10
12.68332
 20
4.89096
 30
0.0
 10
12.38329
 20
4.89096
 30
0.0
 10
12.38329
 20
4.89096
 30
0.0
 10
12.38329
 20
4.89096
 30
0.0
 10
12.38329
 20
3.65868
 30
0.0
 10
12.38329
 20
3.65868
 30
0.0
 10
12.38329
 20
3.65868
 30
0.0
 10
12.68332
 20
3.65868
 30
0.0
 10
12.68332
 20
3.65868
 30
0.0
 10
12.68332
 20
3.65868
 30
0.0
 10
12.68332
 20
2.4264
 30
0.0
 10
12.68332
 20
2.4264
 30
0.0
 10
12.68332
 20
2.4264
 30
0.0
 10
12.38329
 20
2.4264
 30
0.0
 10
12.38329
 20
2.4264
 30
0.0
 10
12.38329
 20
2.4264
 30
0.0
 10
6.0826
 20
2.4264
 30
0.0
 10
6.0826
 20
2.4264
 30
0.0
 10
6.0826
 20
2.4264
 30
0.0
 10
5.78257
 20
2.4264
 30
0.0
 10
5.78257
 20
2.4264
 30
0.0
 10
5.78257
 20
2.4264
 30
0.0
 10
5.78257
 20
3.65868
 30
0.0
 10
5.78257
 20
3.65868
 30
0.0
 10
5.78257
 20
3.65868
 30
0.0
 10
6.0826
 20
3.65868
 30
0.0
 10
6.0826
 20
3.65868
 30
0.0
 10
6.0826
 20
3.65868
 30
0.0
 10
6.0826
 20
4.89096
 30
0.0
 10
6.0826
 20
4.89096
 30
0.0
 10
6.0826
 20
4.89096
 30
0.0
 10
5.78257
 20
4.89096
 30
0.0
 10
5.78257
 20
4.89096
 30
0.0
 10
5.78257
 20
4.89096
 30
0.0
 10
5.78257
 20
6.12324
 30
0.0
 10
5.78257
 20
6.12324
 30
0.0
 10
5.78257
 20
6.12324
 30
0.0
 10
6.0826
 20
6.12324
 30
0.0
 10
6.0826
 20
6.12324
 30
0.0
 10
6.0826
 20
6.12324
 30
0.0
 10
6.0826
 20
7.35552
 30
0.0
 10
6.0826
 20
7.35552
 30
0.0
 10
6.0826
 20
7.35552
 30
0.0
 10
5.78257
 20
7.35552
 30
0.0
 10
5.78257
 20
7.35552
 30
0.0
 10
5.78257
 20
7.35552
 30
0.0
 10
5.78257
 20
8.5878
 30
0.0
 10
5.78257
 20
8.5878
 30
0.0
 10
5.78257
 20
8.5878
 30
0.0
 10
6.0826
 20
8.5878
 30
0.0
 10
6.0826
 20
8.5878
 30
0.0
 10
6.0826
 20
8.5878
 30
0.0
 10
6.0826
 20
9.82008
 30
0.0
 10
6.0826
 20
9.82008
 30
0.0
 10
6.0826
 20
9.82008
 30
0.0
 10
5.78257
 20
9.82008
 30
0.0
 10
5.78257
 20
9.82008
 30
0.0
 10
5.78257
 20
9.82008
 30
0.0
 10
5.78257
 20
11.05236
 30
0.0
 10
5.78257
 20
11.05236
 30
0.0
 10
5.78257
 20
11.05236
 30
0.0
 10
6.0826
 20
11.05234
 30
0.0
 10
6.0826
 20
11.05234
 30
0.0
  0
SPLINE
  5
9C
330
1F
100
AcDbEntity
  8
Layer 1
 62
   250
370
    20
100
AcDbSpline
210
0.0
220
0.0
230
1.0
 70
    11
 71
     3
 72
    89
 73
    85
 74
     0
 42
0.0000000001
 43
0.0000000001
 40
0.0
 40
0.0
 40
0.0
 40
0.0
 40
0.0357142857142857
 40
0.0357142857142857
 40
0.0357142857142857
 40
0.0714285714285714
 40
0.0714285714285714
 40
0.0714285714285714
 40
0.1071428571428571
 40
0.1071428571428571
 40
0.1071428571428571
 40
0.1428571428571428
 40
0.1428571428571428
 40
0.1428571428571428
 40
0.1785714285714285
 40
0.1785714285714285
 40
0.1785714285714285
 40
0.2142857142857143
 40
0.2142857142857143
 40
0.2142857142857143
 40
0.25
 40
0.25
 40
0.25
 40
0.2857142857142857
 40
0.2857142857142857
 40
0.2857142857142857
 40
0.3214285714285714
 40
0.3214285714285714
 40
0.3214285714285714
 40
0.3571428571428571
 40
0.3571428571428571
 40
0.3571428571428571
 40
0.3928571428571428
 40
0.3928571428571428
 40
0.3928571428571428
 40
0.4285714285714285
 40
0.4285714285714285
 40
0.4285714285714285
 40
0.4642857142857142
 40
0.4642857142857142
 40
0.4642857142857142
 40
0.5
 40
0.5
 40
0.5
 40
0.5357142857142857
 40
0.5357142857142857
 40
0.5357142857142857
 40
0.5714285714285714
 40
0.5714285714285714
 40
0.5714285714285714
 40
0.6071428571428571
 40
0.6071428571428571
 40
0.6071428571428571
 40
0.6428571428571428
 40
0.6428571428571428
 40
0.6428571428571428
 40
0.6785714285714285
 40
0.6785714285714285
 40
0.6785714285714285
 40
0.7142857142857142
 40
0.7142857142857142
 40
0.7142857142857142
 40
0.75
 40
0.75
 40
0.75
 40
0.7857142857142857
 40
0.7857142857142857
 40
0.7857142857142857
 40
0.8214285714285714
 40
0.8214285714285714
 40
0.8214285714285714
 40
0.8571428571428571
 40
0.8571428571428571
 40
0.8571428571428571
 40
0.8928571428571428
 40
0.8928571428571428
 40
0.8928571428571428
 40
0.9285714285714285
 40
0.9285714285714285
 40
0.9285714285714285
 40
0.9642857142857142
 40
0.9642857142857142
 40
0.9642857142857142
 40
1.0
 40
1.0
 40
1.0
 40
1.0
 10
-1.71826
 20
11.05235
 30
0.0
 10
-1.71826
 20
11.05235
 30
0.0
 10
-1.71826
 20
9.82009
 30
0.0
 10
-1.71826
 20
9.82009
 30
0.0
 10
-1.71826
 20
9.82009
 30
0.0
 10
-1.41823
 20
9.82009
 30
0.0
 10
-1.41823
 20
9.82009
 30
0.0
 10
-1.41823
 20
9.82009
 30
0.0
 10
-1.41823
 20
8.58781
 30
0.0
 10
-1.41823
 20
8.58781
 30
0.0
 10
-1.41823
 20
8.58781
 30
0.0
 10
-1.71826
 20
8.58781
 30
0.0
 10
-1.71826
 20
8.58781
 30
0.0
 10
-1.71826
 20
8.58781
 30
0.0
 10
-1.71826
 20
7.35553
 30
0.0
 10
-1.71826
 20
7.35553
 30
0.0
 10
-1.71826
 20
7.35553
 30
0.0
 10
-1.41823
 20
7.35553
 30
0.0
 10
-1.41823
 20
7.35553
 30
0.0
 10
-1.41823
 20
7.35553
 30
0.0
 10
-1.41823
 20
6.12325
 30
0.0
 10
-1.41823
 20
6.12325
 30
0.0
 10
-1.41823
 20
6.12325
 30
0.0
 10
-1.71826
 20
6.12325
 30
0.0
 10
-1.71826
 20
6.12325
 30
0.0
 10
-1.71826
 20
6.12325
 30
0.0
 10
-1.71826
 20
4.89097
 30
0.0
 10
-1.71826
 20
4.89097
 30
0.0
 10
-1.71826
 20
4.89097
 30
0.0
 10
-1.41823
 20
4.89097
 30
0.0
 10
-1.41823
 20
4.89097
 30
0.0
 10
-1.41823
 20
4.89097
 30
0.0
 10
-1.41823
 20
3.65869
 30
0.0
 10
-1.41823
 20
3.65869
 30
0.0
 10
-1.41823
 20
3.65869
 30
0.0
 10
-1.71826
 20
3.65869
 30
0.0
 10
-1.71826
 20
3.65869
 30
0.0
 10
-1.71826
 20
3.65869
 30
0.0
 10
-1.71826
 20
2.42641
 30
0.0
 10
-1.71826
 20
2.42641
 30
0.0
 10
-1.71826
 20
2.42641
 30
0.0
 10
-8.61902
 20
2.42641
 30
0.0
 10
-8.61902
 20
2.42641
 30
0.0
 10
-8.61902
 20
2.42641
 30
0.0
 10
-8.61902
 20
3.65869
 30
0.0
 10
-8.61902
 20
3.65869
 30
0.0
 10
-8.61902
 20
3.65869
 30
0.0
 10
-8.91905
 20
3.65869
 30
0.0
 10
-8.91905
 20
3.65869
 30
0.0
 10
-8.91905
 20
3.65869
 30
0.0
 10
-8.91905
 20
4.89097
 30
0.0
 10
-8.91905
 20
4.89097
 30
0.0
 10
-8.91905
 20
4.89097
 30
0.0
 10
-8.61902
 20
4.89097
 30
0.0
 10
-8.61902
 20
4.89097
 30
0.0
 10
-8.61902
 20
4.89097
 30
0.0
 10
-8.61902
 20
6.12325
 30
0.0
 10
-8.61902
 20
6.12325
 30
0.0
 10
-8.61902
 20
6.12325
 30
0.0
 10
-8.91905
 20
6.12325
 30
0.0
 10
-8.91905
 20
6.12325
 30
0.0
 10
-8.91905
 20
6.12325
 30
0.0
 10
-8.91905
 20
7.35553
 30
0.0
 10
-8.91905
 20
7.35553
 30
0.0
 10
-8.91905
 20
7.35553
 30
0.0
 10
-8.61902
 20
7.35553
 30
0.0
 10
-8.61902
 20
7.35553
 30
0.0
 10
-8.61902
 20
7.35553
 30
0.0
 10
-8.61902
 20
8.58781
 30
0.0
 10
-8.61902
 20
8.58781
 30
0.0
 10
-8.61902
 20
8.58781
 30
0.0
 10
-8.91905
 20
8.58781
 30
0.0
 10
-8.91905
 20
8.58781
 30
0.0
 10
-8.91905
 20
8.58781
 30
0.0
 10
-8.91905
 20
9.82009
 30
0.0
 10
-8.91905
 20
9.82009
 30
0.0
 10
-8.91905
 20
9.82009
 30
0.0
 10
-8.61902
 20
9.82009
 30
0.0
 10
-8.61902
 20
9.82009
 30
0.0
 10
-8.61902
 20
9.82009
 30
0.0
 10
-8.61902
 20
11.05235
 30
0.0
 10
-8.61902
 20
11.05235
 30
0.0
 10
-8.61902
 20
11.05235
 30
0.0
 10
-1.71826
 20
11.05235
 30
0.0
 10
-1.71826
 20
11.05235
 30
0.0
  0
SPLINE
  5
9D
330
1F
100
AcDbEntity
  8
Layer 1
 62
   250
370
    20
100
AcDbSpline
210
0.0
220
0.0
230
1.0
 70
    11
 71
     3
 72
    41
 73
    37
 74
     0
 42
0.0000000001
 43
0.0000000001
 40
0.0
 40
0.0
 40
0.0
 40
0.0
 40
0.0833333333333333
 40
0.0833333333333333
 40
0.0833333333333333
 40
0.1666666666666667
 40
0.1666666666666667
 40
0.1666666666666667
 40
0.25
 40
0.25
 40
0.25
 40
0.3333333333333333
 40
0.3333333333333333
 40
0.3333333333333333
 40
0.4166666666666666
 40
0.4166666666666666
 40
0.4166666666666666
 40
0.5
 40
0.5
 40
0.5
 40
0.5833333333333333
 40
0.5833333333333333
 40
0.5833333333333333
 40
0.6666666666666666
 40
0.6666666666666666
 40
0.6666666666666666
 40
0.75
 40
0.75
 40
0.75
 40
0.8333333333333333
 40
0.8333333333333333
 40
0.8333333333333333
 40
0.9166666666666666
 40
0.9166666666666666
 40
0.9166666666666666
 40
1.0
 40
1.0
 40
1.0
 40
1.0
 10
-9.57794
 20
-7.97442
 30
0.0
 10
-9.57794
 20
-7.97442
 30
0.0
 10
-9.57794
 20
-8.4193
 30
0.0
 10
-9.57794
 20
-8.4193
 30
0.0
 10
-9.57794
 20
-8.4193
 30
0.0
 10
-9.27791
 20
-8.4193
 30
0.0
 10
-9.27791
 20
-8.4193
 30
0.0
 10
-9.27791
 20
-8.4193
 30
0.0
 10
-9.27791
 20
-9.02437
 30
0.0
 10
-9.27791
 20
-9.02437
 30
0.0
 10
-9.27791
 20
-9.02437
 30
0.0
 10
-9.57794
 20
-9.02437
 30
0.0
 10
-9.57794
 20
-9.02437
 30
0.0
 10
-9.57794
 20
-9.02437
 30
0.0
 10
-9.57794
 20
-9.62946
 30
0.0
 10
-9.57794
 20
-9.62946
 30
0.0
 10
-9.57794
 20
-9.62946
 30
0.0
 10
-9.27791
 20
-9.62946
 30
0.0
 10
-9.27791
 20
-9.62946
 30
0.0
 10
-9.27791
 20
-9.62946
 30
0.0
 10
-9.27791
 20
-10.23454
 30
0.0
 10
-9.27791
 20
-10.23454
 30
0.0
 10
-9.27791
 20
-10.23454
 30
0.0
 10
-9.57794
 20
-10.23454
 30
0.0
 10
-9.57794
 20
-10.23454
 30
0.0
 10
-9.73086
 20
-10.17499
 30
0.0
 10
-9.81026
 20
-10.08004
 30
0.0
 10
-9.81616
 20
-9.94968
 30
0.0
 10
-9.83444
 20
-9.67481
 30
0.0
 10
-9.92501
 20
-9.49677
 30
0.0
 10
-10.08789
 20
-9.41559
 30
0.0
 10
-9.95312
 20
-9.1434
 30
0.0
 10
-10.07493
 20
-8.90447
 30
0.0
 10
-10.45332
 20
-8.69879
 30
0.0
 10
-10.56972
 20
-8.36651
 30
0.0
 10
-10.36962
 20
-7.98248
 30
0.0
 10
-9.57794
 20
-7.97442
 30
0.0
  0
SPLINE
  5
9E
330
1F
100
AcDbEntity
  8
Layer 1
 62
   250
370
    20
100
AcDbSpline
210
0.0
220
0.0
230
1.0
 70
    11
 71
     3
 72
    38
 73
    34
 74
     0
 42
0.0000000001
 43
0.0000000001
 40
0.0
 40
0.0
 40
0.0
 40
0.0
 40
0.0909090909090909
 40
0.0909090909090909
 40
0.0909090909090909
 40
0.1818181818181818
 40
0.1818181818181818
 40
0.1818181818181818
 40
0.2727272727272727
 40
0.2727272727272727
 40
0.2727272727272727
 40
0.3636363636363636
 40
0.3636363636363636
 40
0.3636363636363636
 40
0.4545454545454546
 40
0.4545454545454546
 40
0.4545454545454546
 40
0.5454545454545454
 40
0.5454545454545454
 40
0.5454545454545454
 40
0.6363636363636364
 40
0.6363636363636364
 40
0.6363636363636364
 40
0.7272727272727273
 40
0.7272727272727273
 40
0.7272727272727273
 40
0.8181818181818182
 40
0.8181818181818182
 40
0.8181818181818182
 40
0.9090909090909092
 40
0.9090909090909092
 40
0.9090909090909092
 40
1.0
 40
1.0
 40
1.0
 40
1.0
 10
-15.96928
 20
-7.91365
 30
0.0
 10
-14.89208
 20
-7.90338
 30
0.0
 10
-14.66143
 20
-8.25997
 30
0.0
 10
-14.79387
 20
-8.63802
 30
0.0
 10
-15.17226
 20
-8.8437
 30
0.0
 10
-15.29407
 20
-9.08263
 30
0.0
 10
-15.15929
 20
-9.35482
 30
0.0
 10
-15.32217
 20
-9.43601
 30
0.0
 10
-15.41275
 20
-9.61404
 30
0.0
 10
-15.43103
 20
-9.88891
 30
0.0
 10
-15.43692
 20
-10.01927
 30
0.0
 10
-15.51633
 20
-10.11422
 30
0.0
 10
-15.66924
 20
-10.17377
 30
0.0
 10
-15.66924
 20
-10.17377
 30
0.0
 10
-15.66924
 20
-9.5687
 30
0.0
 10
-15.66924
 20
-9.5687
 30
0.0
 10
-15.66924
 20
-9.5687
 30
0.0
 10
-15.96928
 20
-9.5687
 30
0.0
 10
-15.96928
 20
-9.5687
 30
0.0
 10
-15.96928
 20
-9.5687
 30
0.0
 10
-15.96928
 20
-8.9636
 30
0.0
 10
-15.96928
 20
-8.9636
 30
0.0
 10
-15.96928
 20
-8.9636
 30
0.0
 10
-15.66924
 20
-8.9636
 30
0.0
 10
-15.66924
 20
-8.9636
 30
0.0
 10
-15.66924
 20
-8.9636
 30
0.0
 10
-15.66924
 20
-8.35853
 30
0.0
 10
-15.66924
 20
-8.35853
 30
0.0
 10
-15.66924
 20
-8.35853
 30
0.0
 10
-15.96928
 20
-8.35853
 30
0.0
 10
-15.96928
 20
-8.35853
 30
0.0
 10
-15.96928
 20
-8.35853
 30
0.0
 10
-15.96928
 20
-7.91365
 30
0.0
 10
-15.96928
 20
-7.91365
 30
0.0
  0
SPLINE
  5
9F
330
1F
100
AcDbEntity
  8
Layer 1
 62
   250
370
    20
100
AcDbSpline
210
0.0
220
0.0
230
1.0
 70
     8
 71
     3
 72
    11
 73
     7
 74
     0
 42
0.0000000001
 43
0.0000000001
 40
0.0
 40
0.0
 40
0.0
 40
0.0
 40
0.5
 40
0.5
 40
0.5
 40
1.0
 40
1.0
 40
1.0
 40
1.0
 10
8.10311
 20
-5.401
 30
0.0
 10
8.10311
 20
-5.401
 30
0.0
 10
6.42378
 20
-5.401
 30
0.0
 10
6.42378
 20
-5.401
 30
0.0
 10
6.42378
 20
-5.401
 30
0.0
 10
6.42378
 20
1.15729
 30
0.0
 10
6.42378
 20
1.15729
 30
0.0
  0
SPLINE
  5
A0
330
1F
100
AcDbEntity
  8
Layer 1
 62
   250
370
    20
100
AcDbSpline
210
0.0
220
0.0
230
1.0
 70
     8
 71
     3
 72
    11
 73
     7
 74
     0
 42
0.0000000001
 43
0.0000000001
 40
0.0
 40
0.0
 40
0.0
 40
0.0
 40
0.5
 40
0.5
 40
0.5
 40
1.0
 40
1.0
 40
1.0
 40
1.0
 10
13.9246
 20
1.65361
 30
0.0
 10
13.9246
 20
1.65361
 30
0.0
 10
13.9246
 20
-5.401
 30
0.0
 10
13.9246
 20
-5.401
 30
0.0
 10
13.9246
 20
-5.401
 30
0.0
 10
10.91329
 20
-5.401
 30
0.0
 10
10.91329
 20
-5.401
 30
0.0
  0
SPLINE
  5
A1
330
1F
100
AcDbEntity
  8
Layer 1
 62
   250
370
    20
100
AcDbSpline
210
0.0
220
0.0
230
1.0
 70
    24
 71
     3
 72
     8
 73
     4
 74
     0
 42
0.0000000001
 43
0.0000000001
 40
0.0
 40
0.0
 40
0.0
 40
0.0
 40
1.0
 40
1.0
 40
1.0
 40
1.0
 10
10.76526
 20
-5.401
 30
0.0
 10
10.76526
 20
-5.401
 30
0.0
 10
10.54923
 20
-5.401
 30
0.0
 10
10.54923
 20
-5.401
 30
0.0
  0
SPLINE
  5
A2
330
1F
100
AcDbEntity
  8
Layer 1
 62
   250
370
    20
100
AcDbSpline
210
0.0
220
0.0
230
1.0
 70
    24
 71
     3
 72
     8
 73
     4
 74
     0
 42
0.0000000001
 43
0.0000000001
 40
0.0
 40
0.0
 40
0.0
 40
0.0
 40
1.0
 40
1.0
 40
1.0
 40
1.0
 10
9.79916
 20
-5.401
 30
0.0
 10
9.79916
 20
-5.401
 30
0.0
 10
8.21643
 20
-5.401
 30
0.0
 10
8.21643
 20
-5.401
 30
0.0
  0
SPLINE
  5
A3
330
1F
100
AcDbEntity
  8
Layer 1
 62
   250
370
    20
100
AcDbSpline
210
0.0
220
0.0
230
1.0
 70
     8
 71
     3
 72
    17
 73
    13
 74
     0
 42
0.0000000001
 43
0.0000000001
 40
0.0
 40
0.0
 40
0.0
 40
0.0
 40
0.25
 40
0.25
 40
0.25
 40
0.5
 40
0.5
 40
0.5
 40
0.75
 40
0.75
 40
0.75
 40
1.0
 40
1.0
 40
1.0
 40
1.0
 10
8.89558
 20
-0.37439
 30
0.0
 10
8.89558
 20
-0.37439
 30
0.0
 10
9.81505
 20
-0.82275
 30
0.0
 10
9.81505
 20
-0.82275
 30
0.0
 10
9.81505
 20
-0.82275
 30
0.0
 10
8.57862
 20
-1.64158
 30
0.0
 10
8.57862
 20
-1.64158
 30
0.0
 10
8.57862
 20
-1.64158
 30
0.0
 10
7.49776
 20
0.30722
 30
0.0
 10
7.49776
 20
0.30722
 30
0.0
 10
7.49776
 20
0.30722
 30
0.0
 10
8.80514
 20
-0.33029
 30
0.0
 10
8.80514
 20
-0.33029
 30
0.0
  0
SPLINE
  5
A4
330
1F
100
AcDbEntity
  8
Layer 1
 62
   250
370
    20
100
AcDbSpline
210
0.0
220
0.0
230
1.0
 70
    11
 71
     3
 72
    14
 73
    10
 74
     0
 42
0.0000000001
 43
0.0000000001
 40
0.0
 40
0.0
 40
0.0
 40
0.0
 40
0.3333333333333333
 40
0.3333333333333333
 40
0.3333333333333333
 40
0.6666666666666666
 40
0.6666666666666666
 40
0.6666666666666666
 40
1.0
 40
1.0
 40
1.0
 40
1.0
 10
11.68195
 20
-1.5597
 30
0.0
 10
11.68195
 20
-1.5597
 30
0.0
 10
10.43734
 20
-0.74086
 30
0.0
 10
10.43734
 20
-0.74086
 30
0.0
 10
10.43734
 20
-0.74086
 30
0.0
 10
13.18039
 20
0.6675
 30
0.0
 10
13.18039
 20
0.6675
 30
0.0
 10
13.18039
 20
0.6675
 30
0.0
 10
11.68195
 20
-1.5597
 30
0.0
 10
11.68195
 20
-1.5597
 30
0.0
  0
SPLINE
  5
A5
330
1F
100
AcDbEntity
  8
Layer 1
 62
   250
370
    20
100
AcDbSpline
210
0.0
220
0.0
230
1.0
 70
    11
 71
     3
 72
    14
 73
    10
 74
     0
 42
0.0000000001
 43
0.0000000001
 40
0.0
 40
0.0
 40
0.0
 40
0.0
 40
0.3333333333333333
 40
0.3333333333333333
 40
0.3333333333333333
 40
0.6666666666666666
 40
0.6666666666666666
 40
0.6666666666666666
 40
1.0
 40
1.0
 40
1.0
 40
1.0
 10
9.65127
 20
-2.28845
 30
0.0
 10
9.65127
 20
-2.28845
 30
0.0
 10
10.10162
 20
-1.46963
 30
0.0
 10
10.10162
 20
-1.46963
 30
0.0
 10
10.10162
 20
-1.46963
 30
0.0
 10
10.52741
 20
-2.28025
 30
0.0
 10
10.52741
 20
-2.28025
 30
0.0
 10
10.52741
 20
-2.28025
 30
0.0
 10
9.65127
 20
-2.28845
 30
0.0
 10
9.65127
 20
-2.28845
 30
0.0
  0
SPLINE
  5
A6
330
1F
100
AcDbEntity
  8
Layer 1
 62
   250
370
    20
100
AcDbSpline
210
0.0
220
0.0
230
1.0
 70
     8
 71
     3
 72
    11
 73
     7
 74
     0
 42
0.0000000001
 43
0.0000000001
 40
0.0
 40
0.0
 40
0.0
 40
0.0
 40
0.5
 40
0.5
 40
0.5
 40
1.0
 40
1.0
 40
1.0
 40
1.0
 10
7.44784
 20
-2.39243
 30
0.0
 10
7.48764
 20
-2.49993
 30
0.0
 10
7.53281
 20
-2.61273
 30
0.0
 10
7.58102
 20
-2.72105
 30
0.0
 10
7.60928
 20
-2.78456
 30
0.0
 10
7.63861
 20
-2.84654
 30
0.0
 10
7.66919
 20
-2.90702
 30
0.0
  0
SPLINE
  5
A7
330
1F
100
AcDbEntity
  8
Layer 1
 62
   250
370
    20
100
AcDbSpline
210
0.0
220
0.0
230
1.0
 70
     8
 71
     3
 72
    11
 73
     7
 74
     0
 42
0.0000000001
 43
0.0000000001
 40
0.0
 40
0.0
 40
0.0
 40
0.0
 40
0.5
 40
0.5
 40
0.5
 40
1.0
 40
1.0
 40
1.0
 40
1.0
 10
7.9051
 20
-3.30386
 30
0.0
 10
7.93468
 20
-3.34609
 30
0.0
 10
7.96538
 20
-3.38746
 30
0.0
 10
7.99726
 20
-3.42797
 30
0.0
 10
8.04232
 20
-3.48522
 30
0.0
 10
8.0898
 20
-3.54078
 30
0.0
 10
8.13993
 20
-3.59446
 30
0.0
  0
SPLINE
  5
A8
330
1F
100
AcDbEntity
  8
Layer 1
 62
   250
370
    20
100
AcDbSpline
210
0.0
220
0.0
230
1.0
 70
     8
 71
     3
 72
     8
 73
     4
 74
     0
 42
0.0000000001
 43
0.0000000001
 40
0.0
 40
0.0
 40
0.0
 40
0.0
 40
1.0
 40
1.0
 40
1.0
 40
1.0
 10
8.77198
 20
-4.07782
 30
0.0
 10
8.87199
 20
-4.13021
 30
0.0
 10
8.97932
 20
-4.17665
 30
0.0
 10
9.09533
 20
-4.21471
 30
0.0
  0
SPLINE
  5
A9
330
1F
100
AcDbEntity
  8
Layer 1
 62
   250
370
    20
100
AcDbSpline
210
0.0
220
0.0
230
1.0
 70
     8
 71
     3
 72
    11
 73
     7
 74
     0
 42
0.0000000001
 43
0.0000000001
 40
0.0
 40
0.0
 40
0.0
 40
0.0
 40
0.5
 40
0.5
 40
0.5
 40
1.0
 40
1.0
 40
1.0
 40
1.0
 10
9.19677
 20
-4.2452
 30
0.0
 10
9.29517
 20
-4.27213
 30
0.0
 10
9.39958
 20
-4.2931
 30
0.0
 10
9.5107
 20
-4.30685
 30
0.0
 10
9.51503
 20
-4.30737
 30
0.0
 10
9.51937
 20
-4.3079
 30
0.0
 10
9.52372
 20
-4.30841
 30
0.0
  0
SPLINE
  5
AA
330
1F
100
AcDbEntity
  8
Layer 1
 62
   250
370
    20
100
AcDbSpline
210
0.0
220
0.0
230
1.0
 70
     8
 71
     3
 72
    11
 73
     7
 74
     0
 42
0.0000000001
 43
0.0000000001
 40
0.0
 40
0.0
 40
0.0
 40
0.0
 40
0.5
 40
0.5
 40
0.5
 40
1.0
 40
1.0
 40
1.0
 40
1.0
 10
10.33111
 20
-4.28351
 30
0.0
 10
10.46212
 20
-4.26132
 30
0.0
 10
10.59363
 20
-4.23015
 30
0.0
 10
10.72256
 20
-4.18946
 30
0.0
 10
10.85574
 20
-4.14743
 30
0.0
 10
10.98621
 20
-4.09519
 30
0.0
 10
11.11248
 20
-4.03526
 30
0.0
  0
SPLINE
  5
AB
330
1F
100
AcDbEntity
  8
Layer 1
 62
   250
370
    20
100
AcDbSpline
210
0.0
220
0.0
230
1.0
 70
     8
 71
     3
 72
    11
 73
     7
 74
     0
 42
0.0000000001
 43
0.0000000001
 40
0.0
 40
0.0
 40
0.0
 40
0.0
 40
0.5
 40
0.5
 40
0.5
 40
1.0
 40
1.0
 40
1.0
 40
1.0
 10
11.56363
 20
-3.77882
 30
0.0
 10
11.65809
 20
-3.71603
 30
0.0
 10
11.74828
 20
-3.64999
 30
0.0
 10
11.83342
 20
-3.58218
 30
0.0
 10
11.95119
 20
-3.48838
 30
0.0
 10
12.05923
 20
-3.39115
 30
0.0
 10
12.15843
 20
-3.29192
 30
0.0
  0
SPLINE
  5
AC
330
1F
100
AcDbEntity
  8
Layer 1
 62
   250
370
    20
100
AcDbSpline
210
0.0
220
0.0
230
1.0
 70
     8
 71
     3
 72
    23
 73
    19
 74
     0
 42
0.0000000001
 43
0.0000000001
 40
0.0
 40
0.0
 40
0.0
 40
0.0
 40
0.1666666666666667
 40
0.1666666666666667
 40
0.1666666666666667
 40
0.3333333333333333
 40
0.3333333333333333
 40
0.3333333333333333
 40
0.5
 40
0.5
 40
0.5
 40
0.6666666666666666
 40
0.6666666666666666
 40
0.6666666666666666
 40
0.8333333333333333
 40
0.8333333333333333
 40
0.8333333333333333
 40
1.0
 40
1.0
 40
1.0
 40
1.0
 10
12.53726
 20
-2.85108
 30
0.0
 10
12.55414
 20
-2.8282
 30
0.0
 10
12.57062
 20
-2.80532
 30
0.0
 10
12.58674
 20
-2.78247
 30
0.0
 10
12.77916
 20
-2.50952
 30
0.0
 10
12.91836
 20
-2.23931
 30
0.0
 10
13.00981
 20
-2.03052
 30
0.0
 10
13.10124
 20
-1.82171
 30
0.0
 10
13.1449
 20
-1.67432
 30
0.0
 10
13.14627
 20
-1.61973
 30
0.0
 10
13.14763
 20
-1.56514
 30
0.0
 10
13.10669
 20
-1.60336
 30
0.0
 10
13.01799
 20
-1.6907
 30
0.0
 10
12.92928
 20
-1.77805
 30
0.0
 10
12.79281
 20
-1.91452
 30
0.0
 10
12.6195
 20
-2.05645
 30
0.0
 10
12.61246
 20
-2.06221
 30
0.0
 10
12.60538
 20
-2.06797
 30
0.0
 10
12.59823
 20
-2.07374
 30
0.0
  0
SPLINE
  5
AD
330
1F
100
AcDbEntity
  8
Layer 1
 62
   250
370
    20
100
AcDbSpline
210
0.0
220
0.0
230
1.0
 70
     8
 71
     3
 72
    11
 73
     7
 74
     0
 42
0.0000000001
 43
0.0000000001
 40
0.0
 40
0.0
 40
0.0
 40
0.0
 40
0.5
 40
0.5
 40
0.5
 40
1.0
 40
1.0
 40
1.0
 40
1.0
 10
12.42043
 20
-2.20958
 30
0.0
 10
12.29381
 20
-2.30114
 30
0.0
 10
12.15502
 20
-2.39112
 30
0.0
 10
12.00947
 20
-2.47268
 30
0.0
 10
11.90351
 20
-2.53204
 30
0.0
 10
11.79397
 20
-2.58693
 30
0.0
 10
11.67427
 20
-2.63845
 30
0.0
  0
SPLINE
  5
AE
330
1F
100
AcDbEntity
  8
Layer 1
 62
   250
370
    20
100
AcDbSpline
210
0.0
220
0.0
230
1.0
 70
     8
 71
     3
 72
    11
 73
     7
 74
     0
 42
0.0000000001
 43
0.0000000001
 40
0.0
 40
0.0
 40
0.0
 40
0.0
 40
0.5
 40
0.5
 40
0.5
 40
1.0
 40
1.0
 40
1.0
 40
1.0
 10
11.35428
 20
-2.75953
 30
0.0
 10
11.30998
 20
-2.77423
 30
0.0
 10
11.26415
 20
-2.78869
 30
0.0
 10
11.21658
 20
-2.80293
 30
0.0
 10
11.08635
 20
-2.84195
 30
0.0
 10
10.94305
 20
-2.87942
 30
0.0
 10
10.7925
 20
-2.91213
 30
0.0
  0
SPLINE
  5
AF
330
1F
100
AcDbEntity
  8
Layer 1
 62
   250
370
    20
100
AcDbSpline
210
0.0
220
0.0
230
1.0
 70
     8
 71
     3
 72
    11
 73
     7
 74
     0
 42
0.0000000001
 43
0.0000000001
 40
0.0
 40
0.0
 40
0.0
 40
0.0
 40
0.5
 40
0.5
 40
0.5
 40
1.0
 40
1.0
 40
1.0
 40
1.0
 10
10.1918
 20
-3.00754
 30
0.0
 10
10.15901
 20
-3.01068
 30
0.0
 10
10.12618
 20
-3.01346
 30
0.0
 10
10.09344
 20
-3.01583
 30
0.0
 10
9.96414
 20
-3.02519
 30
0.0
 10
9.83572
 20
-3.02828
 30
0.0
 10
9.7103
 20
-3.02555
 30
0.0
  0
SPLINE
  5
B0
330
1F
100
AcDbEntity
  8
Layer 1
 62
   250
370
    20
100
AcDbSpline
210
0.0
220
0.0
230
1.0
 70
     8
 71
     3
 72
    11
 73
     7
 74
     0
 42
0.0000000001
 43
0.0000000001
 40
0.0
 40
0.0
 40
0.0
 40
0.0
 40
0.5
 40
0.5
 40
0.5
 40
1.0
 40
1.0
 40
1.0
 40
1.0
 10
9.2831
 20
-2.99229
 30
0.0
 10
9.18129
 20
-2.97827
 30
0.0
 10
9.08381
 20
-2.96008
 30
0.0
 10
8.99212
 20
-2.93805
 30
0.0
 10
8.91655
 20
-2.91988
 30
0.0
 10
8.8449
 20
-2.89908
 30
0.0
 10
8.77654
 20
-2.87581
 30
0.0
  0
SPLINE
  5
B1
330
1F
100
AcDbEntity
  8
Layer 1
 62
   250
370
    20
100
AcDbSpline
210
0.0
220
0.0
230
1.0
 70
     8
 71
     3
 72
    11
 73
     7
 74
     0
 42
0.0000000001
 43
0.0000000001
 40
0.0
 40
0.0
 40
0.0
 40
0.0
 40
0.5
 40
0.5
 40
0.5
 40
1.0
 40
1.0
 40
1.0
 40
1.0
 10
8.40513
 20
-2.7097
 30
0.0
 10
8.33383
 20
-2.6695
 30
0.0
 10
8.26559
 20
-2.62589
 30
0.0
 10
8.19923
 20
-2.57912
 30
0.0
 10
8.14053
 20
-2.53775
 30
0.0
 10
8.08332
 20
-2.4939
 30
0.0
 10
8.02815
 20
-2.44884
 30
0.0
  0
SPLINE
  5
B2
330
1F
100
AcDbEntity
  8
Layer 1
 62
   250
370
    20
100
AcDbSpline
210
0.0
220
0.0
230
1.0
 70
     8
 71
     3
 72
    20
 73
    16
 74
     0
 42
0.0000000001
 43
0.0000000001
 40
0.0
 40
0.0
 40
0.0
 40
0.0
 40
0.2
 40
0.2
 40
0.2
 40
0.4
 40
0.4
 40
0.4
 40
0.6000000000000001
 40
0.6000000000000001
 40
0.6000000000000001
 40
0.8
 40
0.8
 40
0.8
 40
1.0
 40
1.0
 40
1.0
 40
1.0
 10
7.70458
 20
-2.15089
 30
0.0
 10
7.67492
 20
-2.12037
 30
0.0
 10
7.64684
 20
-2.09057
 30
0.0
 10
7.62061
 20
-2.06189
 30
0.0
 10
7.47322
 20
-1.90086
 30
0.0
 10
7.38313
 20
-1.77531
 30
0.0
 10
7.334
 20
-1.71936
 30
0.0
 10
7.28488
 20
-1.6634
 30
0.0
 10
7.27669
 20
-1.67706
 30
0.0
 10
7.27261
 20
-1.71663
 30
0.0
 10
7.26851
 20
-1.75621
 30
0.0
 10
7.26851
 20
-1.82171
 30
0.0
 10
7.31763
 20
-1.99776
 30
0.0
 10
7.33446
 20
-2.05809
 30
0.0
 10
7.35708
 20
-2.13141
 30
0.0
 10
7.3842
 20
-2.21223
 30
0.0
  0
SPLINE
  5
B3
330
1F
100
AcDbEntity
  8
Layer 1
 62
   250
370
    20
100
AcDbSpline
210
0.0
220
0.0
230
1.0
 70
     8
 71
     3
 72
    11
 73
     7
 74
     0
 42
0.0000000001
 43
0.0000000001
 40
0.0
 40
0.0
 40
0.0
 40
0.0
 40
0.5
 40
0.5
 40
0.5
 40
1.0
 40
1.0
 40
1.0
 40
1.0
 10
7.38419
 20
-2.21223
 30
0.0
 10
7.38419
 20
-2.21223
 30
0.0
 10
7.56432
 20
-2.24116
 30
0.0
 10
7.56432
 20
-2.24116
 30
0.0
 10
7.56432
 20
-2.24116
 30
0.0
 10
7.44784
 20
-2.39243
 30
0.0
 10
7.44784
 20
-2.39243
 30
0.0
  0
SPLINE
  5
B4
330
1F
100
AcDbEntity
  8
Layer 1
 62
   250
370
    20
100
AcDbSpline
210
0.0
220
0.0
230
1.0
 70
     8
 71
     3
 72
    11
 73
     7
 74
     0
 42
0.0000000001
 43
0.0000000001
 40
0.0
 40
0.0
 40
0.0
 40
0.0
 40
0.5
 40
0.5
 40
0.5
 40
1.0
 40
1.0
 40
1.0
 40
1.0
 10
7.70458
 20
-2.15088
 30
0.0
 10
7.70458
 20
-2.15088
 30
0.0
 10
7.78026
 20
-2.6164
 30
0.0
 10
7.78026
 20
-2.6164
 30
0.0
 10
7.78026
 20
-2.6164
 30
0.0
 10
8.02815
 20
-2.44884
 30
0.0
 10
8.02815
 20
-2.44884
 30
0.0
  0
SPLINE
  5
B5
330
1F
100
AcDbEntity
  8
Layer 1
 62
   250
370
    20
100
AcDbSpline
210
0.0
220
0.0
230
1.0
 70
     8
 71
     3
 72
    11
 73
     7
 74
     0
 42
0.0000000001
 43
0.0000000001
 40
0.0
 40
0.0
 40
0.0
 40
0.0
 40
0.5
 40
0.5
 40
0.5
 40
1.0
 40
1.0
 40
1.0
 40
1.0
 10
7.66919
 20
-2.90702
 30
0.0
 10
7.66919
 20
-2.90702
 30
0.0
 10
8.14489
 20
-2.80756
 30
0.0
 10
8.14489
 20
-2.80756
 30
0.0
 10
8.14489
 20
-2.80756
 30
0.0
 10
7.9051
 20
-3.30386
 30
0.0
 10
7.9051
 20
-3.30386
 30
0.0
  0
SPLINE
  5
B6
330
1F
100
AcDbEntity
  8
Layer 1
 62
   250
370
    20
100
AcDbSpline
210
0.0
220
0.0
230
1.0
 70
     8
 71
     3
 72
    11
 73
     7
 74
     0
 42
0.0000000001
 43
0.0000000001
 40
0.0
 40
0.0
 40
0.0
 40
0.0
 40
0.5
 40
0.5
 40
0.5
 40
1.0
 40
1.0
 40
1.0
 40
1.0
 10
8.40513
 20
-2.7097
 30
0.0
 10
8.40513
 20
-2.7097
 30
0.0
 10
8.33957
 20
-3.0943
 30
0.0
 10
8.33957
 20
-3.0943
 30
0.0
 10
8.33957
 20
-3.0943
 30
0.0
 10
8.77654
 20
-2.87581
 30
0.0
 10
8.77654
 20
-2.87581
 30
0.0
  0
SPLINE
  5
B7
330
1F
100
AcDbEntity
  8
Layer 1
 62
   250
370
    20
100
AcDbSpline
210
0.0
220
0.0
230
1.0
 70
     8
 71
     3
 72
    11
 73
     7
 74
     0
 42
0.0000000001
 43
0.0000000001
 40
0.0
 40
0.0
 40
0.0
 40
0.0
 40
0.5
 40
0.5
 40
0.5
 40
1.0
 40
1.0
 40
1.0
 40
1.0
 10
8.13993
 20
-3.59446
 30
0.0
 10
8.13993
 20
-3.59446
 30
0.0
 10
8.8635
 20
-3.34563
 30
0.0
 10
8.8635
 20
-3.34563
 30
0.0
 10
8.8635
 20
-3.34563
 30
0.0
 10
8.77198
 20
-4.07782
 30
0.0
 10
8.77198
 20
-4.07782
 30
0.0
  0
SPLINE
  5
B8
330
1F
100
AcDbEntity
  8
Layer 1
 62
   250
370
    20
100
AcDbSpline
210
0.0
220
0.0
230
1.0
 70
     8
 71
     3
 72
    11
 73
     7
 74
     0
 42
0.0000000001
 43
0.0000000001
 40
0.0
 40
0.0
 40
0.0
 40
0.0
 40
0.5
 40
0.5
 40
0.5
 40
1.0
 40
1.0
 40
1.0
 40
1.0
 10
9.2831
 20
-2.99229
 30
0.0
 10
9.2831
 20
-2.99229
 30
0.0
 10
9.3237
 20
-3.37041
 30
0.0
 10
9.3237
 20
-3.37041
 30
0.0
 10
9.3237
 20
-3.37041
 30
0.0
 10
9.7103
 20
-3.02555
 30
0.0
 10
9.7103
 20
-3.02555
 30
0.0
  0
SPLINE
  5
B9
330
1F
100
AcDbEntity
  8
Layer 1
 62
   250
370
    20
100
AcDbSpline
210
0.0
220
0.0
230
1.0
 70
     8
 71
     3
 72
    11
 73
     7
 74
     0
 42
0.0000000001
 43
0.0000000001
 40
0.0
 40
0.0
 40
0.0
 40
0.0
 40
0.5
 40
0.5
 40
0.5
 40
1.0
 40
1.0
 40
1.0
 40
1.0
 10
9.52372
 20
-4.30841
 30
0.0
 10
9.52372
 20
-4.30841
 30
0.0
 10
10.12021
 20
-3.68547
 30
0.0
 10
10.12021
 20
-3.68547
 30
0.0
 10
10.12021
 20
-3.68547
 30
0.0
 10
10.33111
 20
-4.28351
 30
0.0
 10
10.33111
 20
-4.28351
 30
0.0
  0
SPLINE
  5
BA
330
1F
100
AcDbEntity
  8
Layer 1
 62
   250
370
    20
100
AcDbSpline
210
0.0
220
0.0
230
1.0
 70
     8
 71
     3
 72
    11
 73
     7
 74
     0
 42
0.0000000001
 43
0.0000000001
 40
0.0
 40
0.0
 40
0.0
 40
0.0
 40
0.5
 40
0.5
 40
0.5
 40
1.0
 40
1.0
 40
1.0
 40
1.0
 10
10.1918
 20
-3.00754
 30
0.0
 10
10.1918
 20
-3.00754
 30
0.0
 10
10.52378
 20
-3.51202
 30
0.0
 10
10.52378
 20
-3.51202
 30
0.0
 10
10.52378
 20
-3.51202
 30
0.0
 10
10.7925
 20
-2.91213
 30
0.0
 10
10.7925
 20
-2.91213
 30
0.0
  0
SPLINE
  5
BB
330
1F
100
AcDbEntity
  8
Layer 1
 62
   250
370
    20
100
AcDbSpline
210
0.0
220
0.0
230
1.0
 70
     8
 71
     3
 72
    11
 73
     7
 74
     0
 42
0.0000000001
 43
0.0000000001
 40
0.0
 40
0.0
 40
0.0
 40
0.0
 40
0.5
 40
0.5
 40
0.5
 40
1.0
 40
1.0
 40
1.0
 40
1.0
 10
11.35428
 20
-2.75953
 30
0.0
 10
11.35428
 20
-2.75953
 30
0.0
 10
11.67428
 20
-3.05182
 30
0.0
 10
11.67428
 20
-3.05182
 30
0.0
 10
11.67428
 20
-3.05182
 30
0.0
 10
11.67428
 20
-2.63845
 30
0.0
 10
11.67428
 20
-2.63845
 30
0.0
  0
SPLINE
  5
BC
330
1F
100
AcDbEntity
  8
Layer 1
 62
   250
370
    20
100
AcDbSpline
210
0.0
220
0.0
230
1.0
 70
     8
 71
     3
 72
    11
 73
     7
 74
     0
 42
0.0000000001
 43
0.0000000001
 40
0.0
 40
0.0
 40
0.0
 40
0.0
 40
0.5
 40
0.5
 40
0.5
 40
1.0
 40
1.0
 40
1.0
 40
1.0
 10
11.11248
 20
-4.03527
 30
0.0
 10
11.11248
 20
-4.03527
 30
0.0
 10
11.18222
 20
-3.41999
 30
0.0
 10
11.18222
 20
-3.41999
 30
0.0
 10
11.18222
 20
-3.41999
 30
0.0
 10
11.56363
 20
-3.77882
 30
0.0
 10
11.56363
 20
-3.77882
 30
0.0
  0
SPLINE
  5
BD
330
1F
100
AcDbEntity
  8
Layer 1
 62
   250
370
    20
100
AcDbSpline
210
0.0
220
0.0
230
1.0
 70
     8
 71
     3
 72
    11
 73
     7
 74
     0
 42
0.0000000001
 43
0.0000000001
 40
0.0
 40
0.0
 40
0.0
 40
0.0
 40
0.5
 40
0.5
 40
0.5
 40
1.0
 40
1.0
 40
1.0
 40
1.0
 10
12.15843
 20
-3.29193
 30
0.0
 10
12.15843
 20
-3.29193
 30
0.0
 10
12.16633
 20
-2.76154
 30
0.0
 10
12.16633
 20
-2.76154
 30
0.0
 10
12.16633
 20
-2.76154
 30
0.0
 10
12.53726
 20
-2.85108
 30
0.0
 10
12.53726
 20
-2.85108
 30
0.0
  0
SPLINE
  5
BE
330
1F
100
AcDbEntity
  8
Layer 1
 62
   250
370
    20
100
AcDbSpline
210
0.0
220
0.0
230
1.0
 70
     8
 71
     3
 72
    11
 73
     7
 74
     0
 42
0.0000000001
 43
0.0000000001
 40
0.0
 40
0.0
 40
0.0
 40
0.0
 40
0.5
 40
0.5
 40
0.5
 40
1.0
 40
1.0
 40
1.0
 40
1.0
 10
12.42043
 20
-2.20958
 30
0.0
 10
12.42043
 20
-2.20958
 30
0.0
 10
12.623
 20
-2.3615
 30
0.0
 10
12.623
 20
-2.3615
 30
0.0
 10
12.623
 20
-2.3615
 30
0.0
 10
12.59823
 20
-2.07374
 30
0.0
 10
12.59823
 20
-2.07374
 30
0.0
  0
SPLINE
  5
BF
330
1F
100
AcDbEntity
  8
Layer 1
 62
   250
370
    20
100
AcDbSpline
210
0.0
220
0.0
230
1.0
 70
     8
 71
     3
 72
    11
 73
     7
 74
     0
 42
0.0000000001
 43
0.0000000001
 40
0.0
 40
0.0
 40
0.0
 40
0.0
 40
0.5
 40
0.5
 40
0.5
 40
1.0
 40
1.0
 40
1.0
 40
1.0
 10
8.80514
 20
-0.33029
 30
0.0
 10
8.80514
 20
-0.33029
 30
0.0
 10
8.9419
 20
0.49955
 30
0.0
 10
8.9419
 20
0.49955
 30
0.0
 10
8.9419
 20
0.49955
 30
0.0
 10
8.89558
 20
-0.37439
 30
0.0
 10
8.89558
 20
-0.37439
 30
0.0
  0
SPLINE
  5
C0
330
1F
100
AcDbEntity
  8
Layer 1
 62
   250
370
    20
100
AcDbSpline
210
0.0
220
0.0
230
1.0
 70
     8
 71
     3
 72
    11
 73
     7
 74
     0
 42
0.0000000001
 43
0.0000000001
 40
0.0
 40
0.0
 40
0.0
 40
0.0
 40
0.5
 40
0.5
 40
0.5
 40
1.0
 40
1.0
 40
1.0
 40
1.0
 10
8.10311
 20
-5.401
 30
0.0
 10
8.10311
 20
-5.401
 30
0.0
 10
8.12141
 20
-4.88171
 30
0.0
 10
8.12141
 20
-4.88171
 30
0.0
 10
8.12141
 20
-4.88171
 30
0.0
 10
8.21643
 20
-5.401
 30
0.0
 10
8.21643
 20
-5.401
 30
0.0
  0
SPLINE
  5
C1
330
1F
100
AcDbEntity
  8
Layer 1
 62
   250
370
    20
100
AcDbSpline
210
0.0
220
0.0
230
1.0
 70
     8
 71
     3
 72
    11
 73
     7
 74
     0
 42
0.0000000001
 43
0.0000000001
 40
0.0
 40
0.0
 40
0.0
 40
0.0
 40
0.5
 40
0.5
 40
0.5
 40
1.0
 40
1.0
 40
1.0
 40
1.0
 10
10.76526
 20
-5.401
 30
0.0
 10
10.76526
 20
-5.401
 30
0.0
 10
10.86859
 20
-5.15516
 30
0.0
 10
10.86859
 20
-5.15516
 30
0.0
 10
10.86859
 20
-5.15516
 30
0.0
 10
10.91329
 20
-5.401
 30
0.0
 10
10.91329
 20
-5.401
 30
0.0
  0
SPLINE
  5
C2
330
1F
100
AcDbEntity
  8
Layer 1
 62
   250
370
    20
100
AcDbSpline
210
0.0
220
0.0
230
1.0
 70
     8
 71
     3
 72
    59
 73
    55
 74
     0
 42
0.0000000001
 43
0.0000000001
 40
0.0
 40
0.0
 40
0.0
 40
0.0
 40
0.0555555555555556
 40
0.0555555555555556
 40
0.0555555555555556
 40
0.1111111111111111
 40
0.1111111111111111
 40
0.1111111111111111
 40
0.1666666666666667
 40
0.1666666666666667
 40
0.1666666666666667
 40
0.2222222222222222
 40
0.2222222222222222
 40
0.2222222222222222
 40
0.2777777777777778
 40
0.2777777777777778
 40
0.2777777777777778
 40
0.3333333333333333
 40
0.3333333333333333
 40
0.3333333333333333
 40
0.3888888888888888
 40
0.3888888888888888
 40
0.3888888888888888
 40
0.4444444444444444
 40
0.4444444444444444
 40
0.4444444444444444
 40
0.5
 40
0.5
 40
0.5
 40
0.5555555555555556
 40
0.5555555555555556
 40
0.5555555555555556
 40
0.611111111111111
 40
0.611111111111111
 40
0.611111111111111
 40
0.6666666666666666
 40
0.6666666666666666
 40
0.6666666666666666
 40
0.7222222222222222
 40
0.7222222222222222
 40
0.7222222222222222
 40
0.7777777777777777
 40
0.7777777777777777
 40
0.7777777777777777
 40
0.8333333333333333
 40
0.8333333333333333
 40
0.8333333333333333
 40
0.8888888888888888
 40
0.8888888888888888
 40
0.8888888888888888
 40
0.9444444444444444
 40
0.9444444444444444
 40
0.9444444444444444
 40
1.0
 40
1.0
 40
1.0
 40
1.0
 10
6.42378
 20
1.15729
 30
0.0
 10
6.42378
 20
1.15729
 30
0.0
 10
7.26224
 20
1.90496
 30
0.0
 10
7.26224
 20
1.90496
 30
0.0
 10
7.26224
 20
1.90496
 30
0.0
 10
7.7607
 20
1.37802
 30
0.0
 10
7.7607
 20
1.37802
 30
0.0
 10
7.7607
 20
1.37802
 30
0.0
 10
7.78918
 20
0.60899
 30
0.0
 10
7.78918
 20
0.60899
 30
0.0
 10
7.78918
 20
0.60899
 30
0.0
 10
7.86037
 20
1.36378
 30
0.0
 10
7.86037
 20
1.36378
 30
0.0
 10
7.86037
 20
1.36378
 30
0.0
 10
8.85017
 20
1.82664
 30
0.0
 10
8.85017
 20
1.82664
 30
0.0
 10
8.85017
 20
1.82664
 30
0.0
 10
8.94273
 20
1.60589
 30
0.0
 10
8.94273
 20
1.60589
 30
0.0
 10
8.94273
 20
1.60589
 30
0.0
 10
9.56224
 20
1.60589
 30
0.0
 10
9.56224
 20
1.60589
 30
0.0
 10
9.56224
 20
1.60589
 30
0.0
 10
9.59184
 20
1.19584
 30
0.0
 10
9.59184
 20
1.19584
 30
0.0
 10
9.59184
 20
1.19584
 30
0.0
 10
9.72034
 20
1.6081
 30
0.0
 10
9.72034
 20
1.6081
 30
0.0
 10
9.72034
 20
1.6081
 30
0.0
 10
10.02553
 20
1.61881
 30
0.0
 10
10.02553
 20
1.61881
 30
0.0
 10
10.02553
 20
1.61881
 30
0.0
 10
10.74029
 20
1.31363
 30
0.0
 10
10.74029
 20
1.31363
 30
0.0
 10
10.74029
 20
1.31363
 30
0.0
 10
11.09902
 20
1.58401
 30
0.0
 10
11.09902
 20
1.58401
 30
0.0
 10
11.09902
 20
1.58401
 30
0.0
 10
11.12044
 20
1.31363
 30
0.0
 10
11.12044
 20
1.31363
 30
0.0
 10
11.12044
 20
1.31363
 30
0.0
 10
11.21145
 20
1.64826
 30
0.0
 10
11.21145
 20
1.64826
 30
0.0
 10
11.21145
 20
1.64826
 30
0.0
 10
11.72812
 20
2.04714
 30
0.0
 10
11.72812
 20
2.04714
 30
0.0
 10
11.72812
 20
2.04714
 30
0.0
 10
12.05472
 20
1.82494
 30
0.0
 10
12.05472
 20
1.82494
 30
0.0
 10
12.05472
 20
1.82494
 30
0.0
 10
13.00238
 20
2.09982
 30
0.0
 10
13.00238
 20
2.09982
 30
0.0
 10
13.00238
 20
2.09982
 30
0.0
 10
13.9246
 20
1.65361
 30
0.0
 10
13.9246
 20
1.65361
 30
0.0
  0
SPLINE
  5
C3
330
1F
100
AcDbEntity
  8
Layer 1
 62
   250
370
    20
100
AcDbSpline
210
0.0
220
0.0
230
1.0
 70
     8
 71
     3
 72
    11
 73
     7
 74
     0
 42
0.0000000001
 43
0.0000000001
 40
0.0
 40
0.0
 40
0.0
 40
0.0
 40
0.5
 40
0.5
 40
0.5
 40
1.0
 40
1.0
 40
1.0
 40
1.0
 10
9.09533
 20
-4.21471
 30
0.0
 10
9.09533
 20
-4.21471
 30
0.0
 10
9.15004
 20
-4.70214
 30
0.0
 10
9.15004
 20
-4.70214
 30
0.0
 10
9.15004
 20
-4.70214
 30
0.0
 10
9.19677
 20
-4.2452
 30
0.0
 10
9.19677
 20
-4.2452
 30
0.0
  0
SPLINE
  5
C4
330
1F
100
AcDbEntity
  8
Layer 1
 62
   250
370
    20
100
AcDbSpline
210
0.0
220
0.0
230
1.0
 70
     8
 71
     3
 72
    14
 73
    10
 74
     0
 42
0.0000000001
 43
0.0000000001
 40
0.0
 40
0.0
 40
0.0
 40
0.0
 40
0.3333333333333333
 40
0.3333333333333333
 40
0.3333333333333333
 40
0.6666666666666666
 40
0.6666666666666666
 40
0.6666666666666666
 40
1.0
 40
1.0
 40
1.0
 40
1.0
 10
10.54923
 20
-5.401
 30
0.0
 10
10.54923
 20
-5.401
 30
0.0
 10
10.54923
 20
-5.10097
 30
0.0
 10
10.54923
 20
-5.10097
 30
0.0
 10
10.54923
 20
-5.10097
 30
0.0
 10
9.79916
 20
-5.10097
 30
0.0
 10
9.79916
 20
-5.10097
 30
0.0
 10
9.79916
 20
-5.10097
 30
0.0
 10
9.79916
 20
-5.401
 30
0.0
 10
9.79916
 20
-5.401
 30
0.0
  0
SPLINE
  5
C5
330
1F
100
AcDbEntity
  8
Layer 1
 62
   250
370
    20
100
AcDbSpline
210
0.0
220
0.0
230
1.0
 70
     8
 71
     3
 72
    11
 73
     7
 74
     0
 42
0.0000000001
 43
0.0000000001
 40
0.0
 40
0.0
 40
0.0
 40
0.0
 40
0.5
 40
0.5
 40
0.5
 40
1.0
 40
1.0
 40
1.0
 40
1.0
 10
6.78896
 20
-7.20005
 30
0.0
 10
6.78896
 20
-7.20005
 30
0.0
 10
6.78896
 20
-5.61172
 30
0.0
 10
6.78896
 20
-5.61172
 30
0.0
 10
6.78896
 20
-5.61172
 30
0.0
 10
3.41359
 20
-5.61172
 30
0.0
 10
3.41359
 20
-5.61172
 30
0.0
  0
SPLINE
  5
C6
330
1F
100
AcDbEntity
  8
Layer 1
 62
   250
370
    20
100
AcDbSpline
210
0.0
220
0.0
230
1.0
 70
     8
 71
     3
 72
    11
 73
     7
 74
     0
 42
0.0000000001
 43
0.0000000001
 40
0.0
 40
0.0
 40
0.0
 40
0.0
 40
0.5
 40
0.5
 40
0.5
 40
1.0
 40
1.0
 40
1.0
 40
1.0
 10
2.66352
 20
-5.61172
 30
0.0
 10
2.66352
 20
-5.61172
 30
0.0
 10
-0.71186
 20
-5.61172
 30
0.0
 10
-0.71186
 20
-5.61172
 30
0.0
 10
-0.71186
 20
-5.61172
 30
0.0
 10
-0.71186
 20
-7.77777
 30
0.0
 10
-0.71186
 20
-7.77777
 30
0.0
  0
SPLINE
  5
C7
330
1F
100
AcDbEntity
  8
Layer 1
 62
   250
370
    20
100
AcDbSpline
210
0.0
220
0.0
230
1.0
 70
     8
 71
     3
 72
    47
 73
    43
 74
     0
 42
0.0000000001
 43
0.0000000001
 40
0.0
 40
0.0
 40
0.0
 40
0.0
 40
0.0714285714285714
 40
0.0714285714285714
 40
0.0714285714285714
 40
0.1428571428571428
 40
0.1428571428571428
 40
0.1428571428571428
 40
0.2142857142857143
 40
0.2142857142857143
 40
0.2142857142857143
 40
0.2857142857142857
 40
0.2857142857142857
 40
0.2857142857142857
 40
0.3571428571428571
 40
0.3571428571428571
 40
0.3571428571428571
 40
0.4285714285714285
 40
0.4285714285714285
 40
0.4285714285714285
 40
0.5
 40
0.5
 40
0.5
 40
0.5714285714285714
 40
0.5714285714285714
 40
0.5714285714285714
 40
0.6428571428571428
 40
0.6428571428571428
 40
0.6428571428571428
 40
0.7142857142857142
 40
0.7142857142857142
 40
0.7142857142857142
 40
0.7857142857142857
 40
0.7857142857142857
 40
0.7857142857142857
 40
0.8571428571428571
 40
0.8571428571428571
 40
0.8571428571428571
 40
0.9285714285714285
 40
0.9285714285714285
 40
0.9285714285714285
 40
1.0
 40
1.0
 40
1.0
 40
1.0
 10
-0.71186
 20
-7.77777
 30
0.0
 10
-0.71186
 20
-7.77777
 30
0.0
 10
-0.37903
 20
-7.50525
 30
0.0
 10
-0.37903
 20
-7.50525
 30
0.0
 10
-0.37903
 20
-7.50525
 30
0.0
 10
0.58718
 20
-7.39997
 30
0.0
 10
0.58718
 20
-7.39997
 30
0.0
 10
0.58718
 20
-7.39997
 30
0.0
 10
0.61196
 20
-6.81157
 30
0.0
 10
0.61196
 20
-6.81157
 30
0.0
 10
0.61196
 20
-6.81157
 30
0.0
 10
0.71104
 20
-7.62914
 30
0.0
 10
0.71104
 20
-7.62914
 30
0.0
 10
0.71104
 20
-7.62914
 30
0.0
 10
2.19133
 20
-7.2761
 30
0.0
 10
2.19133
 20
-7.2761
 30
0.0
 10
2.19133
 20
-7.2761
 30
0.0
 10
2.91599
 20
-7.54862
 30
0.0
 10
2.91599
 20
-7.54862
 30
0.0
 10
2.91599
 20
-7.54862
 30
0.0
 10
3.46723
 20
-6.91067
 30
0.0
 10
3.46723
 20
-6.91067
 30
0.0
 10
3.46723
 20
-6.91067
 30
0.0
 10
3.75648
 20
-6.96741
 30
0.0
 10
3.75648
 20
-6.96741
 30
0.0
 10
3.75648
 20
-6.96741
 30
0.0
 10
3.89902
 20
-6.61718
 30
0.0
 10
3.89902
 20
-6.61718
 30
0.0
 10
3.89902
 20
-6.61718
 30
0.0
 10
3.98454
 20
-7.04072
 30
0.0
 10
3.98454
 20
-7.04072
 30
0.0
 10
3.98454
 20
-7.04072
 30
0.0
 10
4.73386
 20
-7.26878
 30
0.0
 10
4.73386
 20
-7.26878
 30
0.0
 10
4.73386
 20
-7.26878
 30
0.0
 10
5.8823
 20
-6.86154
 30
0.0
 10
5.8823
 20
-6.86154
 30
0.0
 10
5.8823
 20
-6.86154
 30
0.0
 10
6.14294
 20
-7.25657
 30
0.0
 10
6.14294
 20
-7.25657
 30
0.0
 10
6.14294
 20
-7.25657
 30
0.0
 10
6.78896
 20
-7.20005
 30
0.0
 10
6.78896
 20
-7.20005
 30
0.0
  0
SPLINE
  5
C8
330
1F
100
AcDbEntity
  8
Layer 1
 62
   250
370
    20
100
AcDbSpline
210
0.0
220
0.0
230
1.0
 70
     8
 71
     3
 72
    14
 73
    10
 74
     0
 42
0.0000000001
 43
0.0000000001
 40
0.0
 40
0.0
 40
0.0
 40
0.0
 40
0.3333333333333333
 40
0.3333333333333333
 40
0.3333333333333333
 40
0.6666666666666666
 40
0.6666666666666666
 40
0.6666666666666666
 40
1.0
 40
1.0
 40
1.0
 40
1.0
 10
3.41359
 20
-5.61172
 30
0.0
 10
3.41359
 20
-5.61172
 30
0.0
 10
3.41359
 20
-5.91175
 30
0.0
 10
3.41359
 20
-5.91175
 30
0.0
 10
3.41359
 20
-5.91175
 30
0.0
 10
2.66352
 20
-5.91175
 30
0.0
 10
2.66352
 20
-5.91175
 30
0.0
 10
2.66352
 20
-5.91175
 30
0.0
 10
2.66352
 20
-5.61172
 30
0.0
 10
2.66352
 20
-5.61172
 30
0.0
  0
SPLINE
  5
C9
330
1F
100
AcDbEntity
  8
Layer 1
 62
   250
370
    20
100
AcDbSpline
210
0.0
220
0.0
230
1.0
 70
    11
 71
     3
 72
    98
 73
    94
 74
     0
 42
0.0000000001
 43
0.0000000001
 40
0.0
 40
0.0
 40
0.0
 40
0.0
 40
0.032258064516129
 40
0.032258064516129
 40
0.032258064516129
 40
0.0645161290322581
 40
0.0645161290322581
 40
0.0645161290322581
 40
0.0967741935483871
 40
0.0967741935483871
 40
0.0967741935483871
 40
0.1290322580645161
 40
0.1290322580645161
 40
0.1290322580645161
 40
0.1612903225806452
 40
0.1612903225806452
 40
0.1612903225806452
 40
0.1935483870967742
 40
0.1935483870967742
 40
0.1935483870967742
 40
0.2258064516129032
 40
0.2258064516129032
 40
0.2258064516129032
 40
0.2580645161290323
 40
0.2580645161290323
 40
0.2580645161290323
 40
0.2903225806451613
 40
0.2903225806451613
 40
0.2903225806451613
 40
0.3225806451612903
 40
0.3225806451612903
 40
0.3225806451612903
 40
0.3548387096774194
 40
0.3548387096774194
 40
0.3548387096774194
 40
0.3870967741935484
 40
0.3870967741935484
 40
0.3870967741935484
 40
0.4193548387096774
 40
0.4193548387096774
 40
0.4193548387096774
 40
0.4516129032258064
 40
0.4516129032258064
 40
0.4516129032258064
 40
0.4838709677419355
 40
0.4838709677419355
 40
0.4838709677419355
 40
0.5161290322580645
 40
0.5161290322580645
 40
0.5161290322580645
 40
0.5483870967741935
 40
0.5483870967741935
 40
0.5483870967741935
 40
0.5806451612903225
 40
0.5806451612903225
 40
0.5806451612903225
 40
0.6129032258064516
 40
0.6129032258064516
 40
0.6129032258064516
 40
0.6451612903225806
 40
0.6451612903225806
 40
0.6451612903225806
 40
0.6774193548387096
 40
0.6774193548387096
 40
0.6774193548387096
 40
0.7096774193548387
 40
0.7096774193548387
 40
0.7096774193548387
 40
0.7419354838709677
 40
0.7419354838709677
 40
0.7419354838709677
 40
0.7741935483870968
 40
0.7741935483870968
 40
0.7741935483870968
 40
0.8064516129032258
 40
0.8064516129032258
 40
0.8064516129032258
 40
0.8387096774193548
 40
0.8387096774193548
 40
0.8387096774193548
 40
0.8709677419354839
 40
0.8709677419354839
 40
0.8709677419354839
 40
0.9032258064516129
 40
0.9032258064516129
 40
0.9032258064516129
 40
0.9354838709677419
 40
0.9354838709677419
 40
0.9354838709677419
 40
0.967741935483871
 40
0.967741935483871
 40
0.967741935483871
 40
1.0
 40
1.0
 40
1.0
 40
1.0
 10
4.52575
 20
-5.51552
 30
0.0
 10
4.52575
 20
-5.51552
 30
0.0
 10
4.62078
 20
-4.99624
 30
0.0
 10
4.62078
 20
-4.99624
 30
0.0
 10
4.62078
 20
-4.99624
 30
0.0
 10
4.63907
 20
-5.51552
 30
0.0
 10
4.63907
 20
-5.51552
 30
0.0
 10
4.63907
 20
-5.51552
 30
0.0
 10
6.3184
 20
-5.51552
 30
0.0
 10
6.3184
 20
-5.51552
 30
0.0
 10
6.3184
 20
-5.51552
 30
0.0
 10
6.3184
 20
1.04277
 30
0.0
 10
6.3184
 20
1.04277
 30
0.0
 10
6.3184
 20
1.04277
 30
0.0
 10
5.47995
 20
1.79044
 30
0.0
 10
5.47995
 20
1.79044
 30
0.0
 10
5.47995
 20
1.79044
 30
0.0
 10
4.9815
 20
1.26351
 30
0.0
 10
4.9815
 20
1.26351
 30
0.0
 10
4.9815
 20
1.26351
 30
0.0
 10
4.95302
 20
0.49446
 30
0.0
 10
4.95302
 20
0.49446
 30
0.0
 10
4.95302
 20
0.49446
 30
0.0
 10
4.88181
 20
1.24926
 30
0.0
 10
4.88181
 20
1.24926
 30
0.0
 10
4.88181
 20
1.24926
 30
0.0
 10
3.89202
 20
1.71212
 30
0.0
 10
3.89202
 20
1.71212
 30
0.0
 10
3.89202
 20
1.71212
 30
0.0
 10
3.79946
 20
1.49137
 30
0.0
 10
3.79946
 20
1.49137
 30
0.0
 10
3.79946
 20
1.49137
 30
0.0
 10
3.17995
 20
1.49137
 30
0.0
 10
3.17995
 20
1.49137
 30
0.0
 10
3.17995
 20
1.49137
 30
0.0
 10
3.15034
 20
1.08132
 30
0.0
 10
3.15034
 20
1.08132
 30
0.0
 10
3.15034
 20
1.08132
 30
0.0
 10
3.02185
 20
1.49359
 30
0.0
 10
3.02185
 20
1.49359
 30
0.0
 10
3.02185
 20
1.49359
 30
0.0
 10
2.71666
 20
1.50429
 30
0.0
 10
2.71666
 20
1.50429
 30
0.0
 10
2.71666
 20
1.50429
 30
0.0
 10
2.00189
 20
1.19911
 30
0.0
 10
2.00189
 20
1.19911
 30
0.0
 10
2.00189
 20
1.19911
 30
0.0
 10
1.64317
 20
1.46949
 30
0.0
 10
1.64317
 20
1.46949
 30
0.0
 10
1.64317
 20
1.46949
 30
0.0
 10
1.62175
 20
1.19911
 30
0.0
 10
1.62175
 20
1.19911
 30
0.0
 10
1.62175
 20
1.19911
 30
0.0
 10
1.53073
 20
1.53374
 30
0.0
 10
1.53073
 20
1.53374
 30
0.0
 10
1.53073
 20
1.53374
 30
0.0
 10
1.01406
 20
1.93262
 30
0.0
 10
1.01406
 20
1.93262
 30
0.0
 10
1.01406
 20
1.93262
 30
0.0
 10
0.68747
 20
1.71042
 30
0.0
 10
0.68747
 20
1.71042
 30
0.0
 10
0.68747
 20
1.71042
 30
0.0
 10
-0.2602
 20
1.9853
 30
0.0
 10
-0.2602
 20
1.9853
 30
0.0
 10
-0.2602
 20
1.9853
 30
0.0
 10
-1.18243
 20
1.5391
 30
0.0
 10
-1.18243
 20
1.5391
 30
0.0
 10
-1.18243
 20
1.5391
 30
0.0
 10
-1.18243
 20
-5.51552
 30
0.0
 10
-1.18243
 20
-5.51552
 30
0.0
 10
-1.18243
 20
-5.51552
 30
0.0
 10
1.8289
 20
-5.51552
 30
0.0
 10
1.8289
 20
-5.51552
 30
0.0
 10
1.8289
 20
-5.51552
 30
0.0
 10
1.8736
 20
-5.26968
 30
0.0
 10
1.8736
 20
-5.26968
 30
0.0
 10
1.8736
 20
-5.26968
 30
0.0
 10
1.97693
 20
-5.51552
 30
0.0
 10
1.97693
 20
-5.51552
 30
0.0
 10
1.97693
 20
-5.51552
 30
0.0
 10
2.19294
 20
-5.51552
 30
0.0
 10
2.19294
 20
-5.51552
 30
0.0
 10
2.19294
 20
-5.51552
 30
0.0
 10
2.19294
 20
-5.21549
 30
0.0
 10
2.19294
 20
-5.21549
 30
0.0
 10
2.19294
 20
-5.21549
 30
0.0
 10
2.94303
 20
-5.21549
 30
0.0
 10
2.94303
 20
-5.21549
 30
0.0
 10
2.94303
 20
-5.21549
 30
0.0
 10
2.94303
 20
-5.51552
 30
0.0
 10
2.94303
 20
-5.51552
 30
0.0
 10
2.94303
 20
-5.51552
 30
0.0
 10
4.52575
 20
-5.51552
 30
0.0
 10
4.52575
 20
-5.51552
 30
0.0
  0
SPLINE
  5
CA
330
1F
100
AcDbEntity
  8
Layer 1
 62
   250
370
    20
100
AcDbSpline
210
0.0
220
0.0
230
1.0
 70
     8
 71
     3
 72
    11
 73
     7
 74
     0
 42
0.0000000001
 43
0.0000000001
 40
0.0
 40
0.0
 40
0.0
 40
0.0
 40
0.5
 40
0.5
 40
0.5
 40
1.0
 40
1.0
 40
1.0
 40
1.0
 10
7.119
 20
-7.20005
 30
0.0
 10
7.119
 20
-7.20005
 30
0.0
 10
7.119
 20
-5.61172
 30
0.0
 10
7.119
 20
-5.61172
 30
0.0
 10
7.119
 20
-5.61172
 30
0.0
 10
10.49437
 20
-5.61172
 30
0.0
 10
10.49437
 20
-5.61172
 30
0.0
  0
SPLINE
  5
CB
330
1F
100
AcDbEntity
  8
Layer 1
 62
   250
370
    20
100
AcDbSpline
210
0.0
220
0.0
230
1.0
 70
     8
 71
     3
 72
    11
 73
     7
 74
     0
 42
0.0000000001
 43
0.0000000001
 40
0.0
 40
0.0
 40
0.0
 40
0.0
 40
0.5
 40
0.5
 40
0.5
 40
1.0
 40
1.0
 40
1.0
 40
1.0
 10
11.24445
 20
-5.61172
 30
0.0
 10
11.24445
 20
-5.61172
 30
0.0
 10
14.61983
 20
-5.61172
 30
0.0
 10
14.61983
 20
-5.61172
 30
0.0
 10
14.61983
 20
-5.61172
 30
0.0
 10
14.61983
 20
-7.77777
 30
0.0
 10
14.61983
 20
-7.77777
 30
0.0
  0
SPLINE
  5
CC
330
1F
100
AcDbEntity
  8
Layer 1
 62
   250
370
    20
100
AcDbSpline
210
0.0
220
0.0
230
1.0
 70
     8
 71
     3
 72
    47
 73
    43
 74
     0
 42
0.0000000001
 43
0.0000000001
 40
0.0
 40
0.0
 40
0.0
 40
0.0
 40
0.0714285714285714
 40
0.0714285714285714
 40
0.0714285714285714
 40
0.1428571428571428
 40
0.1428571428571428
 40
0.1428571428571428
 40
0.2142857142857143
 40
0.2142857142857143
 40
0.2142857142857143
 40
0.2857142857142857
 40
0.2857142857142857
 40
0.2857142857142857
 40
0.3571428571428571
 40
0.3571428571428571
 40
0.3571428571428571
 40
0.4285714285714285
 40
0.4285714285714285
 40
0.4285714285714285
 40
0.5
 40
0.5
 40
0.5
 40
0.5714285714285714
 40
0.5714285714285714
 40
0.5714285714285714
 40
0.6428571428571428
 40
0.6428571428571428
 40
0.6428571428571428
 40
0.7142857142857142
 40
0.7142857142857142
 40
0.7142857142857142
 40
0.7857142857142857
 40
0.7857142857142857
 40
0.7857142857142857
 40
0.8571428571428571
 40
0.8571428571428571
 40
0.8571428571428571
 40
0.9285714285714285
 40
0.9285714285714285
 40
0.9285714285714285
 40
1.0
 40
1.0
 40
1.0
 40
1.0
 10
14.61983
 20
-7.77777
 30
0.0
 10
14.61983
 20
-7.77777
 30
0.0
 10
14.28702
 20
-7.50525
 30
0.0
 10
14.28702
 20
-7.50525
 30
0.0
 10
14.28702
 20
-7.50525
 30
0.0
 10
13.32079
 20
-7.39997
 30
0.0
 10
13.32079
 20
-7.39997
 30
0.0
 10
13.32079
 20
-7.39997
 30
0.0
 10
13.29602
 20
-6.81157
 30
0.0
 10
13.29602
 20
-6.81157
 30
0.0
 10
13.29602
 20
-6.81157
 30
0.0
 10
13.19692
 20
-7.62914
 30
0.0
 10
13.19692
 20
-7.62914
 30
0.0
 10
13.19692
 20
-7.62914
 30
0.0
 10
11.71664
 20
-7.2761
 30
0.0
 10
11.71664
 20
-7.2761
 30
0.0
 10
11.71664
 20
-7.2761
 30
0.0
 10
10.99198
 20
-7.54862
 30
0.0
 10
10.99198
 20
-7.54862
 30
0.0
 10
10.99198
 20
-7.54862
 30
0.0
 10
10.44075
 20
-6.91067
 30
0.0
 10
10.44075
 20
-6.91067
 30
0.0
 10
10.44075
 20
-6.91067
 30
0.0
 10
10.15149
 20
-6.96741
 30
0.0
 10
10.15149
 20
-6.96741
 30
0.0
 10
10.15149
 20
-6.96741
 30
0.0
 10
10.00896
 20
-6.61718
 30
0.0
 10
10.00896
 20
-6.61718
 30
0.0
 10
10.00896
 20
-6.61718
 30
0.0
 10
9.92342
 20
-7.04072
 30
0.0
 10
9.92342
 20
-7.04072
 30
0.0
 10
9.92342
 20
-7.04072
 30
0.0
 10
9.1741
 20
-7.26878
 30
0.0
 10
9.1741
 20
-7.26878
 30
0.0
 10
9.1741
 20
-7.26878
 30
0.0
 10
8.02567
 20
-6.86154
 30
0.0
 10
8.02567
 20
-6.86154
 30
0.0
 10
8.02567
 20
-6.86154
 30
0.0
 10
7.76503
 20
-7.25657
 30
0.0
 10
7.76503
 20
-7.25657
 30
0.0
 10
7.76503
 20
-7.25657
 30
0.0
 10
7.119
 20
-7.20005
 30
0.0
 10
7.119
 20
-7.20005
 30
0.0
  0
SPLINE
  5
CD
330
1F
100
AcDbEntity
  8
Layer 1
 62
   250
370
    20
100
AcDbSpline
210
0.0
220
0.0
230
1.0
 70
     8
 71
     3
 72
    14
 73
    10
 74
     0
 42
0.0000000001
 43
0.0000000001
 40
0.0
 40
0.0
 40
0.0
 40
0.0
 40
0.3333333333333333
 40
0.3333333333333333
 40
0.3333333333333333
 40
0.6666666666666666
 40
0.6666666666666666
 40
0.6666666666666666
 40
1.0
 40
1.0
 40
1.0
 40
1.0
 10
10.49437
 20
-5.61172
 30
0.0
 10
10.49437
 20
-5.61172
 30
0.0
 10
10.49437
 20
-5.91175
 30
0.0
 10
10.49437
 20
-5.91175
 30
0.0
 10
10.49437
 20
-5.91175
 30
0.0
 10
11.24445
 20
-5.91175
 30
0.0
 10
11.24445
 20
-5.91175
 30
0.0
 10
11.24445
 20
-5.91175
 30
0.0
 10
11.24445
 20
-5.61172
 30
0.0
 10
11.24445
 20
-5.61172
 30
0.0
  0
SPLINE
  5
CE
330
1F
100
AcDbEntity
  8
Layer 1
 62
   250
370
    20
100
AcDbSpline
210
0.0
220
0.0
230
1.0
 70
    11
 71
     3
 72
    41
 73
    37
 74
     0
 42
0.0000000001
 43
0.0000000001
 40
0.0
 40
0.0
 40
0.0
 40
0.0
 40
0.0833333333333333
 40
0.0833333333333333
 40
0.0833333333333333
 40
0.1666666666666667
 40
0.1666666666666667
 40
0.1666666666666667
 40
0.25
 40
0.25
 40
0.25
 40
0.3333333333333333
 40
0.3333333333333333
 40
0.3333333333333333
 40
0.4166666666666666
 40
0.4166666666666666
 40
0.4166666666666666
 40
0.5
 40
0.5
 40
0.5
 40
0.5833333333333333
 40
0.5833333333333333
 40
0.5833333333333333
 40
0.6666666666666666
 40
0.6666666666666666
 40
0.6666666666666666
 40
0.75
 40
0.75
 40
0.75
 40
0.8333333333333333
 40
0.8333333333333333
 40
0.8333333333333333
 40
0.9166666666666666
 40
0.9166666666666666
 40
0.9166666666666666
 40
1.0
 40
1.0
 40
1.0
 40
1.0
 10
-8.22194
 20
-7.97442
 30
0.0
 10
-8.22194
 20
-7.97442
 30
0.0
 10
-8.22194
 20
-8.4193
 30
0.0
 10
-8.22194
 20
-8.4193
 30
0.0
 10
-8.22194
 20
-8.4193
 30
0.0
 10
-7.92191
 20
-8.4193
 30
0.0
 10
-7.92191
 20
-8.4193
 30
0.0
 10
-7.92191
 20
-8.4193
 30
0.0
 10
-7.92191
 20
-9.02437
 30
0.0
 10
-7.92191
 20
-9.02437
 30
0.0
 10
-7.92191
 20
-9.02437
 30
0.0
 10
-8.22194
 20
-9.02437
 30
0.0
 10
-8.22194
 20
-9.02437
 30
0.0
 10
-8.22194
 20
-9.02437
 30
0.0
 10
-8.22194
 20
-9.62946
 30
0.0
 10
-8.22194
 20
-9.62946
 30
0.0
 10
-8.22194
 20
-9.62946
 30
0.0
 10
-7.92191
 20
-9.62946
 30
0.0
 10
-7.92191
 20
-9.62946
 30
0.0
 10
-7.92191
 20
-9.62946
 30
0.0
 10
-7.92191
 20
-10.23454
 30
0.0
 10
-7.92191
 20
-10.23454
 30
0.0
 10
-7.92191
 20
-10.23454
 30
0.0
 10
-8.22194
 20
-10.23454
 30
0.0
 10
-8.22194
 20
-10.23454
 30
0.0
 10
-8.37486
 20
-10.17499
 30
0.0
 10
-8.45427
 20
-10.08004
 30
0.0
 10
-8.46016
 20
-9.94968
 30
0.0
 10
-8.47844
 20
-9.67481
 30
0.0
 10
-8.56901
 20
-9.49677
 30
0.0
 10
-8.73189
 20
-9.41559
 30
0.0
 10
-8.59712
 20
-9.1434
 30
0.0
 10
-8.71893
 20
-8.90447
 30
0.0
 10
-9.09732
 20
-8.69879
 30
0.0
 10
-9.21372
 20
-8.36651
 30
0.0
 10
-9.01362
 20
-7.98248
 30
0.0
 10
-8.22194
 20
-7.97442
 30
0.0
  0
SPLINE
  5
CF
330
1F
100
AcDbEntity
  8
Layer 1
 62
   250
370
    20
100
AcDbSpline
210
0.0
220
0.0
230
1.0
 70
    11
 71
     3
 72
    38
 73
    34
 74
     0
 42
0.0000000001
 43
0.0000000001
 40
0.0
 40
0.0
 40
0.0
 40
0.0
 40
0.0909090909090909
 40
0.0909090909090909
 40
0.0909090909090909
 40
0.1818181818181818
 40
0.1818181818181818
 40
0.1818181818181818
 40
0.2727272727272727
 40
0.2727272727272727
 40
0.2727272727272727
 40
0.3636363636363636
 40
0.3636363636363636
 40
0.3636363636363636
 40
0.4545454545454546
 40
0.4545454545454546
 40
0.4545454545454546
 40
0.5454545454545454
 40
0.5454545454545454
 40
0.5454545454545454
 40
0.6363636363636364
 40
0.6363636363636364
 40
0.6363636363636364
 40
0.7272727272727273
 40
0.7272727272727273
 40
0.7272727272727273
 40
0.8181818181818182
 40
0.8181818181818182
 40
0.8181818181818182
 40
0.9090909090909092
 40
0.9090909090909092
 40
0.9090909090909092
 40
1.0
 40
1.0
 40
1.0
 40
1.0
 10
-14.56136
 20
-7.97453
 30
0.0
 10
-13.48417
 20
-7.96426
 30
0.0
 10
-13.25352
 20
-8.32085
 30
0.0
 10
-13.38595
 20
-8.6989
 30
0.0
 10
-13.76434
 20
-8.90458
 30
0.0
 10
-13.88615
 20
-9.14351
 30
0.0
 10
-13.75138
 20
-9.4157
 30
0.0
 10
-13.91426
 20
-9.49689
 30
0.0
 10
-14.00483
 20
-9.67492
 30
0.0
 10
-14.02311
 20
-9.94979
 30
0.0
 10
-14.02901
 20
-10.08015
 30
0.0
 10
-14.10841
 20
-10.1751
 30
0.0
 10
-14.26133
 20
-10.23465
 30
0.0
 10
-14.26133
 20
-10.23465
 30
0.0
 10
-14.26133
 20
-9.62958
 30
0.0
 10
-14.26133
 20
-9.62958
 30
0.0
 10
-14.26133
 20
-9.62958
 30
0.0
 10
-14.56136
 20
-9.62958
 30
0.0
 10
-14.56136
 20
-9.62958
 30
0.0
 10
-14.56136
 20
-9.62958
 30
0.0
 10
-14.56136
 20
-9.02448
 30
0.0
 10
-14.56136
 20
-9.02448
 30
0.0
 10
-14.56136
 20
-9.02448
 30
0.0
 10
-14.26133
 20
-9.02448
 30
0.0
 10
-14.26133
 20
-9.02448
 30
0.0
 10
-14.26133
 20
-9.02448
 30
0.0
 10
-14.26133
 20
-8.41941
 30
0.0
 10
-14.26133
 20
-8.41941
 30
0.0
 10
-14.26133
 20
-8.41941
 30
0.0
 10
-14.56136
 20
-8.41941
 30
0.0
 10
-14.56136
 20
-8.41941
 30
0.0
 10
-14.56136
 20
-8.41941
 30
0.0
 10
-14.56136
 20
-7.97453
 30
0.0
 10
-14.56136
 20
-7.97453
 30
0.0
  0
SPLINE
  5
D0
330
1F
100
AcDbEntity
  8
Layer 1
 62
   250
370
    20
100
AcDbSpline
210
0.0
220
0.0
230
1.0
 70
    11
 71
     3
 72
    41
 73
    37
 74
     0
 42
0.0000000001
 43
0.0000000001
 40
0.0
 40
0.0
 40
0.0
 40
0.0
 40
0.0833333333333333
 40
0.0833333333333333
 40
0.0833333333333333
 40
0.1666666666666667
 40
0.1666666666666667
 40
0.1666666666666667
 40
0.25
 40
0.25
 40
0.25
 40
0.3333333333333333
 40
0.3333333333333333
 40
0.3333333333333333
 40
0.4166666666666666
 40
0.4166666666666666
 40
0.4166666666666666
 40
0.5
 40
0.5
 40
0.5
 40
0.5833333333333333
 40
0.5833333333333333
 40
0.5833333333333333
 40
0.6666666666666666
 40
0.6666666666666666
 40
0.6666666666666666
 40
0.75
 40
0.75
 40
0.75
 40
0.8333333333333333
 40
0.8333333333333333
 40
0.8333333333333333
 40
0.9166666666666666
 40
0.9166666666666666
 40
0.9166666666666666
 40
1.0
 40
1.0
 40
1.0
 40
1.0
 10
-6.86594
 20
-7.97442
 30
0.0
 10
-6.86594
 20
-7.97442
 30
0.0
 10
-6.86594
 20
-8.4193
 30
0.0
 10
-6.86594
 20
-8.4193
 30
0.0
 10
-6.86594
 20
-8.4193
 30
0.0
 10
-6.56591
 20
-8.4193
 30
0.0
 10
-6.56591
 20
-8.4193
 30
0.0
 10
-6.56591
 20
-8.4193
 30
0.0
 10
-6.56591
 20
-9.02437
 30
0.0
 10
-6.56591
 20
-9.02437
 30
0.0
 10
-6.56591
 20
-9.02437
 30
0.0
 10
-6.86594
 20
-9.02437
 30
0.0
 10
-6.86594
 20
-9.02437
 30
0.0
 10
-6.86594
 20
-9.02437
 30
0.0
 10
-6.86594
 20
-9.62946
 30
0.0
 10
-6.86594
 20
-9.62946
 30
0.0
 10
-6.86594
 20
-9.62946
 30
0.0
 10
-6.56591
 20
-9.62946
 30
0.0
 10
-6.56591
 20
-9.62946
 30
0.0
 10
-6.56591
 20
-9.62946
 30
0.0
 10
-6.56591
 20
-10.23454
 30
0.0
 10
-6.56591
 20
-10.23454
 30
0.0
 10
-6.56591
 20
-10.23454
 30
0.0
 10
-6.86594
 20
-10.23454
 30
0.0
 10
-6.86594
 20
-10.23454
 30
0.0
 10
-7.01886
 20
-10.17499
 30
0.0
 10
-7.09827
 20
-10.08004
 30
0.0
 10
-7.10416
 20
-9.94968
 30
0.0
 10
-7.12244
 20
-9.67481
 30
0.0
 10
-7.21301
 20
-9.49677
 30
0.0
 10
-7.37589
 20
-9.41559
 30
0.0
 10
-7.24112
 20
-9.1434
 30
0.0
 10
-7.36293
 20
-8.90447
 30
0.0
 10
-7.74132
 20
-8.69879
 30
0.0
 10
-7.85772
 20
-8.36651
 30
0.0
 10
-7.65763
 20
-7.98248
 30
0.0
 10
-6.86594
 20
-7.97442
 30
0.0
  0
SPLINE
  5
D1
330
1F
100
AcDbEntity
  8
Layer 1
 62
   250
370
    20
100
AcDbSpline
210
0.0
220
0.0
230
1.0
 70
    11
 71
     3
 72
    38
 73
    34
 74
     0
 42
0.0000000001
 43
0.0000000001
 40
0.0
 40
0.0
 40
0.0
 40
0.0
 40
0.0909090909090909
 40
0.0909090909090909
 40
0.0909090909090909
 40
0.1818181818181818
 40
0.1818181818181818
 40
0.1818181818181818
 40
0.2727272727272727
 40
0.2727272727272727
 40
0.2727272727272727
 40
0.3636363636363636
 40
0.3636363636363636
 40
0.3636363636363636
 40
0.4545454545454546
 40
0.4545454545454546
 40
0.4545454545454546
 40
0.5454545454545454
 40
0.5454545454545454
 40
0.5454545454545454
 40
0.6363636363636364
 40
0.6363636363636364
 40
0.6363636363636364
 40
0.7272727272727273
 40
0.7272727272727273
 40
0.7272727272727273
 40
0.8181818181818182
 40
0.8181818181818182
 40
0.8181818181818182
 40
0.9090909090909092
 40
0.9090909090909092
 40
0.9090909090909092
 40
1.0
 40
1.0
 40
1.0
 40
1.0
 10
-13.2022
 20
-7.97453
 30
0.0
 10
-12.12501
 20
-7.96426
 30
0.0
 10
-11.89436
 20
-8.32085
 30
0.0
 10
-12.0268
 20
-8.6989
 30
0.0
 10
-12.40518
 20
-8.90458
 30
0.0
 10
-12.527
 20
-9.14351
 30
0.0
 10
-12.39222
 20
-9.4157
 30
0.0
 10
-12.5551
 20
-9.49689
 30
0.0
 10
-12.64567
 20
-9.67492
 30
0.0
 10
-12.66395
 20
-9.94979
 30
0.0
 10
-12.66985
 20
-10.08015
 30
0.0
 10
-12.74925
 20
-10.1751
 30
0.0
 10
-12.90217
 20
-10.23465
 30
0.0
 10
-12.90217
 20
-10.23465
 30
0.0
 10
-12.90217
 20
-9.62958
 30
0.0
 10
-12.90217
 20
-9.62958
 30
0.0
 10
-12.90217
 20
-9.62958
 30
0.0
 10
-13.2022
 20
-9.62958
 30
0.0
 10
-13.2022
 20
-9.62958
 30
0.0
 10
-13.2022
 20
-9.62958
 30
0.0
 10
-13.2022
 20
-9.02448
 30
0.0
 10
-13.2022
 20
-9.02448
 30
0.0
 10
-13.2022
 20
-9.02448
 30
0.0
 10
-12.90217
 20
-9.02448
 30
0.0
 10
-12.90217
 20
-9.02448
 30
0.0
 10
-12.90217
 20
-9.02448
 30
0.0
 10
-12.90217
 20
-8.41941
 30
0.0
 10
-12.90217
 20
-8.41941
 30
0.0
 10
-12.90217
 20
-8.41941
 30
0.0
 10
-13.2022
 20
-8.41941
 30
0.0
 10
-13.2022
 20
-8.41941
 30
0.0
 10
-13.2022
 20
-8.41941
 30
0.0
 10
-13.2022
 20
-7.97453
 30
0.0
 10
-13.2022
 20
-7.97453
 30
0.0
  0
SPLINE
  5
D2
330
1F
100
AcDbEntity
  8
Layer 1
 62
   250
370
    20
100
AcDbSpline
210
0.0
220
0.0
230
1.0
 70
    11
 71
     3
 72
    41
 73
    37
 74
     0
 42
0.0000000001
 43
0.0000000001
 40
0.0
 40
0.0
 40
0.0
 40
0.0
 40
0.0833333333333333
 40
0.0833333333333333
 40
0.0833333333333333
 40
0.1666666666666667
 40
0.1666666666666667
 40
0.1666666666666667
 40
0.25
 40
0.25
 40
0.25
 40
0.3333333333333333
 40
0.3333333333333333
 40
0.3333333333333333
 40
0.4166666666666666
 40
0.4166666666666666
 40
0.4166666666666666
 40
0.5
 40
0.5
 40
0.5
 40
0.5833333333333333
 40
0.5833333333333333
 40
0.5833333333333333
 40
0.6666666666666666
 40
0.6666666666666666
 40
0.6666666666666666
 40
0.75
 40
0.75
 40
0.75
 40
0.8333333333333333
 40
0.8333333333333333
 40
0.8333333333333333
 40
0.9166666666666666
 40
0.9166666666666666
 40
0.9166666666666666
 40
1.0
 40
1.0
 40
1.0
 40
1.0
 10
-5.50994
 20
-7.97442
 30
0.0
 10
-5.50994
 20
-7.97442
 30
0.0
 10
-5.50994
 20
-8.4193
 30
0.0
 10
-5.50994
 20
-8.4193
 30
0.0
 10
-5.50994
 20
-8.4193
 30
0.0
 10
-5.20991
 20
-8.4193
 30
0.0
 10
-5.20991
 20
-8.4193
 30
0.0
 10
-5.20991
 20
-8.4193
 30
0.0
 10
-5.20991
 20
-9.02437
 30
0.0
 10
-5.20991
 20
-9.02437
 30
0.0
 10
-5.20991
 20
-9.02437
 30
0.0
 10
-5.50994
 20
-9.02437
 30
0.0
 10
-5.50994
 20
-9.02437
 30
0.0
 10
-5.50994
 20
-9.02437
 30
0.0
 10
-5.50994
 20
-9.62946
 30
0.0
 10
-5.50994
 20
-9.62946
 30
0.0
 10
-5.50994
 20
-9.62946
 30
0.0
 10
-5.20991
 20
-9.62946
 30
0.0
 10
-5.20991
 20
-9.62946
 30
0.0
 10
-5.20991
 20
-9.62946
 30
0.0
 10
-5.20991
 20
-10.23454
 30
0.0
 10
-5.20991
 20
-10.23454
 30
0.0
 10
-5.20991
 20
-10.23454
 30
0.0
 10
-5.50994
 20
-10.23454
 30
0.0
 10
-5.50994
 20
-10.23454
 30
0.0
 10
-5.66286
 20
-10.17499
 30
0.0
 10
-5.74227
 20
-10.08004
 30
0.0
 10
-5.74816
 20
-9.94968
 30
0.0
 10
-5.76644
 20
-9.67481
 30
0.0
 10
-5.85702
 20
-9.49677
 30
0.0
 10
-6.0199
 20
-9.41559
 30
0.0
 10
-5.88512
 20
-9.1434
 30
0.0
 10
-6.00693
 20
-8.90447
 30
0.0
 10
-6.38532
 20
-8.69879
 30
0.0
 10
-6.50172
 20
-8.36651
 30
0.0
 10
-6.30163
 20
-7.98248
 30
0.0
 10
-5.50994
 20
-7.97442
 30
0.0
  0
SPLINE
  5
D3
330
1F
100
AcDbEntity
  8
Layer 1
 62
   250
370
    20
100
AcDbSpline
210
0.0
220
0.0
230
1.0
 70
    11
 71
     3
 72
    38
 73
    34
 74
     0
 42
0.0000000001
 43
0.0000000001
 40
0.0
 40
0.0
 40
0.0
 40
0.0
 40
0.0909090909090909
 40
0.0909090909090909
 40
0.0909090909090909
 40
0.1818181818181818
 40
0.1818181818181818
 40
0.1818181818181818
 40
0.2727272727272727
 40
0.2727272727272727
 40
0.2727272727272727
 40
0.3636363636363636
 40
0.3636363636363636
 40
0.3636363636363636
 40
0.4545454545454546
 40
0.4545454545454546
 40
0.4545454545454546
 40
0.5454545454545454
 40
0.5454545454545454
 40
0.5454545454545454
 40
0.6363636363636364
 40
0.6363636363636364
 40
0.6363636363636364
 40
0.7272727272727273
 40
0.7272727272727273
 40
0.7272727272727273
 40
0.8181818181818182
 40
0.8181818181818182
 40
0.8181818181818182
 40
0.9090909090909092
 40
0.9090909090909092
 40
0.9090909090909092
 40
1.0
 40
1.0
 40
1.0
 40
1.0
 10
-11.84305
 20
-7.97453
 30
0.0
 10
-10.76585
 20
-7.96426
 30
0.0
 10
-10.5352
 20
-8.32085
 30
0.0
 10
-10.66764
 20
-8.6989
 30
0.0
 10
-11.04603
 20
-8.90458
 30
0.0
 10
-11.16784
 20
-9.14351
 30
0.0
 10
-11.03306
 20
-9.4157
 30
0.0
 10
-11.19594
 20
-9.49689
 30
0.0
 10
-11.28652
 20
-9.67492
 30
0.0
 10
-11.3048
 20
-9.94979
 30
0.0
 10
-11.31069
 20
-10.08015
 30
0.0
 10
-11.3901
 20
-10.1751
 30
0.0
 10
-11.54301
 20
-10.23465
 30
0.0
 10
-11.54301
 20
-10.23465
 30
0.0
 10
-11.54301
 20
-9.62958
 30
0.0
 10
-11.54301
 20
-9.62958
 30
0.0
 10
-11.54301
 20
-9.62958
 30
0.0
 10
-11.84305
 20
-9.62958
 30
0.0
 10
-11.84305
 20
-9.62958
 30
0.0
 10
-11.84305
 20
-9.62958
 30
0.0
 10
-11.84305
 20
-9.02448
 30
0.0
 10
-11.84305
 20
-9.02448
 30
0.0
 10
-11.84305
 20
-9.02448
 30
0.0
 10
-11.54301
 20
-9.02448
 30
0.0
 10
-11.54301
 20
-9.02448
 30
0.0
 10
-11.54301
 20
-9.02448
 30
0.0
 10
-11.54301
 20
-8.41941
 30
0.0
 10
-11.54301
 20
-8.41941
 30
0.0
 10
-11.54301
 20
-8.41941
 30
0.0
 10
-11.84305
 20
-8.41941
 30
0.0
 10
-11.84305
 20
-8.41941
 30
0.0
 10
-11.84305
 20
-8.41941
 30
0.0
 10
-11.84305
 20
-7.97453
 30
0.0
 10
-11.84305
 20
-7.97453
 30
0.0
  0
ENDSEC
  0
SECTION
  2
OBJECTS
  0
DICTIONARY
  5
C
330
0
100
AcDbDictionary
281
     1
  3
ACAD_DETAILVIEWSTYLE
350
DB
  3
ACAD_GROUP
350
D
  3
ACAD_LAYOUT
350
1A
  3
ACAD_MATERIAL
350
43
  3
ACAD_MLEADERSTYLE
350
5B
  3
ACAD_MLINESTYLE
350
17
  3
ACAD_PLOTSETTINGS
350
19
  3
ACAD_PLOTSTYLENAME
350
E
  3
ACAD_SCALELIST
350
47
  3
ACAD_SECTIONVIEWSTYLE
350
DC
  3
ACAD_TABLESTYLE
350
59
  3
ACAD_VISUALSTYLE
350
2A
  3
ACDB_RECOMPOSE_DATA
350
D8
  3
AcDbVariableDictionary
350
D4
  0
SUN
  5
5D
330
29
100
AcDbSun
 90
        1
290
     0
 63
     7
421
 16777215
 40
1.0
291
     1
 91
  2455826
 92
 54000000
292
     0
 70
     2
 71
   256
280
     1
  0
DICTIONARY
  5
DB
102
{ACAD_REACTORS
330
C
102
}
330
C
100
AcDbDictionary
281
     1
  0
DICTIONARY
  5
D
102
{ACAD_REACTORS
330
C
102
}
330
C
100
AcDbDictionary
281
     1
  0
DICTIONARY
  5
1A
102
{ACAD_REACTORS
330
C
102
}
330
C
100
AcDbDictionary
281
     1
  3
Layout1
350
1E
  3
Layout2
350
26
  3
Model
350
22
  0
DICTIONARY
  5
43
102
{ACAD_REACTORS
330
C
102
}
330
C
100
AcDbDictionary
281
     1
  3
ByBlock
350
45
  3
ByLayer
350
44
  3
Global
350
46
  0
DICTIONARY
  5
5B
102
{ACAD_REACTORS
330
C
102
}
330
C
100
AcDbDictionary
281
     1
  3
Standard
350
5C
  0
DICTIONARY
  5
17
102
{ACAD_REACTORS
330
C
102
}
330
C
100
AcDbDictionary
281
     1
  3
Standard
350
18
  0
DICTIONARY
  5
19
102
{ACAD_REACTORS
330
C
102
}
330
C
100
AcDbDictionary
281
     1
  0
ACDBDICTIONARYWDFLT
  5
E
102
{ACAD_REACTORS
330
C
102
}
330
C
100
AcDbDictionary
281
     1
  3
Normal
350
F
100
AcDbDictionaryWithDefault
340
F
  0
DICTIONARY
  5
47
102
{ACAD_REACTORS
330
C
102
}
330
C
100
AcDbDictionary
281
     1
  3
A0
350
48
  3
A1
350
49
  3
A2
350
4A
  3
A3
350
4B
  3
A4
350
4C
  3
A5
350
4D
  3
A6
350
4E
  3
A7
350
4F
  3
A8
350
50
  3
A9
350
51
  3
B1
350
52
  3
B2
350
53
  3
B3
350
54
  3
B4
350
55
  3
B5
350
56
  3
B6
350
57
  3
B7
350
58
  0
DICTIONARY
  5
DC
102
{ACAD_REACTORS
330
C
102
}
330
C
100
AcDbDictionary
281
     1
  0
DICTIONARY
  5
59
102
{ACAD_REACTORS
330
C
102
}
330
C
100
AcDbDictionary
281
     1
  3
Standard
350
5A
  0
DICTIONARY
  5
2A
102
{ACAD_REACTORS
330
C
102
}
330
C
100
AcDbDictionary
281
     1
  3
2dWireframe
350
2F
  3
Basic
350
32
  3
Brighten
350
36
  3
ColorChange
350
3A
  3
Conceptual
350
34
  3
Dim
350
35
  3
EdgeColorOff
350
3D
  3
Facepattern
350
39
  3
Flat
350
2B
  3
FlatWithEdges
350
2C
  3
Gouraud
350
2D
  3
GouraudWithEdges
350
2E
  3
Hidden
350
31
  3
JitterOff
350
3B
  3
Linepattern
350
38
  3
OverhangOff
350
3C
  3
Realistic
350
33
  3
Shaded
350
42
  3
Shaded with edges
350
41
  3
Shades of Gray
350
3E
  3
Sketchy
350
3F
  3
Thicken
350
37
  3
Wireframe
350
30
  3
X-Ray
350
40
  0
XRECORD
  5
D8
102
{ACAD_REACTORS
330
C
102
}
330
C
100
AcDbXrecord
280
     1
 90
        1
330
5A
  0
DICTIONARY
  5
D4
102
{ACAD_REACTORS
330
C
102
}
330
C
100
AcDbDictionary
281
     1
  3
CANNOSCALE
350
D5
  3
CMLEADERSTYLE
350
DA
  3
CTABLESTYLE
350
D9
  0
LAYOUT
  5
1E
102
{ACAD_REACTORS
330
1A
102
}
330
1A
100
AcDbPlotSettings
  1

  2
none_device
  4

  6

 40
0.0
 41
0.0
 42
0.0
 43
0.0
 44
0.0
 45
0.0
 46
0.0
 47
0.0
 48
0.0
 49
0.0
140
0.0
141
0.0
142
1.0
143
1.0
 70
   688
 72
     0
 73
     0
 74
     5
  7

 75
    16
 76
     0
 77
     2
 78
   300
147
1.0
148
0.0
149
0.0
100
AcDbLayout
  1
Layout1
 70
     1
 71
     1
 10
0.0
 20
0.0
 11
12.0
 21
9.0
 12
0.0
 22
0.0
 32
0.0
 14
1.000000000000000E+20
 24
1.000000000000000E+20
 34
1.000000000000000E+20
 15
-1.000000000000000E+20
 25
-1.000000000000000E+20
 35
-1.000000000000000E+20
146
0.0
 13
0.0
 23
0.0
 33
0.0
 16
1.0
 26
0.0
 36
0.0
 17
0.0
 27
1.0
 37
0.0
 76
     0
330
1B
  0
LAYOUT
  5
26
102
{ACAD_REACTORS
330
1A
102
}
330
1A
100
AcDbPlotSettings
  1

  2
none_device
  4

  6

 40
0.0
 41
0.0
 42
0.0
 43
0.0
 44
0.0
 45
0.0
 46
0.0
 47
0.0
 48
0.0
 49
0.0
140
0.0
141
0.0
142
1.0
143
1.0
 70
   688
 72
     0
 73
     0
 74
     5
  7

 75
    16
 76
     0
 77
     2
 78
   300
147
1.0
148
0.0
149
0.0
100
AcDbLayout
  1
Layout2
 70
     1
 71
     2
 10
0.0
 20
0.0
 11
0.0
 21
0.0
 12
0.0
 22
0.0
 32
0.0
 14
0.0
 24
0.0
 34
0.0
 15
0.0
 25
0.0
 35
0.0
146
0.0
 13
0.0
 23
0.0
 33
0.0
 16
1.0
 26
0.0
 36
0.0
 17
0.0
 27
1.0
 37
0.0
 76
     0
330
23
  0
LAYOUT
  5
22
102
{ACAD_REACTORS
330
1A
102
}
330
1A
100
AcDbPlotSettings
  1

  2
none_device
  4
Letter_(8.50_x_11.00_Inches)
  6

 40
6.35
 41
6.35
 42
6.35000508
 43
6.35000508
 44
215.9
 45
279.4
 46
0.0
 47
0.0
 48
0.0
 49
0.0
140
0.0
141
0.0
142
1.0
143
1.0
 70
  1712
 72
     0
 73
     0
 74
     0
  7

 75
     0
 76
     0
 77
     2
 78
   300
147
1.0
148
0.0
149
0.0
100
AcDbLayout
  1
Model
 70
     1
 71
     0
 10
0.0
 20
0.0
 11
12.0
 21
9.0
 12
0.0
 22
0.0
 32
0.0
 14
-16.57989
 24
-12.95077
 34
0.0
 15
21.49649
 25
11.30234
 35
0.0
146
0.0
 13
0.0
 23
0.0
 33
0.0
 16
1.0
 26
0.0
 36
0.0
 17
0.0
 27
1.0
 37
0.0
 76
     0
330
1F
331
29
  0
MATERIAL
  5
45
102
{ACAD_REACTORS
330
43
102
}
330
43
100
AcDbMaterial
  1
ByBlock
 72
     1
 94
      127
  0
MATERIAL
  5
44
102
{ACAD_REACTORS
330
43
102
}
330
43
100
AcDbMaterial
  1
ByLayer
 72
     1
 94
      127
  0
MATERIAL
  5
46
102
{ACAD_REACTORS
330
43
102
}
330
43
100
AcDbMaterial
  1
Global
 72
     1
 94
      127
  0
MLEADERSTYLE
  5
5C
102
{ACAD_REACTORS
330
5B
102
}
330
5B
100
AcDbMLeaderStyle
179
     2
170
     2
171
     1
172
     0
 90
        2
 40
0.0
 41
0.0
173
     1
 91
-1056964608
340
14
 92
       -2
290
     1
 42
0.09
291
     1
 43
0.36
  3
Standard
341
0
 44
0.18
300

342
11
174
     1
178
     6
175
     1
176
     0
 93
-1056964608
 45
0.18
292
     0
297
     0
 46
0.18
343
0
 94
-1056964608
 47
1.0
 49
1.0
140
1.0
293
     1
141
0.0
294
     1
177
     0
142
1.0
295
     0
296
     0
143
0.125
271
     0
272
     9
273
     9
298
     0
  0
MLINESTYLE
  5
18
102
{ACAD_REACTORS
330
17
102
}
330
17
100
AcDbMlineStyle
  2
Standard
 70
     0
  3

 62
   256
 51
90.0
 52
90.0
 71
     2
 49
0.5
 62
   256
  6
BYLAYER
 49
-0.5
 62
   256
  6
BYLAYER
  0
ACDBPLACEHOLDER
  5
F
102
{ACAD_REACTORS
330
E
102
}
330
E
  0
SCALE
  5
48
102
{ACAD_REACTORS
330
47
102
}
330
47
100
AcDbScale
 70
     0
300
1:1
140
1.0
141
1.0
290
     1
  0
SCALE
  5
49
102
{ACAD_REACTORS
330
47
102
}
330
47
100
AcDbScale
 70
     0
300
1/128" = 1'-0"
140
0.0078125
141
12.0
290
     0
  0
SCALE
  5
4A
102
{ACAD_REACTORS
330
47
102
}
330
47
100
AcDbScale
 70
     0
300
1/64" = 1'-0"
140
0.015625
141
12.0
290
     0
  0
SCALE
  5
4B
102
{ACAD_REACTORS
330
47
102
}
330
47
100
AcDbScale
 70
     0
300
1/32" = 1'-0"
140
0.03125
141
12.0
290
     0
  0
SCALE
  5
4C
102
{ACAD_REACTORS
330
47
102
}
330
47
100
AcDbScale
 70
     0
300
1/16" = 1'-0"
140
0.0625
141
12.0
290
     0
  0
SCALE
  5
4D
102
{ACAD_REACTORS
330
47
102
}
330
47
100
AcDbScale
 70
     0
300
3/32" = 1'-0"
140
0.09375
141
12.0
290
     0
  0
SCALE
  5
4E
102
{ACAD_REACTORS
330
47
102
}
330
47
100
AcDbScale
 70
     0
300
1/8" = 1'-0"
140
0.125
141
12.0
290
     0
  0
SCALE
  5
4F
102
{ACAD_REACTORS
330
47
102
}
330
47
100
AcDbScale
 70
     0
300
3/16" = 1'-0"
140
0.1875
141
12.0
290
     0
  0
SCALE
  5
50
102
{ACAD_REACTORS
330
47
102
}
330
47
100
AcDbScale
 70
     0
300
1/4" = 1'-0"
140
0.25
141
12.0
290
     0
  0
SCALE
  5
51
102
{ACAD_REACTORS
330
47
102
}
330
47
100
AcDbScale
 70
     0
300
3/8" = 1'-0"
140
0.375
141
12.0
290
     0
  0
SCALE
  5
52
102
{ACAD_REACTORS
330
47
102
}
330
47
100
AcDbScale
 70
     0
300
1/2" = 1'-0"
140
0.5
141
12.0
290
     0
  0
SCALE
  5
53
102
{ACAD_REACTORS
330
47
102
}
330
47
100
AcDbScale
 70
     0
300
3/4" = 1'-0"
140
0.75
141
12.0
290
     0
  0
SCALE
  5
54
102
{ACAD_REACTORS
330
47
102
}
330
47
100
AcDbScale
 70
     0
300
1" = 1'-0"
140
1.0
141
12.0
290
     0
  0
SCALE
  5
55
102
{ACAD_REACTORS
330
47
102
}
330
47
100
AcDbScale
 70
     0
300
1-1/2" = 1'-0"
140
1.5
141
12.0
290
     0
  0
SCALE
  5
56
102
{ACAD_REACTORS
330
47
102
}
330
47
100
AcDbScale
 70
     0
300
3" = 1'-0"
140
3.0
141
12.0
290
     0
  0
SCALE
  5
57
102
{ACAD_REACTORS
330
47
102
}
330
47
100
AcDbScale
 70
     0
300
6" = 1'-0"
140
6.0
141
12.0
290
     0
  0
SCALE
  5
58
102
{ACAD_REACTORS
330
47
102
}
330
47
100
AcDbScale
 70
     0
300
1'-0" = 1'-0"
140
12.0
141
12.0
290
     0
  0
TABLESTYLE
  5
5A
102
{ACAD_REACTORS
330
59
102
}
102
{ACAD_XDICTIONARY
360
D6
102
}
330
59
100
AcDbTableStyle
  3
Standard
 70
     0
 71
     0
 40
0.06
 41
0.06
280
     0
281
     0
  7
Standard
140
0.18
170
     2
 62
     0
 63
   257
283
     0
 90
        4
 91
        0
  1

274
    -2
284
     1
 64
     0
275
    -2
285
     1
 65
     0
276
    -2
286
     1
 66
     0
277
    -2
287
     1
 67
     0
278
    -2
288
     1
 68
     0
279
    -2
289
     1
 69
     0
  7
Standard
140
0.25
170
     5
 62
     0
 63
   257
283
     0
 90
        4
 91
        0
  1

274
    -2
284
     1
 64
     0
275
    -2
285
     1
 65
     0
276
    -2
286
     1
 66
     0
277
    -2
287
     1
 67
     0
278
    -2
288
     1
 68
     0
279
    -2
289
     1
 69
     0
  7
Standard
140
0.18
170
     5
 62
     0
 63
   257
283
     0
 90
        4
 91
        0
  1

274
    -2
284
     1
 64
     0
275
    -2
285
     1
 65
     0
276
    -2
286
     1
 66
     0
277
    -2
287
     1
 67
     0
278
    -2
288
     1
 68
     0
279
    -2
289
     1
 69
     0
  0
VISUALSTYLE
  5
2F
102
{ACAD_REACTORS
330
2A
102
}
330
2A
100
AcDbVisualStyle
  2
2dWireframe
 70
     4
177
     3
291
     0
 70
    58
 90
        0
176
     1
 90
        2
176
     1
 90
        0
176
     1
 90
        0
176
     1
 40
0.6
176
     1
 40
30.0
176
     1
 62
     7
420
 16777215
176
     1
 90
        1
176
     1
 90
        4
176
     1
 62
     7
176
     1
 62
   257
176
     1
 90
        1
176
     1
 90
        1
176
     1
 40
1.0
176
     1
 90
        0
176
     1
 62
   257
176
     1
 40
1.0
176
     1
 90
        1
176
     1
 90
        6
176
     1
 90
        2
176
     1
 62
     7
176
     1
 90
        5
176
     1
 90
        0
176
     1
 90
        0
176
     1
290
     0
176
     1
 90
        1
176
     1
 40
0.0
176
     1
 90
        0
176
     1
290
     1
176
     1
290
     1
176
     1
290
     0
176
     1
290
     0
176
     1
290
     0
176
     1
290
     0
176
     1
290
     0
176
     1
290
     0
176
     1
290
     0
176
     1
 90
       50
176
     1
 40
0.0
176
     1
 40
1.0
176
     1
 90
        0
176
     1
 62
    18
420
        0
176
     1
 90
       50
176
     1
 90
        3
176
     1
 62
     5
420
      255
176
     1
290
     0
176
     1
 90
       50
176
     1
 90
       50
176
     1
 90
       50
176
     1
290
     0
176
     1
 90
       50
176
     1
 62
   256
176
     0
 40
1.0
176
     0
 90
        2
176
     1
  1
strokes_ogs.tif
176
     1
290
     0
176
     1
 40
1.0
176
     1
 40
1.0
176
     1
  0
VISUALSTYLE
  5
32
102
{ACAD_REACTORS
330
2A
102
}
330
2A
100
AcDbVisualStyle
  2
Basic
 70
     7
177
     3
291
     1
 70
    58
 90
        1
176
     1
 90
        0
176
     1
 90
        1
176
     1
 90
        0
176
     1
 40
0.6
176
     1
 40
30.0
176
     1
 62
     7
420
 16777215
176
     1
 90
        0
176
     1
 90
        4
176
     1
 62
     7
176
     1
 62
   257
176
     1
 90
        1
176
     1
 90
        1
176
     1
 40
1.0
176
     1
 90
        8
176
     1
 62
     7
176
     1
 40
1.0
176
     1
 90
        1
176
     1
 90
        6
176
     1
 90
        2
176
     1
 62
     7
176
     1
 90
        5
176
     1
 90
        0
176
     1
 90
        0
176
     1
290
     0
176
     1
 90
        1
176
     1
 40
0.0
176
     1
 90
        0
176
     1
290
     0
176
     1
290
     1
176
     1
290
     1
176
     1
290
     0
176
     1
290
     0
176
     1
290
     0
176
     1
290
     0
176
     1
290
     0
176
     1
290
     0
176
     1
 90
       50
176
     1
 40
0.0
176
     1
 40
1.0
176
     1
 90
        0
176
     1
 62
    18
420
        0
176
     1
 90
       50
176
     1
 90
        3
176
     1
 62
     5
420
      255
176
     1
290
     0
176
     1
 90
       50
176
     1
 90
       50
176
     1
 90
       50
176
     1
290
     0
176
     1
 90
       50
176
     1
 62
   256
176
     0
 40
1.0
176
     0
 90
        2
176
     1
  1
strokes_ogs.tif
176
     1
290
     0
176
     1
 40
1.0
176
     1
 40
1.0
176
     1
  0
VISUALSTYLE
  5
36
102
{ACAD_REACTORS
330
2A
102
}
330
2A
100
AcDbVisualStyle
  2
Brighten
 70
    12
177
     3
291
     1
 70
    58
 90
        2
176
     1
 90
        2
176
     1
 90
        0
176
     1
 90
        0
176
     1
 40
0.6
176
     1
 40
30.0
176
     1
 62
     7
420
 16777215
176
     1
 90
        1
176
     1
 90
        4
176
     1
 62
     7
176
     1
 62
   257
176
     1
 90
        1
176
     1
 90
        1
176
     1
 40
1.0
176
     1
 90
        8
176
     1
 62
     7
176
     1
 40
1.0
176
     1
 90
        1
176
     1
 90
        6
176
     1
 90
        2
176
     1
 62
     7
176
     1
 90
        5
176
     1
 90
        0
176
     1
 90
        0
176
     1
290
     0
176
     1
 90
        1
176
     1
 40
50.0
176
     1
 90
        0
176
     1
290
     0
176
     1
290
     1
176
     1
290
     1
176
     1
290
     0
176
     1
290
     0
176
     1
290
     0
176
     1
290
     0
176
     1
290
     0
176
     1
290
     0
176
     1
 90
       50
176
     1
 40
0.0
176
     1
 40
1.0
176
     1
 90
        0
176
     1
 62
    18
420
        0
176
     1
 90
       50
176
     1
 90
        3
176
     1
 62
     5
420
      255
176
     1
290
     0
176
     1
 90
       50
176
     1
 90
       50
176
     1
 90
       50
176
     1
290
     0
176
     1
 90
       50
176
     1
 62
   256
176
     0
 40
1.0
176
     0
 90
        2
176
     1
  1
strokes_ogs.tif
176
     1
290
     0
176
     1
 40
1.0
176
     1
 40
1.0
176
     1
  0
VISUALSTYLE
  5
3A
102
{ACAD_REACTORS
330
2A
102
}
330
2A
100
AcDbVisualStyle
  2
ColorChange
 70
    16
177
     3
291
     1
 70
    58
 90
        2
176
     1
 90
        2
176
     1
 90
        3
176
     1
 90
        0
176
     1
 40
0.6
176
     1
 40
30.0
176
     1
 62
     8
420
  8421504
176
     1
 90
        1
176
     1
 90
        4
176
     1
 62
     7
176
     1
 62
   257
176
     1
 90
        1
176
     1
 90
        1
176
     1
 40
1.0
176
     1
 90
        8
176
     1
 62
     8
420
  8421504
176
     1
 40
1.0
176
     1
 90
        1
176
     1
 90
        6
176
     1
 90
        2
176
     1
 62
     7
176
     1
 90
        5
176
     1
 90
        0
176
     1
 90
        0
176
     1
290
     0
176
     1
 90
        1
176
     1
 40
0.0
176
     1
 90
        0
176
     1
290
     0
176
     1
290
     1
176
     1
290
     1
176
     1
290
     0
176
     1
290
     0
176
     1
290
     0
176
     1
290
     0
176
     1
290
     0
176
     1
290
     0
176
     1
 90
       50
176
     1
 40
0.0
176
     1
 40
1.0
176
     1
 90
        0
176
     1
 62
    18
420
        0
176
     1
 90
       50
176
     1
 90
        3
176
     1
 62
     5
420
      255
176
     1
290
     0
176
     1
 90
       50
176
     1
 90
       50
176
     1
 90
       50
176
     1
290
     0
176
     1
 90
       50
176
     1
 62
   256
176
     0
 40
1.0
176
     0
 90
        2
176
     1
  1
strokes_ogs.tif
176
     1
290
     0
176
     1
 40
1.0
176
     1
 40
1.0
176
     1
  0
VISUALSTYLE
  5
34
102
{ACAD_REACTORS
330
2A
102
}
330
2A
100
AcDbVisualStyle
  2
Conceptual
 70
     9
177
     3
291
     0
 70
    58
 90
        3
176
     1
 90
        2
176
     1
 90
        0
176
     1
 90
        0
176
     1
 40
0.6
176
     1
 40
30.0
176
     1
 62
     7
420
 16777215
176
     1
 90
        2
176
     1
 90
        2
176
     1
 62
     7
176
     1
 62
   257
176
     1
 90
        1
176
     1
 90
        1
176
     1
 40
179.0
176
     1
 90
        8
176
     1
 62
     7
176
     1
 40
1.0
176
     1
 90
        1
176
     1
 90
        6
176
     1
 90
        2
176
     1
 62
     7
176
     1
 90
        3
176
     1
 90
        0
176
     1
 90
        0
176
     1
290
     0
176
     1
 90
        1
176
     1
 40
0.0
176
     1
 90
        0
176
     1
290
     0
176
     1
290
     1
176
     1
290
     1
176
     1
290
     0
176
     1
290
     0
176
     1
290
     0
176
     1
290
     0
176
     1
290
     0
176
     1
290
     0
176
     1
 90
       50
176
     1
 40
0.0
176
     1
 40
1.0
176
     1
 90
        0
176
     1
 62
    18
420
        0
176
     1
 90
       50
176
     1
 90
        3
176
     1
 62
     5
420
      255
176
     1
290
     0
176
     1
 90
       50
176
     1
 90
       50
176
     1
 90
       50
176
     1
290
     0
176
     1
 90
       50
176
     1
 62
   256
176
     0
 40
1.0
176
     0
 90
        2
176
     1
  1
strokes_ogs.tif
176
     1
290
     0
176
     1
 40
1.0
176
     1
 40
1.0
176
     1
  0
VISUALSTYLE
  5
35
102
{ACAD_REACTORS
330
2A
102
}
330
2A
100
AcDbVisualStyle
  2
Dim
 70
    11
177
     3
291
     1
 70
    58
 90
        2
176
     1
 90
        2
176
     1
 90
        0
176
     1
 90
        0
176
     1
 40
0.6
176
     1
 40
30.0
176
     1
 62
     7
420
 16777215
176
     1
 90
        1
176
     1
 90
        4
176
     1
 62
     7
176
     1
 62
   257
176
     1
 90
        1
176
     1
 90
        1
176
     1
 40
1.0
176
     1
 90
        8
176
     1
 62
     7
176
     1
 40
1.0
176
     1
 90
        1
176
     1
 90
        6
176
     1
 90
        2
176
     1
 62
     7
176
     1
 90
        5
176
     1
 90
        0
176
     1
 90
        0
176
     1
290
     0
176
     1
 90
        1
176
     1
 40
-50.0
176
     1
 90
        0
176
     1
290
     0
176
     1
290
     1
176
     1
290
     1
176
     1
290
     0
176
     1
290
     0
176
     1
290
     0
176
     1
290
     0
176
     1
290
     0
176
     1
290
     0
176
     1
 90
       50
176
     1
 40
0.0
176
     1
 40
1.0
176
     1
 90
        0
176
     1
 62
    18
420
        0
176
     1
 90
       50
176
     1
 90
        3
176
     1
 62
     5
420
      255
176
     1
290
     0
176
     1
 90
       50
176
     1
 90
       50
176
     1
 90
       50
176
     1
290
     0
176
     1
 90
       50
176
     1
 62
   256
176
     0
 40
1.0
176
     0
 90
        2
176
     1
  1
strokes_ogs.tif
176
     1
290
     0
176
     1
 40
1.0
176
     1
 40
1.0
176
     1
  0
VISUALSTYLE
  5
3D
102
{ACAD_REACTORS
330
2A
102
}
330
2A
100
AcDbVisualStyle
  2
EdgeColorOff
 70
    22
177
     3
291
     1
 70
    58
 90
        2
176
     0
 90
        2
176
     0
 90
        0
176
     0
 90
        0
176
     0
 40
0.6
176
     0
 40
30.0
176
     0
 62
     7
420
 16777215
176
     0
 90
        1
176
     0
 90
        4
176
     0
 62
     7
176
     0
 62
   257
176
     0
 90
        1
176
     0
 90
        1
176
     0
 40
1.0
176
     0
 90
        8
176
     2
 62
     7
176
     0
 40
1.0
176
     0
 90
        1
176
     0
 90
        6
176
     0
 90
        2
176
     0
 62
     7
176
     0
 90
        5
176
     0
 90
        0
176
     0
 90
        0
176
     0
290
     0
176
     0
 90
        1
176
     0
 40
0.0
176
     0
 90
        0
176
     0
290
     0
176
     0
290
     1
176
     0
290
     1
176
     0
290
     0
176
     0
290
     0
176
     0
290
     0
176
     0
290
     0
176
     0
290
     0
176
     0
290
     0
176
     0
 90
       50
176
     0
 40
0.0
176
     0
 40
1.0
176
     0
 90
        0
176
     0
 62
    18
420
        0
176
     0
 90
       50
176
     0
 90
        3
176
     0
 62
     5
420
      255
176
     0
290
     0
176
     0
 90
       50
176
     0
 90
       50
176
     0
 90
       50
176
     0
290
     0
176
     0
 90
       50
176
     0
 62
   256
176
     0
 40
1.0
176
     0
 90
        2
176
     0
  1
strokes_ogs.tif
176
     0
290
     0
176
     0
 40
1.0
176
     0
 40
1.0
176
     0
  0
VISUALSTYLE
  5
39
102
{ACAD_REACTORS
330
2A
102
}
330
2A
100
AcDbVisualStyle
  2
Facepattern
 70
    15
177
     3
291
     1
 70
    58
 90
        2
176
     1
 90
        2
176
     1
 90
        0
176
     1
 90
        0
176
     1
 40
0.6
176
     1
 40
30.0
176
     1
 62
     7
420
 16777215
176
     1
 90
        1
176
     1
 90
        4
176
     1
 62
     7
176
     1
 62
   257
176
     1
 90
        1
176
     1
 90
        1
176
     1
 40
1.0
176
     1
 90
        8
176
     1
 62
     7
176
     1
 40
1.0
176
     1
 90
        1
176
     1
 90
        6
176
     1
 90
        2
176
     1
 62
     7
176
     1
 90
        5
176
     1
 90
        0
176
     1
 90
        0
176
     1
290
     0
176
     1
 90
        1
176
     1
 40
0.0
176
     1
 90
        0
176
     1
290
     0
176
     1
290
     1
176
     1
290
     1
176
     1
290
     0
176
     1
290
     0
176
     1
290
     0
176
     1
290
     0
176
     1
290
     0
176
     1
290
     0
176
     1
 90
       50
176
     1
 40
0.0
176
     1
 40
1.0
176
     1
 90
        0
176
     1
 62
    18
420
        0
176
     1
 90
       50
176
     1
 90
        3
176
     1
 62
     5
420
      255
176
     1
290
     0
176
     1
 90
       50
176
     1
 90
       50
176
     1
 90
       50
176
     1
290
     0
176
     1
 90
       50
176
     1
 62
   256
176
     0
 40
1.0
176
     0
 90
        2
176
     1
  1
strokes_ogs.tif
176
     1
290
     0
176
     1
 40
1.0
176
     1
 40
1.0
176
     1
  0
VISUALSTYLE
  5
2B
102
{ACAD_REACTORS
330
2A
102
}
330
2A
100
AcDbVisualStyle
  2
Flat
 70
     0
177
     3
291
     1
 70
    58
 90
        2
176
     1
 90
        1
176
     1
 90
        1
176
     1
 90
        2
176
     1
 40
0.6
176
     1
 40
30.0
176
     1
 62
     7
420
 16777215
176
     1
 90
        0
176
     1
 90
        0
176
     1
 62
     7
176
     1
 62
   257
176
     1
 90
        1
176
     1
 90
        1
176
     1
 40
1.0
176
     1
 90
        8
176
     1
 62
     7
176
     1
 40
1.0
176
     1
 90
        1
176
     1
 90
        6
176
     1
 90
        2
176
     1
 62
     7
176
     1
 90
        5
176
     1
 90
        0
176
     1
 90
        0
176
     1
290
     0
176
     1
 90
       13
176
     1
 40
0.0
176
     1
 90
        0
176
     1
290
     0
176
     1
290
     1
176
     1
290
     1
176
     1
290
     0
176
     1
290
     0
176
     1
290
     0
176
     1
290
     0
176
     1
290
     0
176
     1
290
     0
176
     1
 90
       50
176
     1
 40
0.0
176
     1
 40
1.0
176
     1
 90
        0
176
     1
 62
    18
420
        0
176
     1
 90
       50
176
     1
 90
        3
176
     1
 62
     5
420
      255
176
     1
290
     0
176
     1
 90
       50
176
     1
 90
       50
176
     1
 90
       50
176
     1
290
     0
176
     1
 90
       50
176
     1
 62
   256
176
     0
 40
1.0
176
     0
 90
        2
176
     1
  1
strokes_ogs.tif
176
     1
290
     0
176
     1
 40
1.0
176
     1
 40
1.0
176
     1
  0
VISUALSTYLE
  5
2C
102
{ACAD_REACTORS
330
2A
102
}
330
2A
100
AcDbVisualStyle
  2
FlatWithEdges
 70
     1
177
     3
291
     1
 70
    58
 90
        2
176
     1
 90
        1
176
     1
 90
        1
176
     1
 90
        2
176
     1
 40
0.6
176
     1
 40
30.0
176
     1
 62
     7
420
 16777215
176
     1
 90
        1
176
     1
 90
        0
176
     1
 62
     7
176
     1
 62
   257
176
     1
 90
        1
176
     1
 90
        1
176
     1
 40
1.0
176
     1
 90
        0
176
     1
 62
   257
176
     1
 40
1.0
176
     1
 90
        1
176
     1
 90
        6
176
     1
 90
        2
176
     1
 62
     7
176
     1
 90
        5
176
     1
 90
        0
176
     1
 90
        0
176
     1
290
     0
176
     1
 90
       13
176
     1
 40
0.0
176
     1
 90
        0
176
     1
290
     0
176
     1
290
     1
176
     1
290
     1
176
     1
290
     0
176
     1
290
     0
176
     1
290
     0
176
     1
290
     0
176
     1
290
     0
176
     1
290
     0
176
     1
 90
       50
176
     1
 40
0.0
176
     1
 40
1.0
176
     1
 90
        0
176
     1
 62
    18
420
        0
176
     1
 90
       50
176
     1
 90
        3
176
     1
 62
     5
420
      255
176
     1
290
     0
176
     1
 90
       50
176
     1
 90
       50
176
     1
 90
       50
176
     1
290
     0
176
     1
 90
       50
176
     1
 62
   256
176
     0
 40
1.0
176
     0
 90
        2
176
     1
  1
strokes_ogs.tif
176
     1
290
     0
176
     1
 40
1.0
176
     1
 40
1.0
176
     1
  0
VISUALSTYLE
  5
2D
102
{ACAD_REACTORS
330
2A
102
}
330
2A
100
AcDbVisualStyle
  2
Gouraud
 70
     2
177
     3
291
     1
 70
    58
 90
        2
176
     1
 90
        2
176
     1
 90
        1
176
     1
 90
        2
176
     1
 40
0.6
176
     1
 40
30.0
176
     1
 62
     7
420
 16777215
176
     1
 90
        0
176
     1
 90
        0
176
     1
 62
     7
176
     1
 62
   257
176
     1
 90
        1
176
     1
 90
        1
176
     1
 40
1.0
176
     1
 90
        0
176
     1
 62
     7
176
     1
 40
1.0
176
     1
 90
        1
176
     1
 90
        6
176
     1
 90
        2
176
     1
 62
     7
176
     1
 90
        5
176
     1
 90
        0
176
     1
 90
        0
176
     1
290
     0
176
     1
 90
       13
176
     1
 40
0.0
176
     1
 90
        0
176
     1
290
     0
176
     1
290
     1
176
     1
290
     1
176
     1
290
     0
176
     1
290
     0
176
     1
290
     0
176
     1
290
     0
176
     1
290
     0
176
     1
290
     0
176
     1
 90
       50
176
     1
 40
0.0
176
     1
 40
1.0
176
     1
 90
        0
176
     1
 62
    18
420
        0
176
     1
 90
       50
176
     1
 90
        3
176
     1
 62
     5
420
      255
176
     1
290
     0
176
     1
 90
       50
176
     1
 90
       50
176
     1
 90
       50
176
     1
290
     0
176
     1
 90
       50
176
     1
 62
   256
176
     0
 40
1.0
176
     0
 90
        2
176
     1
  1
strokes_ogs.tif
176
     1
290
     0
176
     1
 40
1.0
176
     1
 40
1.0
176
     1
  0
VISUALSTYLE
  5
2E
102
{ACAD_REACTORS
330
2A
102
}
330
2A
100
AcDbVisualStyle
  2
GouraudWithEdges
 70
     3
177
     3
291
     1
 70
    58
 90
        2
176
     1
 90
        2
176
     1
 90
        1
176
     1
 90
        2
176
     1
 40
0.6
176
     1
 40
30.0
176
     1
 62
     7
420
 16777215
176
     1
 90
        1
176
     1
 90
        0
176
     1
 62
     7
176
     1
 62
   257
176
     1
 90
        1
176
     1
 90
        1
176
     1
 40
1.0
176
     1
 90
        0
176
     1
 62
   257
176
     1
 40
1.0
176
     1
 90
        1
176
     1
 90
        6
176
     1
 90
        2
176
     1
 62
     7
176
     1
 90
        5
176
     1
 90
        0
176
     1
 90
        0
176
     1
290
     0
176
     1
 90
       13
176
     1
 40
0.0
176
     1
 90
        0
176
     1
290
     0
176
     1
290
     1
176
     1
290
     1
176
     1
290
     0
176
     1
290
     0
176
     1
290
     0
176
     1
290
     0
176
     1
290
     0
176
     1
290
     0
176
     1
 90
       50
176
     1
 40
0.0
176
     1
 40
1.0
176
     1
 90
        0
176
     1
 62
    18
420
        0
176
     1
 90
       50
176
     1
 90
        3
176
     1
 62
     5
420
      255
176
     1
290
     0
176
     1
 90
       50
176
     1
 90
       50
176
     1
 90
       50
176
     1
290
     0
176
     1
 90
       50
176
     1
 62
   256
176
     0
 40
1.0
176
     0
 90
        2
176
     1
  1
strokes_ogs.tif
176
     1
290
     0
176
     1
 40
1.0
176
     1
 40
1.0
176
     1
  0
VISUALSTYLE
  5
31
102
{ACAD_REACTORS
330
2A
102
}
330
2A
100
AcDbVisualStyle
  2
Hidden
 70
     6
177
     3
291
     0
 70
    58
 90
        1
176
     1
 90
        2
176
     1
 90
        2
176
     1
 90
        0
176
     1
 40
0.6
176
     1
 40
30.0
176
     1
 62
     7
420
 16777215
176
     1
 90
        2
176
     1
 90
        2
176
     1
 62
     7
176
     1
 62
   257
176
     1
 90
        2
176
     1
 90
        1
176
     1
 40
40.0
176
     1
 90
        0
176
     1
 62
   257
176
     1
 40
1.0
176
     1
 90
        1
176
     1
 90
        6
176
     1
 90
        2
176
     1
 62
     7
176
     1
 90
        3
176
     1
 90
        0
176
     1
 90
        0
176
     1
290
     0
176
     1
 90
        1
176
     1
 40
0.0
176
     1
 90
        0
176
     1
290
     0
176
     1
290
     1
176
     1
290
     1
176
     1
290
     0
176
     1
290
     0
176
     1
290
     0
176
     1
290
     0
176
     1
290
     0
176
     1
290
     0
176
     1
 90
       50
176
     1
 40
0.0
176
     1
 40
1.0
176
     1
 90
        0
176
     1
 62
    18
420
        0
176
     1
 90
       50
176
     1
 90
        3
176
     1
 62
     5
420
      255
176
     1
290
     0
176
     1
 90
       50
176
     1
 90
       50
176
     1
 90
       50
176
     1
290
     0
176
     1
 90
       50
176
     1
 62
   256
176
     0
 40
1.0
176
     0
 90
        2
176
     1
  1
strokes_ogs.tif
176
     1
290
     0
176
     1
 40
1.0
176
     1
 40
1.0
176
     1
  0
VISUALSTYLE
  5
3B
102
{ACAD_REACTORS
330
2A
102
}
330
2A
100
AcDbVisualStyle
  2
JitterOff
 70
    20
177
     3
291
     1
 70
    58
 90
        2
176
     0
 90
        2
176
     0
 90
        0
176
     0
 90
        0
176
     0
 40
0.6
176
     0
 40
30.0
176
     0
 62
     7
420
 16777215
176
     0
 90
        1
176
     0
 90
        4
176
     0
 62
     7
176
     0
 62
   257
176
     0
 90
        1
176
     0
 90
        1
176
     0
 40
1.0
176
     0
 90
       10
176
     2
 62
     7
176
     0
 40
1.0
176
     0
 90
        1
176
     0
 90
        6
176
     0
 90
        2
176
     0
 62
     7
176
     0
 90
        5
176
     0
 90
        0
176
     0
 90
        0
176
     0
290
     0
176
     0
 90
        1
176
     0
 40
0.0
176
     0
 90
        0
176
     0
290
     0
176
     0
290
     1
176
     0
290
     1
176
     0
290
     0
176
     0
290
     0
176
     0
290
     0
176
     0
290
     0
176
     0
290
     0
176
     0
290
     0
176
     0
 90
       50
176
     0
 40
0.0
176
     0
 40
1.0
176
     0
 90
        0
176
     0
 62
    18
420
        0
176
     0
 90
       50
176
     0
 90
        3
176
     0
 62
     5
420
      255
176
     0
290
     0
176
     0
 90
       50
176
     0
 90
       50
176
     0
 90
       50
176
     0
290
     0
176
     0
 90
       50
176
     0
 62
   256
176
     0
 40
1.0
176
     0
 90
        2
176
     0
  1
strokes_ogs.tif
176
     0
290
     0
176
     0
 40
1.0
176
     0
 40
1.0
176
     0
  0
VISUALSTYLE
  5
38
102
{ACAD_REACTORS
330
2A
102
}
330
2A
100
AcDbVisualStyle
  2
Linepattern
 70
    14
177
     3
291
     1
 70
    58
 90
        2
176
     1
 90
        2
176
     1
 90
        0
176
     1
 90
        0
176
     1
 40
0.6
176
     1
 40
30.0
176
     1
 62
     7
420
 16777215
176
     1
 90
        1
176
     1
 90
        4
176
     1
 62
     7
176
     1
 62
   257
176
     1
 90
        7
176
     1
 90
        7
176
     1
 40
1.0
176
     1
 90
        8
176
     1
 62
     7
176
     1
 40
1.0
176
     1
 90
        1
176
     1
 90
        6
176
     1
 90
        2
176
     1
 62
     7
176
     1
 90
        5
176
     1
 90
        0
176
     1
 90
        0
176
     1
290
     0
176
     1
 90
        1
176
     1
 40
0.0
176
     1
 90
        0
176
     1
290
     0
176
     1
290
     1
176
     1
290
     1
176
     1
290
     0
176
     1
290
     0
176
     1
290
     0
176
     1
290
     0
176
     1
290
     0
176
     1
290
     0
176
     1
 90
       50
176
     1
 40
0.0
176
     1
 40
1.0
176
     1
 90
        0
176
     1
 62
    18
420
        0
176
     1
 90
       50
176
     1
 90
        3
176
     1
 62
     5
420
      255
176
     1
290
     0
176
     1
 90
       50
176
     1
 90
       50
176
     1
 90
       50
176
     1
290
     0
176
     1
 90
       50
176
     1
 62
   256
176
     0
 40
1.0
176
     0
 90
        2
176
     1
  1
strokes_ogs.tif
176
     1
290
     0
176
     1
 40
1.0
176
     1
 40
1.0
176
     1
  0
VISUALSTYLE
  5
3C
102
{ACAD_REACTORS
330
2A
102
}
330
2A
100
AcDbVisualStyle
  2
OverhangOff
 70
    21
177
     3
291
     1
 70
    58
 90
        2
176
     0
 90
        2
176
     0
 90
        0
176
     0
 90
        0
176
     0
 40
0.6
176
     0
 40
30.0
176
     0
 62
     7
420
 16777215
176
     0
 90
        1
176
     0
 90
        4
176
     0
 62
     7
176
     0
 62
   257
176
     0
 90
        1
176
     0
 90
        1
176
     0
 40
1.0
176
     0
 90
        9
176
     2
 62
     7
176
     0
 40
1.0
176
     0
 90
        1
176
     0
 90
        6
176
     0
 90
        2
176
     0
 62
     7
176
     0
 90
        5
176
     0
 90
        0
176
     0
 90
        0
176
     0
290
     0
176
     0
 90
        1
176
     0
 40
0.0
176
     0
 90
        0
176
     0
290
     0
176
     0
290
     1
176
     0
290
     1
176
     0
290
     0
176
     0
290
     0
176
     0
290
     0
176
     0
290
     0
176
     0
290
     0
176
     0
290
     0
176
     0
 90
       50
176
     0
 40
0.0
176
     0
 40
1.0
176
     0
 90
        0
176
     0
 62
    18
420
        0
176
     0
 90
       50
176
     0
 90
        3
176
     0
 62
     5
420
      255
176
     0
290
     0
176
     0
 90
       50
176
     0
 90
       50
176
     0
 90
       50
176
     0
290
     0
176
     0
 90
       50
176
     0
 62
   256
176
     0
 40
1.0
176
     0
 90
        2
176
     0
  1
strokes_ogs.tif
176
     0
290
     0
176
     0
 40
1.0
176
     0
 40
1.0
176
     0
  0
VISUALSTYLE
  5
33
102
{ACAD_REACTORS
330
2A
102
}
330
2A
100
AcDbVisualStyle
  2
Realistic
 70
     8
177
     3
291
     0
 70
    58
 90
        2
176
     1
 90
        3
176
     1
 90
        0
176
     1
 90
        2
176
     1
 40
0.6
176
     1
 40
30.0
176
     1
 62
     7
420
 16777215
176
     1
 90
        0
176
     1
 90
        0
176
     1
 62
     7
176
     1
 62
   257
176
     1
 90
        1
176
     1
 90
        1
176
     1
 40
1.0
176
     1
 90
        8
176
     1
 62
   257
176
     1
 40
1.0
176
     1
 90
        1
176
     1
 90
        6
176
     1
 90
        2
176
     1
 62
     7
176
     1
 90
        3
176
     1
 90
        0
176
     1
 90
        0
176
     1
290
     0
176
     1
 90
       13
176
     1
 40
0.0
176
     1
 90
        0
176
     1
290
     0
176
     1
290
     1
176
     1
290
     1
176
     1
290
     0
176
     1
290
     0
176
     1
290
     0
176
     1
290
     0
176
     1
290
     0
176
     1
290
     0
176
     1
 90
       50
176
     1
 40
0.0
176
     1
 40
1.0
176
     1
 90
        0
176
     1
 62
    18
420
        0
176
     1
 90
       50
176
     1
 90
        3
176
     1
 62
     5
420
      255
176
     1
290
     0
176
     1
 90
       50
176
     1
 90
       50
176
     1
 90
       50
176
     1
290
     0
176
     1
 90
       50
176
     1
 62
   256
176
     0
 40
1.0
176
     0
 90
        2
176
     1
  1
strokes_ogs.tif
176
     1
290
     0
176
     1
 40
1.0
176
     1
 40
1.0
176
     1
  0
VISUALSTYLE
  5
42
102
{ACAD_REACTORS
330
2A
102
}
330
2A
100
AcDbVisualStyle
  2
Shaded
 70
    27
177
     3
291
     0
 70
    58
 90
        2
176
     1
 90
        2
176
     1
 90
        1
176
     1
 90
        2
176
     1
 40
0.6
176
     1
 40
30.0
176
     1
 62
     7
420
 16777215
176
     1
 90
        0
176
     1
 90
        4
176
     1
 62
     7
176
     1
 62
   257
176
     1
 90
        1
176
     1
 90
        1
176
     1
 40
1.0
176
     1
 90
        8
176
     1
 62
   257
176
     1
 40
1.0
176
     1
 90
        1
176
     1
 90
        6
176
     1
 90
        2
176
     1
 62
     8
420
  7895160
176
     1
 90
        3
176
     1
 90
        0
176
     1
 90
        0
176
     1
290
     0
176
     1
 90
        5
176
     1
 40
0.0
176
     1
 90
        0
176
     1
290
     0
176
     1
290
     1
176
     1
290
     1
176
     1
290
     0
176
     1
290
     0
176
     1
290
     0
176
     1
290
     0
176
     1
290
     0
176
     1
290
     0
176
     1
 90
       50
176
     1
 40
0.0
176
     1
 40
1.0
176
     1
 90
        0
176
     1
 62
    18
420
        0
176
     1
 90
       50
176
     1
 90
        3
176
     1
 62
     5
420
      255
176
     1
290
     0
176
     1
 90
       50
176
     1
 90
       50
176
     1
 90
       50
176
     1
290
     0
176
     1
 90
       50
176
     1
 62
   256
176
     0
 40
1.0
176
     0
 90
        2
176
     1
  1
strokes_ogs.tif
176
     1
290
     0
176
     1
 40
1.0
176
     1
 40
1.0
176
     1
  0
VISUALSTYLE
  5
41
102
{ACAD_REACTORS
330
2A
102
}
330
2A
100
AcDbVisualStyle
  2
Shaded with edges
 70
    26
177
     3
291
     0
 70
    58
 90
        2
176
     1
 90
        2
176
     1
 90
        1
176
     1
 90
        2
176
     1
 40
0.6
176
     1
 40
30.0
176
     1
 62
     7
420
 16777215
176
     1
 90
        1
176
     1
 90
       10
176
     1
 62
     7
176
     1
 62
   257
176
     1
 90
        2
176
     1
 90
        1
176
     1
 40
1.0
176
     1
 90
        8
176
     1
 62
   257
176
     1
 40
1.0
176
     1
 90
        1
176
     1
 90
        6
176
     1
 90
        2
176
     1
 62
     7
176
     1
 90
        3
176
     1
 90
        0
176
     1
 90
        0
176
     1
290
     0
176
     1
 90
        5
176
     1
 40
0.0
176
     1
 90
        0
176
     1
290
     0
176
     1
290
     1
176
     1
290
     1
176
     1
290
     0
176
     1
290
     0
176
     1
290
     0
176
     1
290
     0
176
     1
290
     0
176
     1
290
     0
176
     1
 90
       50
176
     1
 40
0.0
176
     1
 40
1.0
176
     1
 90
        0
176
     1
 62
    18
420
        0
176
     1
 90
       50
176
     1
 90
        3
176
     1
 62
     5
420
      255
176
     1
290
     0
176
     1
 90
       50
176
     1
 90
       50
176
     1
 90
       50
176
     1
290
     0
176
     1
 90
       50
176
     1
 62
   256
176
     0
 40
1.0
176
     0
 90
        2
176
     1
  1
strokes_ogs.tif
176
     1
290
     0
176
     1
 40
1.0
176
     1
 40
1.0
176
     1
  0
VISUALSTYLE
  5
3E
102
{ACAD_REACTORS
330
2A
102
}
330
2A
100
AcDbVisualStyle
  2
Shades of Gray
 70
    23
177
     3
291
     0
 70
    58
 90
        2
176
     1
 90
        2
176
     1
 90
        3
176
     1
 90
        0
176
     1
 40
0.6
176
     1
 40
30.0
176
     1
 62
     7
420
 16777215
176
     1
 90
        2
176
     1
 90
        2
176
     1
 62
     7
176
     1
 62
     7
176
     1
 90
        1
176
     1
 90
        1
176
     1
 40
40.0
176
     1
 90
        8
176
     1
 62
     7
176
     1
 40
1.0
176
     1
 90
        1
176
     1
 90
        6
176
     1
 90
        2
176
     1
 62
     7
176
     1
 90
        3
176
     1
 90
        0
176
     1
 90
        0
176
     1
290
     0
176
     1
 90
        1
176
     1
 40
0.0
176
     1
 90
        0
176
     1
290
     0
176
     1
290
     1
176
     1
290
     1
176
     1
290
     0
176
     1
290
     0
176
     1
290
     0
176
     1
290
     0
176
     1
290
     0
176
     1
290
     0
176
     1
 90
       50
176
     1
 40
0.0
176
     1
 40
1.0
176
     1
 90
        0
176
     1
 62
    18
420
        0
176
     1
 90
       50
176
     1
 90
        3
176
     1
 62
     5
420
      255
176
     1
290
     0
176
     1
 90
       50
176
     1
 90
       50
176
     1
 90
       50
176
     1
290
     0
176
     1
 90
       50
176
     1
 62
   256
176
     0
 40
1.0
176
     0
 90
        2
176
     1
  1
strokes_ogs.tif
176
     1
290
     0
176
     1
 40
1.0
176
     1
 40
1.0
176
     1
  0
VISUALSTYLE
  5
3F
102
{ACAD_REACTORS
330
2A
102
}
330
2A
100
AcDbVisualStyle
  2
Sketchy
 70
    24
177
     3
291
     0
 70
    58
 90
        1
176
     1
 90
        2
176
     1
 90
        2
176
     1
 90
        0
176
     1
 40
0.6
176
     1
 40
30.0
176
     1
 62
     7
420
 16777215
176
     1
 90
        2
176
     1
 90
        2
176
     1
 62
     7
176
     1
 62
     7
176
     1
 90
        1
176
     1
 90
        1
176
     1
 40
40.0
176
     1
 90
       11
176
     1
 62
     7
176
     1
 40
1.0
176
     1
 90
        1
176
     1
 90
        6
176
     1
 90
        2
176
     1
 62
     7
176
     1
 90
        6
176
     1
 90
        0
176
     1
 90
        0
176
     1
290
     0
176
     1
 90
        1
176
     1
 40
0.0
176
     1
 90
        0
176
     1
290
     0
176
     1
290
     1
176
     1
290
     1
176
     1
290
     0
176
     1
290
     0
176
     1
290
     0
176
     1
290
     0
176
     1
290
     0
176
     1
290
     0
176
     1
 90
       50
176
     1
 40
0.0
176
     1
 40
1.0
176
     1
 90
        0
176
     1
 62
    18
420
        0
176
     1
 90
       50
176
     1
 90
        3
176
     1
 62
     5
420
      255
176
     1
290
     0
176
     1
 90
       50
176
     1
 90
       50
176
     1
 90
       50
176
     1
290
     0
176
     1
 90
       50
176
     1
 62
   256
176
     0
 40
1.0
176
     0
 90
        2
176
     1
  1
strokes_ogs.tif
176
     1
290
     0
176
     1
 40
1.0
176
     1
 40
1.0
176
     1
  0
VISUALSTYLE
  5
37
102
{ACAD_REACTORS
330
2A
102
}
330
2A
100
AcDbVisualStyle
  2
Thicken
 70
    13
177
     3
291
     1
 70
    58
 90
        2
176
     1
 90
        2
176
     1
 90
        0
176
     1
 90
        0
176
     1
 40
0.6
176
     1
 40
30.0
176
     1
 62
     7
420
 16777215
176
     1
 90
        1
176
     1
 90
        4
176
     1
 62
     7
176
     1
 62
   257
176
     1
 90
        1
176
     1
 90
        1
176
     1
 40
1.0
176
     1
 90
       12
176
     1
 62
     7
176
     1
 40
1.0
176
     1
 90
        1
176
     1
 90
        6
176
     1
 90
        2
176
     1
 62
     7
176
     1
 90
        5
176
     1
 90
        0
176
     1
 90
        0
176
     1
290
     0
176
     1
 90
        1
176
     1
 40
0.0
176
     1
 90
        0
176
     1
290
     0
176
     1
290
     1
176
     1
290
     1
176
     1
290
     0
176
     1
290
     0
176
     1
290
     0
176
     1
290
     0
176
     1
290
     0
176
     1
290
     0
176
     1
 90
       50
176
     1
 40
0.0
176
     1
 40
1.0
176
     1
 90
        0
176
     1
 62
    18
420
        0
176
     1
 90
       50
176
     1
 90
        3
176
     1
 62
     5
420
      255
176
     1
290
     0
176
     1
 90
       50
176
     1
 90
       50
176
     1
 90
       50
176
     1
290
     0
176
     1
 90
       50
176
     1
 62
   256
176
     0
 40
1.0
176
     0
 90
        2
176
     1
  1
strokes_ogs.tif
176
     1
290
     0
176
     1
 40
1.0
176
     1
 40
1.0
176
     1
  0
VISUALSTYLE
  5
30
102
{ACAD_REACTORS
330
2A
102
}
330
2A
100
AcDbVisualStyle
  2
Wireframe
 70
     5
177
     3
291
     0
 70
    58
 90
        0
176
     1
 90
        2
176
     1
 90
        0
176
     1
 90
        0
176
     1
 40
0.6
176
     1
 40
30.0
176
     1
 62
     7
420
 16777215
176
     1
 90
        1
176
     1
 90
        4
176
     1
 62
     7
176
     1
 62
   257
176
     1
 90
        1
176
     1
 90
        1
176
     1
 40
1.0
176
     1
 90
        0
176
     1
 62
   257
176
     1
 40
1.0
176
     1
 90
        1
176
     1
 90
        6
176
     1
 90
        2
176
     1
 62
     7
176
     1
 90
        3
176
     1
 90
        0
176
     1
 90
        0
176
     1
290
     0
176
     1
 90
        1
176
     1
 40
0.0
176
     1
 90
        0
176
     1
290
     0
176
     1
290
     1
176
     1
290
     1
176
     1
290
     0
176
     1
290
     0
176
     1
290
     0
176
     1
290
     0
176
     1
290
     0
176
     1
290
     0
176
     1
 90
       50
176
     1
 40
0.0
176
     1
 40
1.0
176
     1
 90
        0
176
     1
 62
    18
420
        0
176
     1
 90
       50
176
     1
 90
        3
176
     1
 62
     5
420
      255
176
     1
290
     0
176
     1
 90
       50
176
     1
 90
       50
176
     1
 90
       50
176
     1
290
     0
176
     1
 90
       50
176
     1
 62
   256
176
     0
 40
1.0
176
     0
 90
        2
176
     1
  1
strokes_ogs.tif
176
     1
290
     0
176
     1
 40
1.0
176
     1
 40
1.0
176
     1
  0
VISUALSTYLE
  5
40
102
{ACAD_REACTORS
330
2A
102
}
330
2A
100
AcDbVisualStyle
  2
X-Ray
 70
    25
177
     3
291
     0
 70
    58
 90
        2
176
     1
 90
        2
176
     1
 90
        1
176
     1
 90
        1
176
     1
 40
0.5
176
     1
 40
30.0
176
     1
 62
     7
420
 16777215
176
     1
 90
        1
176
     1
 90
        0
176
     1
 62
     7
176
     1
 62
   257
176
     1
 90
        1
176
     1
 90
        1
176
     1
 40
1.0
176
     1
 90
        8
176
     1
 62
     7
176
     1
 40
1.0
176
     1
 90
        1
176
     1
 90
        6
176
     1
 90
        2
176
     1
 62
     7
176
     1
 90
        3
176
     1
 90
        0
176
     1
 90
        0
176
     1
290
     0
176
     1
 90
       13
176
     1
 40
0.0
176
     1
 90
        0
176
     1
290
     0
176
     1
290
     1
176
     1
290
     1
176
     1
290
     0
176
     1
290
     0
176
     1
290
     0
176
     1
290
     0
176
     1
290
     0
176
     1
290
     0
176
     1
 90
       50
176
     1
 40
0.0
176
     1
 40
1.0
176
     1
 90
        0
176
     1
 62
    18
420
        0
176
     1
 90
       50
176
     1
 90
        3
176
     1
 62
     5
420
      255
176
     1
290
     0
176
     1
 90
       50
176
     1
 90
       50
176
     1
 90
       50
176
     1
290
     0
176
     1
 90
       50
176
     1
 62
   256
176
     0
 40
1.0
176
     0
 90
        2
176
     1
  1
strokes_ogs.tif
176
     1
290
     0
176
     1
 40
1.0
176
     1
 40
1.0
176
     1
  0
DICTIONARYVAR
  5
D5
102
{ACAD_REACTORS
330
D4
102
}
330
D4
100
DictionaryVariables
280
     0
  1
1:1
  0
DICTIONARYVAR
  5
DA
102
{ACAD_REACTORS
330
D4
102
}
330
D4
100
DictionaryVariables
280
     0
  1
Standard
  0
DICTIONARYVAR
  5
D9
102
{ACAD_REACTORS
330
D4
102
}
330
D4
100
DictionaryVariables
280
     0
  1
Standard
  0
DICTIONARY
  5
D6
330
5A
100
AcDbDictionary
280
     1
281
     1
  3
ACAD_ROUNDTRIP_2008_TABLESTYLE_CELLSTYLEMAP
360
D7
  0
CELLSTYLEMAP
  5
D7
102
{ACAD_REACTORS
330
D6
102
}
330
D6
100
AcDbCellStyleMap
 90
        3
300
CELLSTYLE
  1
TABLEFORMAT_BEGIN
 90
        5
170
     1
 91
        0
 92
    32768
 62
   257
 93
        1
300
CONTENTFORMAT
  1
CONTENTFORMAT_BEGIN
 90
        0
 91
        0
 92
        4
 93
        0
300

 40
0.0
140
1.0
 94
        5
 62
     0
340
11
144
0.25
309
CONTENTFORMAT_END
171
     1
301
MARGIN
  1
CELLMARGIN_BEGIN
 40
0.06
 40
0.06
 40
0.06
 40
0.06
 40
0.06
 40
0.06
309
CELLMARGIN_END
 94
        6
 95
        1
302
GRIDFORMAT
  1
GRIDFORMAT_BEGIN
 90
        0
 91
        1
 62
     0
 92
       -2
340
14
 93
        0
 40
0.045
309
GRIDFORMAT_END
 95
        2
302
GRIDFORMAT
  1
GRIDFORMAT_BEGIN
 90
        0
 91
        1
 62
     0
 92
       -2
340
14
 93
        0
 40
0.045
309
GRIDFORMAT_END
 95
        4
302
GRIDFORMAT
  1
GRIDFORMAT_BEGIN
 90
        0
 91
        1
 62
     0
 92
       -2
340
14
 93
        0
 40
0.045
309
GRIDFORMAT_END
 95
        8
302
GRIDFORMAT
  1
GRIDFORMAT_BEGIN
 90
        0
 91
        1
 62
     0
 92
       -2
340
14
 93
        0
 40
0.045
309
GRIDFORMAT_END
 95
       16
302
GRIDFORMAT
  1
GRIDFORMAT_BEGIN
 90
        0
 91
        1
 62
     0
 92
       -2
340
14
 93
        0
 40
0.045
309
GRIDFORMAT_END
 95
       32
302
GRIDFORMAT
  1
GRIDFORMAT_BEGIN
 90
        0
 91
        1
 62
     0
 92
       -2
340
14
 93
        0
 40
0.045
309
GRIDFORMAT_END
309
TABLEFORMAT_END
  1
CELLSTYLE_BEGIN
 90
        1
 91
        1
300
_TITLE
309
CELLSTYLE_END
300
CELLSTYLE
  1
TABLEFORMAT_BEGIN
 90
        5
170
     1
 91
        0
 92
        0
 62
   257
 93
        1
300
CONTENTFORMAT
  1
CONTENTFORMAT_BEGIN
 90
        0
 91
        0
 92
        4
 93
        0
300

 40
0.0
140
1.0
 94
        5
 62
     0
340
11
144
0.18
309
CONTENTFORMAT_END
171
     1
301
MARGIN
  1
CELLMARGIN_BEGIN
 40
0.06
 40
0.06
 40
0.06
 40
0.06
 40
0.06
 40
0.06
309
CELLMARGIN_END
 94
        6
 95
        1
302
GRIDFORMAT
  1
GRIDFORMAT_BEGIN
 90
        0
 91
        1
 62
     0
 92
       -2
340
14
 93
        0
 40
0.045
309
GRIDFORMAT_END
 95
        2
302
GRIDFORMAT
  1
GRIDFORMAT_BEGIN
 90
        0
 91
        1
 62
     0
 92
       -2
340
14
 93
        0
 40
0.045
309
GRIDFORMAT_END
 95
        4
302
GRIDFORMAT
  1
GRIDFORMAT_BEGIN
 90
        0
 91
        1
 62
     0
 92
       -2
340
14
 93
        0
 40
0.045
309
GRIDFORMAT_END
 95
        8
302
GRIDFORMAT
  1
GRIDFORMAT_BEGIN
 90
        0
 91
        1
 62
     0
 92
       -2
340
14
 93
        0
 40
0.045
309
GRIDFORMAT_END
 95
       16
302
GRIDFORMAT
  1
GRIDFORMAT_BEGIN
 90
        0
 91
        1
 62
     0
 92
       -2
340
14
 93
        0
 40
0.045
309
GRIDFORMAT_END
 95
       32
302
GRIDFORMAT
  1
GRIDFORMAT_BEGIN
 90
        0
 91
        1
 62
     0
 92
       -2
340
14
 93
        0
 40
0.045
309
GRIDFORMAT_END
309
TABLEFORMAT_END
  1
CELLSTYLE_BEGIN
 90
        2
 91
        1
300
_HEADER
309
CELLSTYLE_END
300
CELLSTYLE
  1
TABLEFORMAT_BEGIN
 90
        5
170
     1
 91
        0
 92
        0
 62
   257
 93
        1
300
CONTENTFORMAT
  1
CONTENTFORMAT_BEGIN
 90
        0
 91
        0
 92
        4
 93
        0
300

 40
0.0
140
1.0
 94
        2
 62
     0
340
11
144
0.18
309
CONTENTFORMAT_END
171
     1
301
MARGIN
  1
CELLMARGIN_BEGIN
 40
0.06
 40
0.06
 40
0.06
 40
0.06
 40
0.06
 40
0.06
309
CELLMARGIN_END
 94
        6
 95
        1
302
GRIDFORMAT
  1
GRIDFORMAT_BEGIN
 90
        0
 91
        1
 62
     0
 92
       -2
340
14
 93
        0
 40
0.045
309
GRIDFORMAT_END
 95
        2
302
GRIDFORMAT
  1
GRIDFORMAT_BEGIN
 90
        0
 91
        1
 62
     0
 92
       -2
340
14
 93
        0
 40
0.045
309
GRIDFORMAT_END
 95
        4
302
GRIDFORMAT
  1
GRIDFORMAT_BEGIN
 90
        0
 91
        1
 62
     0
 92
       -2
340
14
 93
        0
 40
0.045
309
GRIDFORMAT_END
 95
        8
302
GRIDFORMAT
  1
GRIDFORMAT_BEGIN
 90
        0
 91
        1
 62
     0
 92
       -2
340
14
 93
        0
 40
0.045
309
GRIDFORMAT_END
 95
       16
302
GRIDFORMAT
  1
GRIDFORMAT_BEGIN
 90
        0
 91
        1
 62
     0
 92
       -2
340
14
 93
        0
 40
0.045
309
GRIDFORMAT_END
 95
       32
302
GRIDFORMAT
  1
GRIDFORMAT_BEGIN
 90
        0
 91
        1
 62
     0
 92
       -2
340
14
 93
        0
 40
0.045
309
GRIDFORMAT_END
309
TABLEFORMAT_END
  1
CELLSTYLE_BEGIN
 90
        3
 91
        2
300
_DATA
309
CELLSTYLE_END
  0
ENDSEC
  0
EOF
