  0
SECTION
  2
HEADER
  9
$ACADVER
  1
AC1032
  9
$ACADMAINTVER
 90
       55
  9
$DWGCODEPAGE
  3
ANSI_1251
  9
$LASTSAVEDBY
  1
torde
  9
$REQUIREDVERSIONS
160
                 0
  9
$INSBASE
 10
0.0
 20
0.0
 30
0.0
  9
$EXTMIN
 10
-30.90303
 20
-11.61731
 30
0.0
  9
$EXTMAX
 10
28.99798
 20
24.75528
 30
0.0
  9
$LIMMIN
 10
0.0
 20
0.0
  9
$LIMMAX
 10
12.0
 20
9.0
  9
$ORTHOMODE
 70
     0
  9
$REGENMODE
 70
     1
  9
$FILLMODE
 70
     1
  9
$QTEXTMODE
 70
     0
  9
$MIRRTEXT
 70
     1
  9
$LTSCALE
 40
1.0
  9
$ATTMODE
 70
     1
  9
$TEXTSIZE
 40
0.2
  9
$TRACEWID
 40
0.05
  9
$TEXTSTYLE
  7
Standard
  9
$CLAYER
  8
0
  9
$CELTYPE
  6
ByLayer
  9
$CECOLOR
 62
   256
  9
$CELTSCALE
 40
1.0
  9
$DISPSILH
 70
     0
  9
$DIMSCALE
 40
1.0
  9
$DIMASZ
 40
0.18
  9
$DIMEXO
 40
0.0625
  9
$DIMDLI
 40
0.38
  9
$DIMRND
 40
0.0
  9
$DIMDLE
 40
0.0
  9
$DIMEXE
 40
0.18
  9
$DIMTP
 40
0.0
  9
$DIMTM
 40
0.0
  9
$DIMTXT
 40
0.18
  9
$DIMCEN
 40
0.09
  9
$DIMTSZ
 40
0.0
  9
$DIMTOL
 70
     0
  9
$DIMLIM
 70
     0
  9
$DIMTIH
 70
     1
  9
$DIMTOH
 70
     1
  9
$DIMSE1
 70
     0
  9
$DIMSE2
 70
     0
  9
$DIMTAD
 70
     0
  9
$DIMZIN
 70
     0
  9
$DIMBLK
  1

  9
$DIMASO
 70
     1
  9
$DIMSHO
 70
     1
  9
$DIMPOST
  1

  9
$DIMAPOST
  1

  9
$DIMALT
 70
     0
  9
$DIMALTD
 70
     2
  9
$DIMALTF
 40
25.4
  9
$DIMLFAC
 40
1.0
  9
$DIMTOFL
 70
     0
  9
$DIMTVP
 40
0.0
  9
$DIMTIX
 70
     0
  9
$DIMSOXD
 70
     0
  9
$DIMSAH
 70
     0
  9
$DIMBLK1
  1

  9
$DIMBLK2
  1

  9
$DIMSTYLE
  2
Standard
  9
$DIMCLRD
 70
     0
  9
$DIMCLRE
 70
     0
  9
$DIMCLRT
 70
     0
  9
$DIMTFAC
 40
1.0
  9
$DIMGAP
 40
0.09
  9
$DIMJUST
 70
     0
  9
$DIMSD1
 70
     0
  9
$DIMSD2
 70
     0
  9
$DIMTOLJ
 70
     1
  9
$DIMTZIN
 70
     0
  9
$DIMALTZ
 70
     0
  9
$DIMALTTZ
 70
     0
  9
$DIMUPT
 70
     0
  9
$DIMDEC
 70
     4
  9
$DIMTDEC
 70
     4
  9
$DIMALTU
 70
     2
  9
$DIMALTTD
 70
     2
  9
$DIMTXSTY
  7
Standard
  9
$DIMAUNIT
 70
     0
  9
$DIMADEC
 70
     0
  9
$DIMALTRND
 40
0.0
  9
$DIMAZIN
 70
     0
  9
$DIMDSEP
 70
    46
  9
$DIMATFIT
 70
     3
  9
$DIMFRAC
 70
     0
  9
$DIMLDRBLK
  1

  9
$DIMLUNIT
 70
     2
  9
$DIMLWD
 70
    -2
  9
$DIMLWE
 70
    -2
  9
$DIMTMOVE
 70
     0
  9
$DIMFXL
 40
1.0
  9
$DIMFXLON
 70
     0
  9
$DIMJOGANG
 40
0.7853981633974483
  9
$DIMTFILL
 70
     0
  9
$DIMTFILLCLR
 70
     0
  9
$DIMARCSYM
 70
     0
  9
$DIMLTYPE
  6

  9
$DIMLTEX1
  6

  9
$DIMLTEX2
  6

  9
$DIMTXTDIRECTION
 70
     0
  9
$LUNITS
 70
     2
  9
$LUPREC
 70
     4
  9
$SKETCHINC
 40
0.1
  9
$FILLETRAD
 40
0.0
  9
$AUNITS
 70
     0
  9
$AUPREC
 70
     0
  9
$MENU
  1
.
  9
$ELEVATION
 40
0.0
  9
$PELEVATION
 40
0.0
  9
$THICKNESS
 40
0.0
  9
$LIMCHECK
 70
     0
  9
$CHAMFERA
 40
0.0
  9
$CHAMFERB
 40
0.0
  9
$CHAMFERC
 40
0.0
  9
$CHAMFERD
 40
0.0
  9
$SKPOLY
 70
     0
  9
$TDCREATE
 40
2461096.646967917
  9
$TDUCREATE
 40
2461096.521967917
  9
$TDUPDATE
 40
2461096.646967917
  9
$TDUUPDATE
 40
2461096.521967917
  9
$TDINDWG
 40
0.0000000116
  9
$TDUSRTIMER
 40
0.0000000116
  9
$USRTIMER
 70
     1
  9
$ANGBASE
 50
0.0
  9
$ANGDIR
 70
     0
  9
$PDMODE
 70
     0
  9
$PDSIZE
 40
0.0
  9
$PLINEWID
 40
0.0
  9
$SPLFRAME
 70
     0
  9
$SPLINETYPE
 70
     6
  9
$SPLINESEGS
 70
     8
  9
$HANDSEED
  5
7A
  9
$SURFTAB1
 70
     6
  9
$SURFTAB2
 70
     6
  9
$SURFTYPE
 70
     6
  9
$SURFU
 70
     6
  9
$SURFV
 70
     6
  9
$UCSBASE
  2

  9
$UCSNAME
  2

  9
$UCSORG
 10
0.0
 20
0.0
 30
0.0
  9
$UCSXDIR
 10
1.0
 20
0.0
 30
0.0
  9
$UCSYDIR
 10
0.0
 20
1.0
 30
0.0
  9
$UCSORTHOREF
  2

  9
$UCSORTHOVIEW
 70
     0
  9
$UCSORGTOP
 10
0.0
 20
0.0
 30
0.0
  9
$UCSORGBOTTOM
 10
0.0
 20
0.0
 30
0.0
  9
$UCSORGLEFT
 10
0.0
 20
0.0
 30
0.0
  9
$UCSORGRIGHT
 10
0.0
 20
0.0
 30
0.0
  9
$UCSORGFRONT
 10
0.0
 20
0.0
 30
0.0
  9
$UCSORGBACK
 10
0.0
 20
0.0
 30
0.0
  9
$PUCSBASE
  2

  9
$PUCSNAME
  2

  9
$PUCSORG
 10
0.0
 20
0.0
 30
0.0
  9
$PUCSXDIR
 10
1.0
 20
0.0
 30
0.0
  9
$PUCSYDIR
 10
0.0
 20
1.0
 30
0.0
  9
$PUCSORTHOREF
  2

  9
$PUCSORTHOVIEW
 70
     0
  9
$PUCSORGTOP
 10
0.0
 20
0.0
 30
0.0
  9
$PUCSORGBOTTOM
 10
0.0
 20
0.0
 30
0.0
  9
$PUCSORGLEFT
 10
0.0
 20
0.0
 30
0.0
  9
$PUCSORGRIGHT
 10
0.0
 20
0.0
 30
0.0
  9
$PUCSORGFRONT
 10
0.0
 20
0.0
 30
0.0
  9
$PUCSORGBACK
 10
0.0
 20
0.0
 30
0.0
  9
$USERI1
 70
     0
  9
$USERI2
 70
     0
  9
$USERI3
 70
     0
  9
$USERI4
 70
     0
  9
$USERI5
 70
     0
  9
$USERR1
 40
0.0
  9
$USERR2
 40
0.0
  9
$USERR3
 40
0.0
  9
$USERR4
 40
0.0
  9
$USERR5
 40
0.0
  9
$WORLDVIEW
 70
     1
  9
$SHADEDGE
 70
     3
  9
$SHADEDIF
 70
    70
  9
$TILEMODE
 70
     1
  9
$MAXACTVP
 70
    64
  9
$PINSBASE
 10
0.0
 20
0.0
 30
0.0
  9
$PLIMCHECK
 70
     0
  9
$PEXTMIN
 10
1.000000000000000E+20
 20
1.000000000000000E+20
 30
1.000000000000000E+20
  9
$PEXTMAX
 10
-1.000000000000000E+20
 20
-1.000000000000000E+20
 30
-1.000000000000000E+20
  9
$PLIMMIN
 10
0.0
 20
0.0
  9
$PLIMMAX
 10
12.0
 20
9.0
  9
$UNITMODE
 70
     0
  9
$VISRETAIN
 70
     1
  9
$PLINEGEN
 70
     0
  9
$PSLTSCALE
 70
     1
  9
$TREEDEPTH
 70
  3020
  9
$CMLSTYLE
  2
Standard
  9
$CMLJUST
 70
     0
  9
$CMLSCALE
 40
1.0
  9
$PROXYGRAPHICS
 70
     1
  9
$MEASUREMENT
 70
     0
  9
$CELWEIGHT
370
    -1
  9
$ENDCAPS
280
     0
  9
$JOINSTYLE
280
     0
  9
$LWDISPLAY
290
     0
  9
$INSUNITS
 70
     5
  9
$HYPERLINKBASE
  1

  9
$STYLESHEET
  1

  9
$XEDIT
290
     1
  9
$CEPSNTYPE
380
     0
  9
$PSTYLEMODE
290
     1
  9
$FINGERPRINTGUID
  2
{ed3b37bd-21a2-4f0b-a53f-2ca145217fb7}
  9
$VERSIONGUID
  2
{FAEB1C32-E019-11D5-929B-00C0DF256EC4}
  9
$EXTNAMES
290
     1
  9
$PSVPSCALE
 40
0.0
  9
$OLESTARTUP
290
     0
  9
$SORTENTS
280
   127
  9
$INDEXCTL
280
     0
  9
$HIDETEXT
280
     1
  9
$XCLIPFRAME
280
     2
  9
$HALOGAP
280
     0
  9
$OBSCOLOR
 70
   257
  9
$OBSLTYPE
280
     0
  9
$INTERSECTIONDISPLAY
280
     0
  9
$INTERSECTIONCOLOR
 70
   257
  9
$DIMASSOC
280
     2
  9
$PROJECTNAME
  1

  9
$CAMERADISPLAY
290
     0
  9
$LENSLENGTH
 40
50.0
  9
$CAMERAHEIGHT
 40
0.0
  9
$STEPSPERSEC
 40
2.0
  9
$STEPSIZE
 40
6.0
  9
$3DDWFPREC
 40
2.0
  9
$PSOLWIDTH
 40
0.25
  9
$PSOLHEIGHT
 40
4.0
  9
$LOFTANG1
 40
1.570796326794897
  9
$LOFTANG2
 40
1.570796326794897
  9
$LOFTMAG1
 40
0.0
  9
$LOFTMAG2
 40
0.0
  9
$LOFTPARAM
 70
     7
  9
$LOFTNORMALS
280
     1
  9
$LATITUDE
 40
37.795
  9
$LONGITUDE
 40
-122.394
  9
$NORTHDIRECTION
 40
0.0
  9
$TIMEZONE
 70
 -8000
  9
$LIGHTGLYPHDISPLAY
280
     1
  9
$TILEMODELIGHTSYNCH
280
     1
  9
$CMATERIAL
347
44
  9
$SOLIDHIST
280
     0
  9
$SHOWHIST
280
     1
  9
$DWFFRAME
280
     2
  9
$DGNFRAME
280
     2
  9
$REALWORLDSCALE
290
     1
  9
$INTERFERECOLOR
 62
   256
  9
$CSHADOW
280
     0
  9
$SHADOWPLANELOCATION
 40
0.0
  0
ENDSEC
  0
SECTION
  2
CLASSES
  0
CLASS
  1
ACDBDICTIONARYWDFLT
  2
AcDbDictionaryWithDefault
  3
ObjectDBX Classes
 90
        0
 91
        3
280
     0
281
     0
  0
CLASS
  1
VISUALSTYLE
  2
AcDbVisualStyle
  3
ObjectDBX Classes
 90
     4095
 91
        3
280
     0
281
     0
  0
CLASS
  1
MATERIAL
  2
AcDbMaterial
  3
ObjectDBX Classes
 90
     1153
 91
        3
280
     0
281
     0
  0
CLASS
  1
SCALE
  2
AcDbScale
  3
ObjectDBX Classes
 90
     1153
 91
        3
280
     0
281
     0
  0
CLASS
  1
TABLESTYLE
  2
AcDbTableStyle
  3
ObjectDBX Classes
 90
     4095
 91
        3
280
     0
281
     0
  0
CLASS
  1
MLEADERSTYLE
  2
AcDbMLeaderStyle
  3
ACDB_MLEADERSTYLE_CLASS
 90
     4095
 91
        3
280
     0
281
     0
  0
CLASS
  1
SUN
  2
AcDbSun
  3
SCENEOE
 90
     1153
 91
        3
280
     0
281
     0
  0
CLASS
  1
DICTIONARYVAR
  2
AcDbDictionaryVar
  3
ObjectDBX Classes
 90
        0
 91
        3
280
     0
281
     0
  0
CLASS
  1
CELLSTYLEMAP
  2
AcDbCellStyleMap
  3
ObjectDBX Classes
 90
     1152
 91
        3
280
     0
281
     0
  0
ENDSEC
  0
SECTION
  2
TABLES
  0
TABLE
  2
VPORT
  5
8
330
0
100
AcDbSymbolTable
 70
     1
  0
VPORT
  5
29
330
8
100
AcDbSymbolTableRecord
100
AcDbViewportTableRecord
  2
*Active
 70
     0
 10
0.0
 20
0.0
 11
1.0
 21
1.0
 12
10.42990654205607
 22
4.5
 13
0.0
 23
0.0
 14
0.5
 24
0.5
 15
0.5
 25
0.5
 16
0.0
 26
0.0
 36
1.0
 17
0.0
 27
0.0
 37
0.0
 40
9.0
 41
1.972972972850329
 42
50.0
 43
0.0
 44
0.0
 50
0.0
 51
0.0
 71
     0
 72
   100
 73
     1
 74
     3
 75
     0
 76
     0
 77
     0
 78
     0
281
     0
 65
     1
110
0.0
120
0.0
130
0.0
111
1.0
121
0.0
131
0.0
112
0.0
122
1.0
132
0.0
 79
     0
146
0.0
348
2F
 60
     3
 61
     5
292
     1
282
     1
141
0.0
142
0.0
 63
   250
361
5D
  0
ENDTAB
  0
TABLE
  2
LTYPE
  5
5
330
0
100
AcDbSymbolTable
 70
     1
  0
LTYPE
  5
14
330
5
100
AcDbSymbolTableRecord
100
AcDbLinetypeTableRecord
  2
ByBlock
 70
     0
  3

 72
    65
 73
     0
 40
0.0
  0
LTYPE
  5
15
330
5
100
AcDbSymbolTableRecord
100
AcDbLinetypeTableRecord
  2
ByLayer
 70
     0
  3

 72
    65
 73
     0
 40
0.0
  0
LTYPE
  5
16
330
5
100
AcDbSymbolTableRecord
100
AcDbLinetypeTableRecord
  2
Continuous
 70
     0
  3
Solid line
 72
    65
 73
     0
 40
0.0
  0
ENDTAB
  0
TABLE
  2
LAYER
  5
2
330
0
100
AcDbSymbolTable
 70
     1
  0
LAYER
  5
10
330
2
100
AcDbSymbolTableRecord
100
AcDbLayerTableRecord
  2
0
 70
     0
 62
     7
  6
Continuous
370
    -3
390
F
347
46
348
0
  0
ENDTAB
  0
TABLE
  2
STYLE
  5
3
330
0
100
AcDbSymbolTable
 70
     1
  0
STYLE
  5
11
330
3
100
AcDbSymbolTableRecord
100
AcDbTextStyleTableRecord
  2
Standard
 70
     0
 40
0.0
 41
1.0
 50
0.0
 71
     0
 42
0.2
  3
txt
  4

  0
ENDTAB
  0
TABLE
  2
VIEW
  5
6
330
0
100
AcDbSymbolTable
 70
     0
  0
ENDTAB
  0
TABLE
  2
UCS
  5
7
330
0
100
AcDbSymbolTable
 70
     0
  0
ENDTAB
  0
TABLE
  2
APPID
  5
9
330
0
100
AcDbSymbolTable
 70
     2
  0
APPID
  5
12
330
9
100
AcDbSymbolTableRecord
100
AcDbRegAppTableRecord
  2
ACAD
 70
     0
  0
APPID
  5
5E
330
9
100
AcDbSymbolTableRecord
100
AcDbRegAppTableRecord
  2
ODA
 70
     0
  0
ENDTAB
  0
TABLE
  2
DIMSTYLE
  5
A
330
0
100
AcDbSymbolTable
 70
     1
100
AcDbDimStyleTable
  0
DIMSTYLE
105
27
330
A
100
AcDbSymbolTableRecord
100
AcDbDimStyleTableRecord
  2
Standard
 70
     0
178
     0
340
11
  0
ENDTAB
  0
TABLE
  2
BLOCK_RECORD
  5
1
330
0
100
AcDbSymbolTable
 70
     1
  0
BLOCK_RECORD
  5
1F
330
1
100
AcDbSymbolTableRecord
100
AcDbBlockTableRecord
  2
*Model_Space
340
22
 70
     0
280
     1
281
     0
  0
BLOCK_RECORD
  5
1B
330
1
100
AcDbSymbolTableRecord
100
AcDbBlockTableRecord
  2
*Paper_Space
340
1E
 70
     0
280
     1
281
     0
  0
BLOCK_RECORD
  5
23
330
1
100
AcDbSymbolTableRecord
100
AcDbBlockTableRecord
  2
*Paper_Space0
340
26
 70
     0
280
     1
281
     0
  0
ENDTAB
  0
ENDSEC
  0
SECTION
  2
BLOCKS
  0
BLOCK
  5
20
330
1F
100
AcDbEntity
  8
0
100
AcDbBlockBegin
  2
*Model_Space
 70
     0
 10
0.0
 20
0.0
 30
0.0
  3
*Model_Space
  1

  0
ENDBLK
  5
21
330
1F
100
AcDbEntity
  8
0
100
AcDbBlockEnd
  0
BLOCK
  5
1C
330
1B
100
AcDbEntity
 67
     1
  8
0
100
AcDbBlockBegin
  2
*Paper_Space
 70
     0
 10
0.0
 20
0.0
 30
0.0
  3
*Paper_Space
  1

  0
ENDBLK
  5
1D
330
1B
100
AcDbEntity
 67
     1
  8
0
100
AcDbBlockEnd
  0
BLOCK
  5
24
330
23
100
AcDbEntity
  8
0
100
AcDbBlockBegin
  2
*Paper_Space0
 70
     0
 10
0.0
 20
0.0
 30
0.0
  3
*Paper_Space0
  1

  0
ENDBLK
  5
25
330
23
100
AcDbEntity
  8
0
100
AcDbBlockEnd
  0
ENDSEC
  0
SECTION
  2
ENTITIES
  0
SPLINE
  5
5F
330
1F
100
AcDbEntity
  8
0
370
     9
100
AcDbSpline
210
0.0
220
0.0
230
1.0
 70
    11
 71
     3
 72
    41
 73
    37
 74
     0
 42
0.0000000001
 43
0.0000000001
 40
0.0
 40
0.0
 40
0.0
 40
0.0
 40
0.0833333333333333
 40
0.0833333333333333
 40
0.0833333333333333
 40
0.1666666666666667
 40
0.1666666666666667
 40
0.1666666666666667
 40
0.25
 40
0.25
 40
0.25
 40
0.3333333333333333
 40
0.3333333333333333
 40
0.3333333333333333
 40
0.4166666666666666
 40
0.4166666666666666
 40
0.4166666666666666
 40
0.5
 40
0.5
 40
0.5
 40
0.5833333333333333
 40
0.5833333333333333
 40
0.5833333333333333
 40
0.6666666666666666
 40
0.6666666666666666
 40
0.6666666666666666
 40
0.75
 40
0.75
 40
0.75
 40
0.8333333333333333
 40
0.8333333333333333
 40
0.8333333333333333
 40
0.9166666666666666
 40
0.9166666666666666
 40
0.9166666666666666
 40
1.0
 40
1.0
 40
1.0
 40
1.0
 10
15.86628
 20
22.75147
 30
0.0
 10
15.86628
 20
22.75147
 30
0.0
 10
15.86628
 20
23.25147
 30
0.0
 10
15.86628
 20
23.25147
 30
0.0
 10
15.86628
 20
23.25147
 30
0.0
 10
16.46628
 20
23.25147
 30
0.0
 10
16.46628
 20
23.25147
 30
0.0
 10
16.46628
 20
23.25147
 30
0.0
 10
16.46628
 20
24.25147
 30
0.0
 10
16.46628
 20
24.25147
 30
0.0
 10
16.46628
 20
24.25147
 30
0.0
 10
15.86628
 20
24.25147
 30
0.0
 10
15.86628
 20
24.25147
 30
0.0
 10
15.86628
 20
24.25147
 30
0.0
 10
15.86628
 20
24.75147
 30
0.0
 10
15.86628
 20
24.75147
 30
0.0
 10
15.86628
 20
24.75147
 30
0.0
 10
-17.93372
 20
24.75147
 30
0.0
 10
-17.93372
 20
24.75147
 30
0.0
 10
-17.93372
 20
24.75147
 30
0.0
 10
-17.93372
 20
24.25147
 30
0.0
 10
-17.93372
 20
24.25147
 30
0.0
 10
-17.93372
 20
24.25147
 30
0.0
 10
-18.53372
 20
24.25147
 30
0.0
 10
-18.53372
 20
24.25147
 30
0.0
 10
-18.53372
 20
24.25147
 30
0.0
 10
-18.53372
 20
23.25147
 30
0.0
 10
-18.53372
 20
23.25147
 30
0.0
 10
-18.53372
 20
23.25147
 30
0.0
 10
-17.93372
 20
23.25147
 30
0.0
 10
-17.93372
 20
23.25147
 30
0.0
 10
-17.93372
 20
23.25147
 30
0.0
 10
-17.93372
 20
22.75147
 30
0.0
 10
-17.93372
 20
22.75147
 30
0.0
 10
-17.93372
 20
22.75147
 30
0.0
 10
15.86628
 20
22.75147
 30
0.0
 10
15.86628
 20
22.75147
 30
0.0
  0
SPLINE
  5
60
330
1F
100
AcDbEntity
  8
0
370
     9
100
AcDbSpline
210
0.0
220
0.0
230
1.0
 70
    11
 71
     3
 72
    71
 73
    67
 74
     0
 42
0.0000000001
 43
0.0000000001
 40
0.0
 40
0.0
 40
0.0
 40
0.0
 40
0.0454545454545455
 40
0.0454545454545455
 40
0.0454545454545455
 40
0.0909090909090909
 40
0.0909090909090909
 40
0.0909090909090909
 40
0.1363636363636364
 40
0.1363636363636364
 40
0.1363636363636364
 40
0.1818181818181818
 40
0.1818181818181818
 40
0.1818181818181818
 40
0.2272727272727273
 40
0.2272727272727273
 40
0.2272727272727273
 40
0.2727272727272727
 40
0.2727272727272727
 40
0.2727272727272727
 40
0.3181818181818182
 40
0.3181818181818182
 40
0.3181818181818182
 40
0.3636363636363636
 40
0.3636363636363636
 40
0.3636363636363636
 40
0.4090909090909091
 40
0.4090909090909091
 40
0.4090909090909091
 40
0.4545454545454546
 40
0.4545454545454546
 40
0.4545454545454546
 40
0.5
 40
0.5
 40
0.5
 40
0.5454545454545454
 40
0.5454545454545454
 40
0.5454545454545454
 40
0.5909090909090909
 40
0.5909090909090909
 40
0.5909090909090909
 40
0.6363636363636364
 40
0.6363636363636364
 40
0.6363636363636364
 40
0.6818181818181819
 40
0.6818181818181819
 40
0.6818181818181819
 40
0.7272727272727273
 40
0.7272727272727273
 40
0.7272727272727273
 40
0.7727272727272727
 40
0.7727272727272727
 40
0.7727272727272727
 40
0.8181818181818182
 40
0.8181818181818182
 40
0.8181818181818182
 40
0.8636363636363636
 40
0.8636363636363636
 40
0.8636363636363636
 40
0.9090909090909092
 40
0.9090909090909092
 40
0.9090909090909092
 40
0.9545454545454546
 40
0.9545454545454546
 40
0.9545454545454546
 40
1.0
 40
1.0
 40
1.0
 40
1.0
 10
-18.20024
 20
-11.6135
 30
0.0
 10
-18.33293
 20
-11.61342
 30
0.0
 10
-18.46016
 20
-11.56062
 30
0.0
 10
-18.55392
 20
-11.46674
 30
0.0
 10
-18.64769
 20
-11.37285
 30
0.0
 10
-18.70032
 20
-11.24619
 30
0.0
 10
-18.70024
 20
-11.1135
 30
0.0
 10
-18.70024
 20
-11.1135
 30
0.0
 10
-17.70025
 20
-11.1135
 30
0.0
 10
-17.70025
 20
-11.1135
 30
0.0
 10
-17.70025
 20
-11.1135
 30
0.0
 10
-17.70025
 20
-10.51351
 30
0.0
 10
-17.70025
 20
-10.51351
 30
0.0
 10
-17.70025
 20
-10.51351
 30
0.0
 10
-16.70026
 20
-10.51351
 30
0.0
 10
-16.70026
 20
-10.51351
 30
0.0
 10
-16.70026
 20
-10.51351
 30
0.0
 10
-16.70026
 20
-11.1135
 30
0.0
 10
-16.70026
 20
-11.1135
 30
0.0
 10
-16.70026
 20
-11.1135
 30
0.0
 10
-7.03368
 20
-11.1135
 30
0.0
 10
-7.03368
 20
-11.1135
 30
0.0
 10
-7.03368
 20
-11.1135
 30
0.0
 10
-7.03368
 20
-10.51351
 30
0.0
 10
-7.03368
 20
-10.51351
 30
0.0
 10
-7.03368
 20
-10.51351
 30
0.0
 10
-6.03369
 20
-10.51351
 30
0.0
 10
-6.03369
 20
-10.51351
 30
0.0
 10
-6.03369
 20
-10.51351
 30
0.0
 10
-6.03369
 20
-11.1135
 30
0.0
 10
-6.03369
 20
-11.1135
 30
0.0
 10
-6.03369
 20
-11.1135
 30
0.0
 10
3.63289
 20
-11.1135
 30
0.0
 10
3.63289
 20
-11.1135
 30
0.0
 10
3.63289
 20
-11.1135
 30
0.0
 10
3.63289
 20
-10.51351
 30
0.0
 10
3.63289
 20
-10.51351
 30
0.0
 10
3.63289
 20
-10.51351
 30
0.0
 10
4.63288
 20
-10.51351
 30
0.0
 10
4.63288
 20
-10.51351
 30
0.0
 10
4.63288
 20
-10.51351
 30
0.0
 10
4.63288
 20
-11.1135
 30
0.0
 10
4.63288
 20
-11.1135
 30
0.0
 10
4.63288
 20
-11.1135
 30
0.0
 10
14.29946
 20
-11.1135
 30
0.0
 10
14.29946
 20
-11.1135
 30
0.0
 10
14.29946
 20
-11.1135
 30
0.0
 10
14.29946
 20
-10.51351
 30
0.0
 10
14.29946
 20
-10.51351
 30
0.0
 10
14.29946
 20
-10.51351
 30
0.0
 10
15.29945
 20
-10.51351
 30
0.0
 10
15.29945
 20
-10.51351
 30
0.0
 10
15.29945
 20
-10.51351
 30
0.0
 10
15.29945
 20
-11.1135
 30
0.0
 10
15.29945
 20
-11.1135
 30
0.0
 10
15.29945
 20
-11.1135
 30
0.0
 10
16.29944
 20
-11.1135
 30
0.0
 10
16.29944
 20
-11.1135
 30
0.0
 10
16.29936
 20
-11.24619
 30
0.0
 10
16.24656
 20
-11.37342
 30
0.0
 10
16.15268
 20
-11.46718
 30
0.0
 10
16.05879
 20
-11.56095
 30
0.0
 10
15.93213
 20
-11.61358
 30
0.0
 10
15.79945
 20
-11.6135
 30
0.0
 10
15.79945
 20
-11.6135
 30
0.0
 10
-18.20024
 20
-11.6135
 30
0.0
 10
-18.20024
 20
-11.6135
 30
0.0
  0
SPLINE
  5
61
330
1F
100
AcDbEntity
  8
0
370
     9
100
AcDbSpline
210
0.0
220
0.0
230
1.0
 70
    11
 71
     3
 72
    98
 73
    94
 74
     0
 42
0.0000000001
 43
0.0000000001
 40
0.0
 40
0.0
 40
0.0
 40
0.0
 40
0.032258064516129
 40
0.032258064516129
 40
0.032258064516129
 40
0.0645161290322581
 40
0.0645161290322581
 40
0.0645161290322581
 40
0.0967741935483871
 40
0.0967741935483871
 40
0.0967741935483871
 40
0.1290322580645161
 40
0.1290322580645161
 40
0.1290322580645161
 40
0.1612903225806452
 40
0.1612903225806452
 40
0.1612903225806452
 40
0.1935483870967742
 40
0.1935483870967742
 40
0.1935483870967742
 40
0.2258064516129032
 40
0.2258064516129032
 40
0.2258064516129032
 40
0.2580645161290323
 40
0.2580645161290323
 40
0.2580645161290323
 40
0.2903225806451613
 40
0.2903225806451613
 40
0.2903225806451613
 40
0.3225806451612903
 40
0.3225806451612903
 40
0.3225806451612903
 40
0.3548387096774194
 40
0.3548387096774194
 40
0.3548387096774194
 40
0.3870967741935484
 40
0.3870967741935484
 40
0.3870967741935484
 40
0.4193548387096774
 40
0.4193548387096774
 40
0.4193548387096774
 40
0.4516129032258064
 40
0.4516129032258064
 40
0.4516129032258064
 40
0.4838709677419355
 40
0.4838709677419355
 40
0.4838709677419355
 40
0.5161290322580645
 40
0.5161290322580645
 40
0.5161290322580645
 40
0.5483870967741935
 40
0.5483870967741935
 40
0.5483870967741935
 40
0.5806451612903225
 40
0.5806451612903225
 40
0.5806451612903225
 40
0.6129032258064516
 40
0.6129032258064516
 40
0.6129032258064516
 40
0.6451612903225806
 40
0.6451612903225806
 40
0.6451612903225806
 40
0.6774193548387096
 40
0.6774193548387096
 40
0.6774193548387096
 40
0.7096774193548387
 40
0.7096774193548387
 40
0.7096774193548387
 40
0.7419354838709677
 40
0.7419354838709677
 40
0.7419354838709677
 40
0.7741935483870968
 40
0.7741935483870968
 40
0.7741935483870968
 40
0.8064516129032258
 40
0.8064516129032258
 40
0.8064516129032258
 40
0.8387096774193548
 40
0.8387096774193548
 40
0.8387096774193548
 40
0.8709677419354839
 40
0.8709677419354839
 40
0.8709677419354839
 40
0.9032258064516129
 40
0.9032258064516129
 40
0.9032258064516129
 40
0.9354838709677419
 40
0.9354838709677419
 40
0.9354838709677419
 40
0.967741935483871
 40
0.967741935483871
 40
0.967741935483871
 40
1.0
 40
1.0
 40
1.0
 40
1.0
 10
-29.91058
 20
15.04258
 30
0.0
 10
-29.91058
 20
15.04258
 30
0.0
 10
-30.50873
 20
14.9229
 30
0.0
 10
-30.50873
 20
14.9229
 30
0.0
 10
-30.50873
 20
14.9229
 30
0.0
 10
-26.08773
 20
-7.17398
 30
0.0
 10
-26.08773
 20
-7.17398
 30
0.0
 10
-26.04085
 20
-7.40779
 30
0.0
 10
-25.83587
 20
-7.57601
 30
0.0
 10
-25.59741
 20
-7.57588
 30
0.0
 10
-25.59741
 20
-7.57588
 30
0.0
 10
-21.00732
 20
-7.57556
 30
0.0
 10
-21.00732
 20
-7.57556
 30
0.0
 10
-21.00732
 20
-7.57556
 30
0.0
 10
-21.00738
 20
-6.57556
 30
0.0
 10
-21.00738
 20
-6.57556
 30
0.0
 10
-21.00738
 20
-6.57556
 30
0.0
 10
-20.40739
 20
-6.57552
 30
0.0
 10
-20.40739
 20
-6.57552
 30
0.0
 10
-20.40739
 20
-6.57552
 30
0.0
 10
-20.40746
 20
-5.57552
 30
0.0
 10
-20.40746
 20
-5.57552
 30
0.0
 10
-20.40746
 20
-5.57552
 30
0.0
 10
-21.00746
 20
-5.57556
 30
0.0
 10
-21.00746
 20
-5.57556
 30
0.0
 10
-21.00746
 20
-5.57556
 30
0.0
 10
-21.0079
 20
0.75777
 30
0.0
 10
-21.0079
 20
0.75777
 30
0.0
 10
-21.0079
 20
0.75777
 30
0.0
 10
-20.4079
 20
0.75781
 30
0.0
 10
-20.4079
 20
0.75781
 30
0.0
 10
-20.4079
 20
0.75781
 30
0.0
 10
-20.40797
 20
1.75781
 30
0.0
 10
-20.40797
 20
1.75781
 30
0.0
 10
-20.40797
 20
1.75781
 30
0.0
 10
-21.00797
 20
1.75777
 30
0.0
 10
-21.00797
 20
1.75777
 30
0.0
 10
-21.00797
 20
1.75777
 30
0.0
 10
-21.00843
 20
8.09111
 30
0.0
 10
-21.00843
 20
8.09111
 30
0.0
 10
-21.00843
 20
8.09111
 30
0.0
 10
-20.40842
 20
8.09115
 30
0.0
 10
-20.40842
 20
8.09115
 30
0.0
 10
-20.40842
 20
8.09115
 30
0.0
 10
-20.40849
 20
9.09115
 30
0.0
 10
-20.40849
 20
9.09115
 30
0.0
 10
-20.40849
 20
9.09115
 30
0.0
 10
-21.00849
 20
9.09111
 30
0.0
 10
-21.00849
 20
9.09111
 30
0.0
 10
-21.00849
 20
9.09111
 30
0.0
 10
-21.00893
 20
15.42444
 30
0.0
 10
-21.00893
 20
15.42444
 30
0.0
 10
-21.00893
 20
15.42444
 30
0.0
 10
-20.40893
 20
15.42448
 30
0.0
 10
-20.40893
 20
15.42448
 30
0.0
 10
-20.40893
 20
15.42448
 30
0.0
 10
-20.40901
 20
16.42448
 30
0.0
 10
-20.40901
 20
16.42448
 30
0.0
 10
-20.40901
 20
16.42448
 30
0.0
 10
-21.00901
 20
16.42444
 30
0.0
 10
-21.00901
 20
16.42444
 30
0.0
 10
-21.00901
 20
16.42444
 30
0.0
 10
-21.00908
 20
17.42444
 30
0.0
 10
-21.00908
 20
17.42444
 30
0.0
 10
-21.00908
 20
17.42444
 30
0.0
 10
-21.49908
 20
17.42441
 30
0.0
 10
-21.49908
 20
17.42441
 30
0.0
 10
-21.49908
 20
17.42441
 30
0.0
 10
-21.49903
 20
16.8144
 30
0.0
 10
-21.49903
 20
16.8144
 30
0.0
 10
-21.49903
 20
16.8144
 30
0.0
 10
-22.51904
 20
16.81433
 30
0.0
 10
-22.51904
 20
16.81433
 30
0.0
 10
-22.51904
 20
16.81433
 30
0.0
 10
-22.51907
 20
17.42433
 30
0.0
 10
-22.51907
 20
17.42433
 30
0.0
 10
-22.51907
 20
17.42433
 30
0.0
 10
-30.39918
 20
17.42377
 30
0.0
 10
-30.39918
 20
17.42377
 30
0.0
 10
-30.54908
 20
17.42362
 30
0.0
 10
-30.69104
 20
17.35626
 30
0.0
 10
-30.78596
 20
17.24024
 30
0.0
 10
-30.88088
 20
17.12421
 30
0.0
 10
-30.91897
 20
16.97265
 30
0.0
 10
-30.88942
 20
16.82568
 30
0.0
 10
-30.88942
 20
16.82568
 30
0.0
 10
-30.70883
 20
15.92308
 30
0.0
 10
-30.70883
 20
15.92308
 30
0.0
 10
-30.70883
 20
15.92308
 30
0.0
 10
-30.11069
 20
16.04275
 30
0.0
 10
-30.11069
 20
16.04275
 30
0.0
 10
-30.11069
 20
16.04275
 30
0.0
 10
-29.91058
 20
15.04258
 30
0.0
 10
-29.91058
 20
15.04258
 30
0.0
  0
SPLINE
  5
62
330
1F
100
AcDbEntity
  8
0
370
     9
100
AcDbSpline
210
0.0
220
0.0
230
1.0
 70
    11
 71
     3
 72
    32
 73
    28
 74
     0
 42
0.0000000001
 43
0.0000000001
 40
0.0
 40
0.0
 40
0.0
 40
0.0
 40
0.1111111111111111
 40
0.1111111111111111
 40
0.1111111111111111
 40
0.2222222222222222
 40
0.2222222222222222
 40
0.2222222222222222
 40
0.3333333333333333
 40
0.3333333333333333
 40
0.3333333333333333
 40
0.4444444444444444
 40
0.4444444444444444
 40
0.4444444444444444
 40
0.5555555555555556
 40
0.5555555555555556
 40
0.5555555555555556
 40
0.6666666666666666
 40
0.6666666666666666
 40
0.6666666666666666
 40
0.7777777777777777
 40
0.7777777777777777
 40
0.7777777777777777
 40
0.8888888888888888
 40
0.8888888888888888
 40
0.8888888888888888
 40
1.0
 40
1.0
 40
1.0
 40
1.0
 10
-24.63245
 20
-5.48697
 30
0.0
 10
-24.63245
 20
-5.48697
 30
0.0
 10
-28.78555
 20
15.27083
 30
0.0
 10
-28.78555
 20
15.27083
 30
0.0
 10
-28.8162
 20
15.42317
 30
0.0
 10
-28.77422
 20
15.5811
 30
0.0
 10
-28.67196
 20
15.69811
 30
0.0
 10
-28.56971
 20
15.81512
 30
0.0
 10
-28.41776
 20
15.87782
 30
0.0
 10
-28.26268
 20
15.86786
 30
0.0
 10
-24.91391
 20
15.65103
 30
0.0
 10
-22.30804
 20
12.86565
 30
0.0
 10
-22.30594
 20
9.50985
 30
0.0
 10
-22.30594
 20
9.50985
 30
0.0
 10
-22.30492
 20
-4.88876
 30
0.0
 10
-22.30492
 20
-4.88876
 30
0.0
 10
-22.30474
 20
-5.15381
 30
0.0
 10
-22.40985
 20
-5.40807
 30
0.0
 10
-22.59713
 20
-5.59562
 30
0.0
 10
-22.78441
 20
-5.78317
 30
0.0
 10
-23.0398
 20
-5.88865
 30
0.0
 10
-23.30485
 20
-5.88883
 30
0.0
 10
-23.30485
 20
-5.88883
 30
0.0
 10
-24.14213
 20
-5.88889
 30
0.0
 10
-24.14213
 20
-5.88889
 30
0.0
 10
-24.38034
 20
-5.88901
 30
0.0
 10
-24.58561
 20
-5.72055
 30
0.0
 10
-24.63245
 20
-5.48697
 30
0.0
  0
SPLINE
  5
63
330
1F
100
AcDbEntity
  8
0
370
     9
100
AcDbSpline
210
0.0
220
0.0
230
1.0
 70
    11
 71
     3
 72
    98
 73
    94
 74
     0
 42
0.0000000001
 43
0.0000000001
 40
0.0
 40
0.0
 40
0.0
 40
0.0
 40
0.032258064516129
 40
0.032258064516129
 40
0.032258064516129
 40
0.0645161290322581
 40
0.0645161290322581
 40
0.0645161290322581
 40
0.0967741935483871
 40
0.0967741935483871
 40
0.0967741935483871
 40
0.1290322580645161
 40
0.1290322580645161
 40
0.1290322580645161
 40
0.1612903225806452
 40
0.1612903225806452
 40
0.1612903225806452
 40
0.1935483870967742
 40
0.1935483870967742
 40
0.1935483870967742
 40
0.2258064516129032
 40
0.2258064516129032
 40
0.2258064516129032
 40
0.2580645161290323
 40
0.2580645161290323
 40
0.2580645161290323
 40
0.2903225806451613
 40
0.2903225806451613
 40
0.2903225806451613
 40
0.3225806451612903
 40
0.3225806451612903
 40
0.3225806451612903
 40
0.3548387096774194
 40
0.3548387096774194
 40
0.3548387096774194
 40
0.3870967741935484
 40
0.3870967741935484
 40
0.3870967741935484
 40
0.4193548387096774
 40
0.4193548387096774
 40
0.4193548387096774
 40
0.4516129032258064
 40
0.4516129032258064
 40
0.4516129032258064
 40
0.4838709677419355
 40
0.4838709677419355
 40
0.4838709677419355
 40
0.5161290322580645
 40
0.5161290322580645
 40
0.5161290322580645
 40
0.5483870967741935
 40
0.5483870967741935
 40
0.5483870967741935
 40
0.5806451612903225
 40
0.5806451612903225
 40
0.5806451612903225
 40
0.6129032258064516
 40
0.6129032258064516
 40
0.6129032258064516
 40
0.6451612903225806
 40
0.6451612903225806
 40
0.6451612903225806
 40
0.6774193548387096
 40
0.6774193548387096
 40
0.6774193548387096
 40
0.7096774193548387
 40
0.7096774193548387
 40
0.7096774193548387
 40
0.7419354838709677
 40
0.7419354838709677
 40
0.7419354838709677
 40
0.7741935483870968
 40
0.7741935483870968
 40
0.7741935483870968
 40
0.8064516129032258
 40
0.8064516129032258
 40
0.8064516129032258
 40
0.8387096774193548
 40
0.8387096774193548
 40
0.8387096774193548
 40
0.8709677419354839
 40
0.8709677419354839
 40
0.8709677419354839
 40
0.9032258064516129
 40
0.9032258064516129
 40
0.9032258064516129
 40
0.9354838709677419
 40
0.9354838709677419
 40
0.9354838709677419
 40
0.967741935483871
 40
0.967741935483871
 40
0.967741935483871
 40
1.0
 40
1.0
 40
1.0
 40
1.0
 10
28.00553
 20
15.04258
 30
0.0
 10
28.00553
 20
15.04258
 30
0.0
 10
28.60368
 20
14.9229
 30
0.0
 10
28.60368
 20
14.9229
 30
0.0
 10
28.60368
 20
14.9229
 30
0.0
 10
24.18268
 20
-7.17398
 30
0.0
 10
24.18268
 20
-7.17398
 30
0.0
 10
24.1358
 20
-7.40779
 30
0.0
 10
23.93082
 20
-7.57601
 30
0.0
 10
23.69236
 20
-7.57588
 30
0.0
 10
23.69236
 20
-7.57588
 30
0.0
 10
19.10227
 20
-7.57556
 30
0.0
 10
19.10227
 20
-7.57556
 30
0.0
 10
19.10227
 20
-7.57556
 30
0.0
 10
19.10233
 20
-6.57556
 30
0.0
 10
19.10233
 20
-6.57556
 30
0.0
 10
19.10233
 20
-6.57556
 30
0.0
 10
18.50234
 20
-6.57552
 30
0.0
 10
18.50234
 20
-6.57552
 30
0.0
 10
18.50234
 20
-6.57552
 30
0.0
 10
18.50241
 20
-5.57552
 30
0.0
 10
18.50241
 20
-5.57552
 30
0.0
 10
18.50241
 20
-5.57552
 30
0.0
 10
19.10241
 20
-5.57556
 30
0.0
 10
19.10241
 20
-5.57556
 30
0.0
 10
19.10241
 20
-5.57556
 30
0.0
 10
19.10285
 20
0.75777
 30
0.0
 10
19.10285
 20
0.75777
 30
0.0
 10
19.10285
 20
0.75777
 30
0.0
 10
18.50285
 20
0.75781
 30
0.0
 10
18.50285
 20
0.75781
 30
0.0
 10
18.50285
 20
0.75781
 30
0.0
 10
18.50292
 20
1.75781
 30
0.0
 10
18.50292
 20
1.75781
 30
0.0
 10
18.50292
 20
1.75781
 30
0.0
 10
19.10292
 20
1.75777
 30
0.0
 10
19.10292
 20
1.75777
 30
0.0
 10
19.10292
 20
1.75777
 30
0.0
 10
19.10338
 20
8.09111
 30
0.0
 10
19.10338
 20
8.09111
 30
0.0
 10
19.10338
 20
8.09111
 30
0.0
 10
18.50337
 20
8.09115
 30
0.0
 10
18.50337
 20
8.09115
 30
0.0
 10
18.50337
 20
8.09115
 30
0.0
 10
18.50344
 20
9.09115
 30
0.0
 10
18.50344
 20
9.09115
 30
0.0
 10
18.50344
 20
9.09115
 30
0.0
 10
19.10344
 20
9.09111
 30
0.0
 10
19.10344
 20
9.09111
 30
0.0
 10
19.10344
 20
9.09111
 30
0.0
 10
19.10388
 20
15.42444
 30
0.0
 10
19.10388
 20
15.42444
 30
0.0
 10
19.10388
 20
15.42444
 30
0.0
 10
18.50388
 20
15.42448
 30
0.0
 10
18.50388
 20
15.42448
 30
0.0
 10
18.50388
 20
15.42448
 30
0.0
 10
18.50396
 20
16.42448
 30
0.0
 10
18.50396
 20
16.42448
 30
0.0
 10
18.50396
 20
16.42448
 30
0.0
 10
19.10396
 20
16.42444
 30
0.0
 10
19.10396
 20
16.42444
 30
0.0
 10
19.10396
 20
16.42444
 30
0.0
 10
19.10403
 20
17.42444
 30
0.0
 10
19.10403
 20
17.42444
 30
0.0
 10
19.10403
 20
17.42444
 30
0.0
 10
19.59403
 20
17.42441
 30
0.0
 10
19.59403
 20
17.42441
 30
0.0
 10
19.59403
 20
17.42441
 30
0.0
 10
19.59398
 20
16.8144
 30
0.0
 10
19.59398
 20
16.8144
 30
0.0
 10
19.59398
 20
16.8144
 30
0.0
 10
20.61399
 20
16.81433
 30
0.0
 10
20.61399
 20
16.81433
 30
0.0
 10
20.61399
 20
16.81433
 30
0.0
 10
20.61402
 20
17.42433
 30
0.0
 10
20.61402
 20
17.42433
 30
0.0
 10
20.61402
 20
17.42433
 30
0.0
 10
28.49413
 20
17.42377
 30
0.0
 10
28.49413
 20
17.42377
 30
0.0
 10
28.64403
 20
17.42362
 30
0.0
 10
28.78599
 20
17.35626
 30
0.0
 10
28.88091
 20
17.24024
 30
0.0
 10
28.97583
 20
17.12421
 30
0.0
 10
29.01392
 20
16.97265
 30
0.0
 10
28.98437
 20
16.82568
 30
0.0
 10
28.98437
 20
16.82568
 30
0.0
 10
28.80378
 20
15.92308
 30
0.0
 10
28.80378
 20
15.92308
 30
0.0
 10
28.80378
 20
15.92308
 30
0.0
 10
28.20564
 20
16.04275
 30
0.0
 10
28.20564
 20
16.04275
 30
0.0
 10
28.20564
 20
16.04275
 30
0.0
 10
28.00553
 20
15.04258
 30
0.0
 10
28.00553
 20
15.04258
 30
0.0
  0
SPLINE
  5
64
330
1F
100
AcDbEntity
  8
0
370
     9
100
AcDbSpline
210
0.0
220
0.0
230
1.0
 70
    11
 71
     3
 72
    32
 73
    28
 74
     0
 42
0.0000000001
 43
0.0000000001
 40
0.0
 40
0.0
 40
0.0
 40
0.0
 40
0.1111111111111111
 40
0.1111111111111111
 40
0.1111111111111111
 40
0.2222222222222222
 40
0.2222222222222222
 40
0.2222222222222222
 40
0.3333333333333333
 40
0.3333333333333333
 40
0.3333333333333333
 40
0.4444444444444444
 40
0.4444444444444444
 40
0.4444444444444444
 40
0.5555555555555556
 40
0.5555555555555556
 40
0.5555555555555556
 40
0.6666666666666666
 40
0.6666666666666666
 40
0.6666666666666666
 40
0.7777777777777777
 40
0.7777777777777777
 40
0.7777777777777777
 40
0.8888888888888888
 40
0.8888888888888888
 40
0.8888888888888888
 40
1.0
 40
1.0
 40
1.0
 40
1.0
 10
22.7274
 20
-5.48697
 30
0.0
 10
22.7274
 20
-5.48697
 30
0.0
 10
26.8805
 20
15.27083
 30
0.0
 10
26.8805
 20
15.27083
 30
0.0
 10
26.91115
 20
15.42317
 30
0.0
 10
26.86917
 20
15.5811
 30
0.0
 10
26.76691
 20
15.69811
 30
0.0
 10
26.66466
 20
15.81512
 30
0.0
 10
26.51271
 20
15.87782
 30
0.0
 10
26.35763
 20
15.86786
 30
0.0
 10
23.00886
 20
15.65103
 30
0.0
 10
20.40299
 20
12.86565
 30
0.0
 10
20.40089
 20
9.50985
 30
0.0
 10
20.40089
 20
9.50985
 30
0.0
 10
20.39987
 20
-4.88876
 30
0.0
 10
20.39987
 20
-4.88876
 30
0.0
 10
20.39969
 20
-5.15381
 30
0.0
 10
20.5048
 20
-5.40807
 30
0.0
 10
20.69208
 20
-5.59562
 30
0.0
 10
20.87936
 20
-5.78317
 30
0.0
 10
21.13475
 20
-5.88865
 30
0.0
 10
21.3998
 20
-5.88883
 30
0.0
 10
21.3998
 20
-5.88883
 30
0.0
 10
22.23708
 20
-5.88889
 30
0.0
 10
22.23708
 20
-5.88889
 30
0.0
 10
22.47529
 20
-5.88901
 30
0.0
 10
22.68056
 20
-5.72055
 30
0.0
 10
22.7274
 20
-5.48697
 30
0.0
  0
SPLINE
  5
65
330
1F
100
AcDbEntity
  8
0
370
     9
100
AcDbSpline
210
0.0
220
0.0
230
1.0
 70
    11
 71
     3
 72
   161
 73
   157
 74
     0
 42
0.0000000001
 43
0.0000000001
 40
0.0
 40
0.0
 40
0.0
 40
0.0
 40
0.0192307692307692
 40
0.0192307692307692
 40
0.0192307692307692
 40
0.0384615384615385
 40
0.0384615384615385
 40
0.0384615384615385
 40
0.0576923076923077
 40
0.0576923076923077
 40
0.0576923076923077
 40
0.0769230769230769
 40
0.0769230769230769
 40
0.0769230769230769
 40
0.0961538461538462
 40
0.0961538461538462
 40
0.0961538461538462
 40
0.1153846153846154
 40
0.1153846153846154
 40
0.1153846153846154
 40
0.1346153846153846
 40
0.1346153846153846
 40
0.1346153846153846
 40
0.1538461538461539
 40
0.1538461538461539
 40
0.1538461538461539
 40
0.1730769230769231
 40
0.1730769230769231
 40
0.1730769230769231
 40
0.1923076923076923
 40
0.1923076923076923
 40
0.1923076923076923
 40
0.2115384615384616
 40
0.2115384615384616
 40
0.2115384615384616
 40
0.2307692307692308
 40
0.2307692307692308
 40
0.2307692307692308
 40
0.25
 40
0.25
 40
0.25
 40
0.2692307692307693
 40
0.2692307692307693
 40
0.2692307692307693
 40
0.2884615384615385
 40
0.2884615384615385
 40
0.2884615384615385
 40
0.3076923076923077
 40
0.3076923076923077
 40
0.3076923076923077
 40
0.3269230769230769
 40
0.3269230769230769
 40
0.3269230769230769
 40
0.3461538461538461
 40
0.3461538461538461
 40
0.3461538461538461
 40
0.3653846153846154
 40
0.3653846153846154
 40
0.3653846153846154
 40
0.3846153846153846
 40
0.3846153846153846
 40
0.3846153846153846
 40
0.4038461538461539
 40
0.4038461538461539
 40
0.4038461538461539
 40
0.4230769230769231
 40
0.4230769230769231
 40
0.4230769230769231
 40
0.4423076923076923
 40
0.4423076923076923
 40
0.4423076923076923
 40
0.4615384615384616
 40
0.4615384615384616
 40
0.4615384615384616
 40
0.4807692307692308
 40
0.4807692307692308
 40
0.4807692307692308
 40
0.5
 40
0.5
 40
0.5
 40
0.5192307692307693
 40
0.5192307692307693
 40
0.5192307692307693
 40
0.5384615384615385
 40
0.5384615384615385
 40
0.5384615384615385
 40
0.5576923076923077
 40
0.5576923076923077
 40
0.5576923076923077
 40
0.576923076923077
 40
0.576923076923077
 40
0.576923076923077
 40
0.5961538461538461
 40
0.5961538461538461
 40
0.5961538461538461
 40
0.6153846153846154
 40
0.6153846153846154
 40
0.6153846153846154
 40
0.6346153846153847
 40
0.6346153846153847
 40
0.6346153846153847
 40
0.6538461538461539
 40
0.6538461538461539
 40
0.6538461538461539
 40
0.6730769230769231
 40
0.6730769230769231
 40
0.6730769230769231
 40
0.6923076923076923
 40
0.6923076923076923
 40
0.6923076923076923
 40
0.7115384615384616
 40
0.7115384615384616
 40
0.7115384615384616
 40
0.7307692307692308
 40
0.7307692307692308
 40
0.7307692307692308
 40
0.75
 40
0.75
 40
0.75
 40
0.7692307692307693
 40
0.7692307692307693
 40
0.7692307692307693
 40
0.7884615384615385
 40
0.7884615384615385
 40
0.7884615384615385
 40
0.8076923076923077
 40
0.8076923076923077
 40
0.8076923076923077
 40
0.826923076923077
 40
0.826923076923077
 40
0.826923076923077
 40
0.8461538461538463
 40
0.8461538461538463
 40
0.8461538461538463
 40
0.8653846153846154
 40
0.8653846153846154
 40
0.8653846153846154
 40
0.8846153846153847
 40
0.8846153846153847
 40
0.8846153846153847
 40
0.9038461538461539
 40
0.9038461538461539
 40
0.9038461538461539
 40
0.9230769230769231
 40
0.9230769230769231
 40
0.9230769230769231
 40
0.9423076923076924
 40
0.9423076923076924
 40
0.9423076923076924
 40
0.9615384615384616
 40
0.9615384615384616
 40
0.9615384615384616
 40
0.9807692307692308
 40
0.9807692307692308
 40
0.9807692307692308
 40
1.0
 40
1.0
 40
1.0
 40
1.0
 10
-17.46253
 20
-6.96573
 30
0.0
 10
-17.46253
 20
-6.96573
 30
0.0
 10
-17.46253
 20
-7.57573
 30
0.0
 10
-17.46253
 20
-7.57573
 30
0.0
 10
-17.46253
 20
-7.57573
 30
0.0
 10
-18.45253
 20
-7.57573
 30
0.0
 10
-18.45253
 20
-7.57573
 30
0.0
 10
-18.45253
 20
-7.57573
 30
0.0
 10
-18.45253
 20
-6.58573
 30
0.0
 10
-18.45253
 20
-6.58573
 30
0.0
 10
-18.45253
 20
-6.58573
 30
0.0
 10
-17.84253
 20
-6.58573
 30
0.0
 10
-17.84253
 20
-6.58573
 30
0.0
 10
-17.84253
 20
-6.58573
 30
0.0
 10
-17.84253
 20
-5.56573
 30
0.0
 10
-17.84253
 20
-5.56573
 30
0.0
 10
-17.84253
 20
-5.56573
 30
0.0
 10
-18.45253
 20
-5.56573
 30
0.0
 10
-18.45253
 20
-5.56573
 30
0.0
 10
-18.45253
 20
-5.56573
 30
0.0
 10
-18.45253
 20
0.7476
 30
0.0
 10
-18.45253
 20
0.7476
 30
0.0
 10
-18.45253
 20
0.7476
 30
0.0
 10
-17.84253
 20
0.7476
 30
0.0
 10
-17.84253
 20
0.7476
 30
0.0
 10
-17.84253
 20
0.7476
 30
0.0
 10
-17.84253
 20
1.7676
 30
0.0
 10
-17.84253
 20
1.7676
 30
0.0
 10
-17.84253
 20
1.7676
 30
0.0
 10
-18.45253
 20
1.7676
 30
0.0
 10
-18.45253
 20
1.7676
 30
0.0
 10
-18.45253
 20
1.7676
 30
0.0
 10
-18.45253
 20
8.08094
 30
0.0
 10
-18.45253
 20
8.08094
 30
0.0
 10
-18.45253
 20
8.08094
 30
0.0
 10
-17.84253
 20
8.08094
 30
0.0
 10
-17.84253
 20
8.08094
 30
0.0
 10
-17.84253
 20
8.08094
 30
0.0
 10
-17.84253
 20
9.10094
 30
0.0
 10
-17.84253
 20
9.10094
 30
0.0
 10
-17.84253
 20
9.10094
 30
0.0
 10
-18.45253
 20
9.10094
 30
0.0
 10
-18.45253
 20
9.10094
 30
0.0
 10
-18.45253
 20
9.10094
 30
0.0
 10
-18.45253
 20
15.41427
 30
0.0
 10
-18.45253
 20
15.41427
 30
0.0
 10
-18.45253
 20
15.41427
 30
0.0
 10
-17.84253
 20
15.41427
 30
0.0
 10
-17.84253
 20
15.41427
 30
0.0
 10
-17.84253
 20
15.41427
 30
0.0
 10
-17.84253
 20
16.43427
 30
0.0
 10
-17.84253
 20
16.43427
 30
0.0
 10
-17.84253
 20
16.43427
 30
0.0
 10
-18.45253
 20
16.43427
 30
0.0
 10
-18.45253
 20
16.43427
 30
0.0
 10
-18.45253
 20
16.43427
 30
0.0
 10
-18.45253
 20
17.42427
 30
0.0
 10
-18.45253
 20
17.42427
 30
0.0
 10
-18.45253
 20
17.42427
 30
0.0
 10
16.54747
 20
17.42427
 30
0.0
 10
16.54747
 20
17.42427
 30
0.0
 10
16.54747
 20
17.42427
 30
0.0
 10
16.54747
 20
16.43427
 30
0.0
 10
16.54747
 20
16.43427
 30
0.0
 10
16.54747
 20
16.43427
 30
0.0
 10
15.93747
 20
16.43427
 30
0.0
 10
15.93747
 20
16.43427
 30
0.0
 10
15.93747
 20
16.43427
 30
0.0
 10
15.93747
 20
15.41427
 30
0.0
 10
15.93747
 20
15.41427
 30
0.0
 10
15.93747
 20
15.41427
 30
0.0
 10
16.54747
 20
15.41427
 30
0.0
 10
16.54747
 20
15.41427
 30
0.0
 10
16.54747
 20
15.41427
 30
0.0
 10
16.54747
 20
9.10094
 30
0.0
 10
16.54747
 20
9.10094
 30
0.0
 10
16.54747
 20
9.10094
 30
0.0
 10
15.93747
 20
9.10094
 30
0.0
 10
15.93747
 20
9.10094
 30
0.0
 10
15.93747
 20
9.10094
 30
0.0
 10
15.93747
 20
8.08094
 30
0.0
 10
15.93747
 20
8.08094
 30
0.0
 10
15.93747
 20
8.08094
 30
0.0
 10
16.54747
 20
8.08094
 30
0.0
 10
16.54747
 20
8.08094
 30
0.0
 10
16.54747
 20
8.08094
 30
0.0
 10
16.54747
 20
1.7676
 30
0.0
 10
16.54747
 20
1.7676
 30
0.0
 10
16.54747
 20
1.7676
 30
0.0
 10
15.93747
 20
1.7676
 30
0.0
 10
15.93747
 20
1.7676
 30
0.0
 10
15.93747
 20
1.7676
 30
0.0
 10
15.93747
 20
0.7476
 30
0.0
 10
15.93747
 20
0.7476
 30
0.0
 10
15.93747
 20
0.7476
 30
0.0
 10
16.54747
 20
0.7476
 30
0.0
 10
16.54747
 20
0.7476
 30
0.0
 10
16.54747
 20
0.7476
 30
0.0
 10
16.54747
 20
-5.56573
 30
0.0
 10
16.54747
 20
-5.56573
 30
0.0
 10
16.54747
 20
-5.56573
 30
0.0
 10
15.93747
 20
-5.56573
 30
0.0
 10
15.93747
 20
-5.56573
 30
0.0
 10
15.93747
 20
-5.56573
 30
0.0
 10
15.93747
 20
-6.58573
 30
0.0
 10
15.93747
 20
-6.58573
 30
0.0
 10
15.93747
 20
-6.58573
 30
0.0
 10
16.54747
 20
-6.58573
 30
0.0
 10
16.54747
 20
-6.58573
 30
0.0
 10
16.54747
 20
-6.58573
 30
0.0
 10
16.54747
 20
-7.57573
 30
0.0
 10
16.54747
 20
-7.57573
 30
0.0
 10
16.54747
 20
-7.57573
 30
0.0
 10
15.55747
 20
-7.57573
 30
0.0
 10
15.55747
 20
-7.57573
 30
0.0
 10
15.55747
 20
-7.57573
 30
0.0
 10
15.55747
 20
-6.96573
 30
0.0
 10
15.55747
 20
-6.96573
 30
0.0
 10
15.55747
 20
-6.96573
 30
0.0
 10
14.53747
 20
-6.96573
 30
0.0
 10
14.53747
 20
-6.96573
 30
0.0
 10
14.53747
 20
-6.96573
 30
0.0
 10
14.53747
 20
-7.57573
 30
0.0
 10
14.53747
 20
-7.57573
 30
0.0
 10
14.53747
 20
-7.57573
 30
0.0
 10
4.8908
 20
-7.57573
 30
0.0
 10
4.8908
 20
-7.57573
 30
0.0
 10
4.8908
 20
-7.57573
 30
0.0
 10
4.8908
 20
-6.96573
 30
0.0
 10
4.8908
 20
-6.96573
 30
0.0
 10
4.8908
 20
-6.96573
 30
0.0
 10
3.8708
 20
-6.96573
 30
0.0
 10
3.8708
 20
-6.96573
 30
0.0
 10
3.8708
 20
-6.96573
 30
0.0
 10
3.8708
 20
-7.57573
 30
0.0
 10
3.8708
 20
-7.57573
 30
0.0
 10
3.8708
 20
-7.57573
 30
0.0
 10
-5.77586
 20
-7.57573
 30
0.0
 10
-5.77586
 20
-7.57573
 30
0.0
 10
-5.77586
 20
-7.57573
 30
0.0
 10
-5.77586
 20
-6.96573
 30
0.0
 10
-5.77586
 20
-6.96573
 30
0.0
 10
-5.77586
 20
-6.96573
 30
0.0
 10
-6.79586
 20
-6.96573
 30
0.0
 10
-6.79586
 20
-6.96573
 30
0.0
 10
-6.79586
 20
-6.96573
 30
0.0
 10
-6.79586
 20
-7.57573
 30
0.0
 10
-6.79586
 20
-7.57573
 30
0.0
 10
-6.79586
 20
-7.57573
 30
0.0
 10
-16.44253
 20
-7.57573
 30
0.0
 10
-16.44253
 20
-7.57573
 30
0.0
 10
-16.44253
 20
-7.57573
 30
0.0
 10
-16.44253
 20
-6.96573
 30
0.0
 10
-16.44253
 20
-6.96573
 30
0.0
 10
-16.44253
 20
-6.96573
 30
0.0
 10
-17.46253
 20
-6.96573
 30
0.0
 10
-17.46253
 20
-6.96573
 30
0.0
  0
SPLINE
  5
66
330
1F
100
AcDbEntity
  8
0
370
     9
100
AcDbSpline
210
0.0
220
0.0
230
1.0
 70
    11
 71
     3
 72
    29
 73
    25
 74
     0
 42
0.0000000001
 43
0.0000000001
 40
0.0
 40
0.0
 40
0.0
 40
0.0
 40
0.125
 40
0.125
 40
0.125
 40
0.25
 40
0.25
 40
0.25
 40
0.375
 40
0.375
 40
0.375
 40
0.5
 40
0.5
 40
0.5
 40
0.625
 40
0.625
 40
0.625
 40
0.75
 40
0.75
 40
0.75
 40
0.875
 40
0.875
 40
0.875
 40
1.0
 40
1.0
 40
1.0
 40
1.0
 10
-15.95253
 20
14.42427
 30
0.0
 10
-15.95253
 20
14.42427
 30
0.0
 10
14.04747
 20
14.42427
 30
0.0
 10
14.04747
 20
14.42427
 30
0.0
 10
14.2261
 20
14.42427
 30
0.0
 10
14.39117
 20
14.51957
 30
0.0
 10
14.48048
 20
14.67427
 30
0.0
 10
14.5698
 20
14.82897
 30
0.0
 10
14.5698
 20
15.01957
 30
0.0
 10
14.48048
 20
15.17427
 30
0.0
 10
14.39117
 20
15.32897
 30
0.0
 10
14.2261
 20
15.42427
 30
0.0
 10
14.04747
 20
15.42427
 30
0.0
 10
14.04747
 20
15.42427
 30
0.0
 10
-15.95253
 20
15.42427
 30
0.0
 10
-15.95253
 20
15.42427
 30
0.0
 10
-16.13116
 20
15.42427
 30
0.0
 10
-16.29623
 20
15.32897
 30
0.0
 10
-16.38554
 20
15.17427
 30
0.0
 10
-16.47486
 20
15.01957
 30
0.0
 10
-16.47486
 20
14.82897
 30
0.0
 10
-16.38554
 20
14.67427
 30
0.0
 10
-16.29623
 20
14.51957
 30
0.0
 10
-16.13116
 20
14.42427
 30
0.0
 10
-15.95253
 20
14.42427
 30
0.0
  0
SPLINE
  5
67
330
1F
100
AcDbEntity
  8
0
370
     9
100
AcDbSpline
210
0.0
220
0.0
230
1.0
 70
    11
 71
     3
 72
    29
 73
    25
 74
     0
 42
0.0000000001
 43
0.0000000001
 40
0.0
 40
0.0
 40
0.0
 40
0.0
 40
0.125
 40
0.125
 40
0.125
 40
0.25
 40
0.25
 40
0.25
 40
0.375
 40
0.375
 40
0.375
 40
0.5
 40
0.5
 40
0.5
 40
0.625
 40
0.625
 40
0.625
 40
0.75
 40
0.75
 40
0.75
 40
0.875
 40
0.875
 40
0.875
 40
1.0
 40
1.0
 40
1.0
 40
1.0
 10
-15.95253
 20
12.47983
 30
0.0
 10
-15.95253
 20
12.47983
 30
0.0
 10
14.04747
 20
12.47983
 30
0.0
 10
14.04747
 20
12.47983
 30
0.0
 10
14.2261
 20
12.47983
 30
0.0
 10
14.39117
 20
12.57513
 30
0.0
 10
14.48048
 20
12.72983
 30
0.0
 10
14.5698
 20
12.88453
 30
0.0
 10
14.5698
 20
13.07513
 30
0.0
 10
14.48048
 20
13.22983
 30
0.0
 10
14.39117
 20
13.38453
 30
0.0
 10
14.2261
 20
13.47983
 30
0.0
 10
14.04747
 20
13.47983
 30
0.0
 10
14.04747
 20
13.47983
 30
0.0
 10
-15.95253
 20
13.47983
 30
0.0
 10
-15.95253
 20
13.47983
 30
0.0
 10
-16.13116
 20
13.47983
 30
0.0
 10
-16.29623
 20
13.38453
 30
0.0
 10
-16.38554
 20
13.22983
 30
0.0
 10
-16.47486
 20
13.07513
 30
0.0
 10
-16.47486
 20
12.88453
 30
0.0
 10
-16.38554
 20
12.72983
 30
0.0
 10
-16.29623
 20
12.57513
 30
0.0
 10
-16.13116
 20
12.47983
 30
0.0
 10
-15.95253
 20
12.47983
 30
0.0
  0
SPLINE
  5
68
330
1F
100
AcDbEntity
  8
0
370
     9
100
AcDbSpline
210
0.0
220
0.0
230
1.0
 70
    11
 71
     3
 72
    29
 73
    25
 74
     0
 42
0.0000000001
 43
0.0000000001
 40
0.0
 40
0.0
 40
0.0
 40
0.0
 40
0.125
 40
0.125
 40
0.125
 40
0.25
 40
0.25
 40
0.25
 40
0.375
 40
0.375
 40
0.375
 40
0.5
 40
0.5
 40
0.5
 40
0.625
 40
0.625
 40
0.625
 40
0.75
 40
0.75
 40
0.75
 40
0.875
 40
0.875
 40
0.875
 40
1.0
 40
1.0
 40
1.0
 40
1.0
 10
-15.95253
 20
10.53538
 30
0.0
 10
-15.95253
 20
10.53538
 30
0.0
 10
14.04747
 20
10.53538
 30
0.0
 10
14.04747
 20
10.53538
 30
0.0
 10
14.2261
 20
10.53538
 30
0.0
 10
14.39117
 20
10.63068
 30
0.0
 10
14.48048
 20
10.78538
 30
0.0
 10
14.5698
 20
10.94008
 30
0.0
 10
14.5698
 20
11.13068
 30
0.0
 10
14.48048
 20
11.28538
 30
0.0
 10
14.39117
 20
11.44008
 30
0.0
 10
14.2261
 20
11.53538
 30
0.0
 10
14.04747
 20
11.53538
 30
0.0
 10
14.04747
 20
11.53538
 30
0.0
 10
-15.95253
 20
11.53538
 30
0.0
 10
-15.95253
 20
11.53538
 30
0.0
 10
-16.13116
 20
11.53538
 30
0.0
 10
-16.29623
 20
11.44008
 30
0.0
 10
-16.38554
 20
11.28538
 30
0.0
 10
-16.47486
 20
11.13068
 30
0.0
 10
-16.47486
 20
10.94008
 30
0.0
 10
-16.38554
 20
10.78538
 30
0.0
 10
-16.29623
 20
10.63068
 30
0.0
 10
-16.13116
 20
10.53538
 30
0.0
 10
-15.95253
 20
10.53538
 30
0.0
  0
SPLINE
  5
69
330
1F
100
AcDbEntity
  8
0
370
     9
100
AcDbSpline
210
0.0
220
0.0
230
1.0
 70
    11
 71
     3
 72
    29
 73
    25
 74
     0
 42
0.0000000001
 43
0.0000000001
 40
0.0
 40
0.0
 40
0.0
 40
0.0
 40
0.125
 40
0.125
 40
0.125
 40
0.25
 40
0.25
 40
0.25
 40
0.375
 40
0.375
 40
0.375
 40
0.5
 40
0.5
 40
0.5
 40
0.625
 40
0.625
 40
0.625
 40
0.75
 40
0.75
 40
0.75
 40
0.875
 40
0.875
 40
0.875
 40
1.0
 40
1.0
 40
1.0
 40
1.0
 10
-15.95253
 20
8.59094
 30
0.0
 10
-15.95253
 20
8.59094
 30
0.0
 10
14.04747
 20
8.59094
 30
0.0
 10
14.04747
 20
8.59094
 30
0.0
 10
14.2261
 20
8.59094
 30
0.0
 10
14.39117
 20
8.68624
 30
0.0
 10
14.48048
 20
8.84094
 30
0.0
 10
14.5698
 20
8.99564
 30
0.0
 10
14.5698
 20
9.18624
 30
0.0
 10
14.48048
 20
9.34094
 30
0.0
 10
14.39117
 20
9.49564
 30
0.0
 10
14.2261
 20
9.59094
 30
0.0
 10
14.04747
 20
9.59094
 30
0.0
 10
14.04747
 20
9.59094
 30
0.0
 10
-15.95253
 20
9.59094
 30
0.0
 10
-15.95253
 20
9.59094
 30
0.0
 10
-16.13116
 20
9.59094
 30
0.0
 10
-16.29623
 20
9.49564
 30
0.0
 10
-16.38554
 20
9.34094
 30
0.0
 10
-16.47486
 20
9.18624
 30
0.0
 10
-16.47486
 20
8.99564
 30
0.0
 10
-16.38554
 20
8.84094
 30
0.0
 10
-16.29623
 20
8.68624
 30
0.0
 10
-16.13116
 20
8.59094
 30
0.0
 10
-15.95253
 20
8.59094
 30
0.0
  0
SPLINE
  5
6A
330
1F
100
AcDbEntity
  8
0
370
     9
100
AcDbSpline
210
0.0
220
0.0
230
1.0
 70
    11
 71
     3
 72
    29
 73
    25
 74
     0
 42
0.0000000001
 43
0.0000000001
 40
0.0
 40
0.0
 40
0.0
 40
0.0
 40
0.125
 40
0.125
 40
0.125
 40
0.25
 40
0.25
 40
0.25
 40
0.375
 40
0.375
 40
0.375
 40
0.5
 40
0.5
 40
0.5
 40
0.625
 40
0.625
 40
0.625
 40
0.75
 40
0.75
 40
0.75
 40
0.875
 40
0.875
 40
0.875
 40
1.0
 40
1.0
 40
1.0
 40
1.0
 10
-15.95253
 20
6.64649
 30
0.0
 10
-15.95253
 20
6.64649
 30
0.0
 10
14.04747
 20
6.64649
 30
0.0
 10
14.04747
 20
6.64649
 30
0.0
 10
14.2261
 20
6.64649
 30
0.0
 10
14.39117
 20
6.74179
 30
0.0
 10
14.48048
 20
6.89649
 30
0.0
 10
14.5698
 20
7.05119
 30
0.0
 10
14.5698
 20
7.24179
 30
0.0
 10
14.48048
 20
7.39649
 30
0.0
 10
14.39117
 20
7.55119
 30
0.0
 10
14.2261
 20
7.64649
 30
0.0
 10
14.04747
 20
7.64649
 30
0.0
 10
14.04747
 20
7.64649
 30
0.0
 10
-15.95253
 20
7.64649
 30
0.0
 10
-15.95253
 20
7.64649
 30
0.0
 10
-16.13116
 20
7.64649
 30
0.0
 10
-16.29623
 20
7.55119
 30
0.0
 10
-16.38554
 20
7.39649
 30
0.0
 10
-16.47486
 20
7.24179
 30
0.0
 10
-16.47486
 20
7.05119
 30
0.0
 10
-16.38554
 20
6.89649
 30
0.0
 10
-16.29623
 20
6.74179
 30
0.0
 10
-16.13116
 20
6.64649
 30
0.0
 10
-15.95253
 20
6.64649
 30
0.0
  0
SPLINE
  5
6B
330
1F
100
AcDbEntity
  8
0
370
     9
100
AcDbSpline
210
0.0
220
0.0
230
1.0
 70
    11
 71
     3
 72
    29
 73
    25
 74
     0
 42
0.0000000001
 43
0.0000000001
 40
0.0
 40
0.0
 40
0.0
 40
0.0
 40
0.125
 40
0.125
 40
0.125
 40
0.25
 40
0.25
 40
0.25
 40
0.375
 40
0.375
 40
0.375
 40
0.5
 40
0.5
 40
0.5
 40
0.625
 40
0.625
 40
0.625
 40
0.75
 40
0.75
 40
0.75
 40
0.875
 40
0.875
 40
0.875
 40
1.0
 40
1.0
 40
1.0
 40
1.0
 10
-15.95253
 20
4.70205
 30
0.0
 10
-15.95253
 20
4.70205
 30
0.0
 10
14.04747
 20
4.70205
 30
0.0
 10
14.04747
 20
4.70205
 30
0.0
 10
14.2261
 20
4.70205
 30
0.0
 10
14.39117
 20
4.79735
 30
0.0
 10
14.48048
 20
4.95205
 30
0.0
 10
14.5698
 20
5.10675
 30
0.0
 10
14.5698
 20
5.29735
 30
0.0
 10
14.48048
 20
5.45205
 30
0.0
 10
14.39117
 20
5.60675
 30
0.0
 10
14.2261
 20
5.70205
 30
0.0
 10
14.04747
 20
5.70205
 30
0.0
 10
14.04747
 20
5.70205
 30
0.0
 10
-15.95253
 20
5.70205
 30
0.0
 10
-15.95253
 20
5.70205
 30
0.0
 10
-16.13116
 20
5.70205
 30
0.0
 10
-16.29623
 20
5.60675
 30
0.0
 10
-16.38554
 20
5.45205
 30
0.0
 10
-16.47486
 20
5.29735
 30
0.0
 10
-16.47486
 20
5.10675
 30
0.0
 10
-16.38554
 20
4.95205
 30
0.0
 10
-16.29623
 20
4.79735
 30
0.0
 10
-16.13116
 20
4.70205
 30
0.0
 10
-15.95253
 20
4.70205
 30
0.0
  0
SPLINE
  5
6C
330
1F
100
AcDbEntity
  8
0
370
     9
100
AcDbSpline
210
0.0
220
0.0
230
1.0
 70
    11
 71
     3
 72
    29
 73
    25
 74
     0
 42
0.0000000001
 43
0.0000000001
 40
0.0
 40
0.0
 40
0.0
 40
0.0
 40
0.125
 40
0.125
 40
0.125
 40
0.25
 40
0.25
 40
0.25
 40
0.375
 40
0.375
 40
0.375
 40
0.5
 40
0.5
 40
0.5
 40
0.625
 40
0.625
 40
0.625
 40
0.75
 40
0.75
 40
0.75
 40
0.875
 40
0.875
 40
0.875
 40
1.0
 40
1.0
 40
1.0
 40
1.0
 10
-15.95253
 20
2.7576
 30
0.0
 10
-15.95253
 20
2.7576
 30
0.0
 10
14.04747
 20
2.7576
 30
0.0
 10
14.04747
 20
2.7576
 30
0.0
 10
14.2261
 20
2.7576
 30
0.0
 10
14.39117
 20
2.8529
 30
0.0
 10
14.48048
 20
3.0076
 30
0.0
 10
14.5698
 20
3.1623
 30
0.0
 10
14.5698
 20
3.3529
 30
0.0
 10
14.48048
 20
3.5076
 30
0.0
 10
14.39117
 20
3.6623
 30
0.0
 10
14.2261
 20
3.7576
 30
0.0
 10
14.04747
 20
3.7576
 30
0.0
 10
14.04747
 20
3.7576
 30
0.0
 10
-15.95253
 20
3.7576
 30
0.0
 10
-15.95253
 20
3.7576
 30
0.0
 10
-16.13116
 20
3.7576
 30
0.0
 10
-16.29623
 20
3.6623
 30
0.0
 10
-16.38554
 20
3.5076
 30
0.0
 10
-16.47486
 20
3.3529
 30
0.0
 10
-16.47486
 20
3.1623
 30
0.0
 10
-16.38554
 20
3.0076
 30
0.0
 10
-16.29623
 20
2.8529
 30
0.0
 10
-16.13116
 20
2.7576
 30
0.0
 10
-15.95253
 20
2.7576
 30
0.0
  0
SPLINE
  5
6D
330
1F
100
AcDbEntity
  8
0
370
     9
100
AcDbSpline
210
0.0
220
0.0
230
1.0
 70
    11
 71
     3
 72
    29
 73
    25
 74
     0
 42
0.0000000001
 43
0.0000000001
 40
0.0
 40
0.0
 40
0.0
 40
0.0
 40
0.125
 40
0.125
 40
0.125
 40
0.25
 40
0.25
 40
0.25
 40
0.375
 40
0.375
 40
0.375
 40
0.5
 40
0.5
 40
0.5
 40
0.625
 40
0.625
 40
0.625
 40
0.75
 40
0.75
 40
0.75
 40
0.875
 40
0.875
 40
0.875
 40
1.0
 40
1.0
 40
1.0
 40
1.0
 10
-15.95253
 20
0.81316
 30
0.0
 10
-15.95253
 20
0.81316
 30
0.0
 10
14.04747
 20
0.81316
 30
0.0
 10
14.04747
 20
0.81316
 30
0.0
 10
14.2261
 20
0.81316
 30
0.0
 10
14.39117
 20
0.90846
 30
0.0
 10
14.48048
 20
1.06316
 30
0.0
 10
14.5698
 20
1.21786
 30
0.0
 10
14.5698
 20
1.40846
 30
0.0
 10
14.48048
 20
1.56316
 30
0.0
 10
14.39117
 20
1.71786
 30
0.0
 10
14.2261
 20
1.81316
 30
0.0
 10
14.04747
 20
1.81316
 30
0.0
 10
14.04747
 20
1.81316
 30
0.0
 10
-15.95253
 20
1.81316
 30
0.0
 10
-15.95253
 20
1.81316
 30
0.0
 10
-16.13116
 20
1.81316
 30
0.0
 10
-16.29623
 20
1.71786
 30
0.0
 10
-16.38554
 20
1.56316
 30
0.0
 10
-16.47486
 20
1.40846
 30
0.0
 10
-16.47486
 20
1.21786
 30
0.0
 10
-16.38554
 20
1.06316
 30
0.0
 10
-16.29623
 20
0.90846
 30
0.0
 10
-16.13116
 20
0.81316
 30
0.0
 10
-15.95253
 20
0.81316
 30
0.0
  0
SPLINE
  5
6E
330
1F
100
AcDbEntity
  8
0
370
     9
100
AcDbSpline
210
0.0
220
0.0
230
1.0
 70
    11
 71
     3
 72
    29
 73
    25
 74
     0
 42
0.0000000001
 43
0.0000000001
 40
0.0
 40
0.0
 40
0.0
 40
0.0
 40
0.125
 40
0.125
 40
0.125
 40
0.25
 40
0.25
 40
0.25
 40
0.375
 40
0.375
 40
0.375
 40
0.5
 40
0.5
 40
0.5
 40
0.625
 40
0.625
 40
0.625
 40
0.75
 40
0.75
 40
0.75
 40
0.875
 40
0.875
 40
0.875
 40
1.0
 40
1.0
 40
1.0
 40
1.0
 10
-15.95253
 20
-1.13129
 30
0.0
 10
-15.95253
 20
-1.13129
 30
0.0
 10
14.04747
 20
-1.13129
 30
0.0
 10
14.04747
 20
-1.13129
 30
0.0
 10
14.2261
 20
-1.13129
 30
0.0
 10
14.39117
 20
-1.03599
 30
0.0
 10
14.48048
 20
-0.88129
 30
0.0
 10
14.5698
 20
-0.72659
 30
0.0
 10
14.5698
 20
-0.53599
 30
0.0
 10
14.48048
 20
-0.38129
 30
0.0
 10
14.39117
 20
-0.22659
 30
0.0
 10
14.2261
 20
-0.13129
 30
0.0
 10
14.04747
 20
-0.13129
 30
0.0
 10
14.04747
 20
-0.13129
 30
0.0
 10
-15.95253
 20
-0.13129
 30
0.0
 10
-15.95253
 20
-0.13129
 30
0.0
 10
-16.13116
 20
-0.13129
 30
0.0
 10
-16.29623
 20
-0.22659
 30
0.0
 10
-16.38554
 20
-0.38129
 30
0.0
 10
-16.47486
 20
-0.53599
 30
0.0
 10
-16.47486
 20
-0.72659
 30
0.0
 10
-16.38554
 20
-0.88129
 30
0.0
 10
-16.29623
 20
-1.03599
 30
0.0
 10
-16.13116
 20
-1.13129
 30
0.0
 10
-15.95253
 20
-1.13129
 30
0.0
  0
SPLINE
  5
6F
330
1F
100
AcDbEntity
  8
0
370
     9
100
AcDbSpline
210
0.0
220
0.0
230
1.0
 70
    11
 71
     3
 72
    29
 73
    25
 74
     0
 42
0.0000000001
 43
0.0000000001
 40
0.0
 40
0.0
 40
0.0
 40
0.0
 40
0.125
 40
0.125
 40
0.125
 40
0.25
 40
0.25
 40
0.25
 40
0.375
 40
0.375
 40
0.375
 40
0.5
 40
0.5
 40
0.5
 40
0.625
 40
0.625
 40
0.625
 40
0.75
 40
0.75
 40
0.75
 40
0.875
 40
0.875
 40
0.875
 40
1.0
 40
1.0
 40
1.0
 40
1.0
 10
-15.95253
 20
-3.07573
 30
0.0
 10
-15.95253
 20
-3.07573
 30
0.0
 10
14.04747
 20
-3.07573
 30
0.0
 10
14.04747
 20
-3.07573
 30
0.0
 10
14.2261
 20
-3.07573
 30
0.0
 10
14.39117
 20
-2.98043
 30
0.0
 10
14.48048
 20
-2.82573
 30
0.0
 10
14.5698
 20
-2.67103
 30
0.0
 10
14.5698
 20
-2.48043
 30
0.0
 10
14.48048
 20
-2.32573
 30
0.0
 10
14.39117
 20
-2.17103
 30
0.0
 10
14.2261
 20
-2.07573
 30
0.0
 10
14.04747
 20
-2.07573
 30
0.0
 10
14.04747
 20
-2.07573
 30
0.0
 10
-15.95253
 20
-2.07573
 30
0.0
 10
-15.95253
 20
-2.07573
 30
0.0
 10
-16.13116
 20
-2.07573
 30
0.0
 10
-16.29623
 20
-2.17103
 30
0.0
 10
-16.38554
 20
-2.32573
 30
0.0
 10
-16.47486
 20
-2.48043
 30
0.0
 10
-16.47486
 20
-2.67103
 30
0.0
 10
-16.38554
 20
-2.82573
 30
0.0
 10
-16.29623
 20
-2.98043
 30
0.0
 10
-16.13116
 20
-3.07573
 30
0.0
 10
-15.95253
 20
-3.07573
 30
0.0
  0
SPLINE
  5
70
330
1F
100
AcDbEntity
  8
0
370
     9
100
AcDbSpline
210
0.0
220
0.0
230
1.0
 70
    11
 71
     3
 72
    41
 73
    37
 74
     0
 42
0.0000000001
 43
0.0000000001
 40
0.0
 40
0.0
 40
0.0
 40
0.0
 40
0.0833333333333333
 40
0.0833333333333333
 40
0.0833333333333333
 40
0.1666666666666667
 40
0.1666666666666667
 40
0.1666666666666667
 40
0.25
 40
0.25
 40
0.25
 40
0.3333333333333333
 40
0.3333333333333333
 40
0.3333333333333333
 40
0.4166666666666666
 40
0.4166666666666666
 40
0.4166666666666666
 40
0.5
 40
0.5
 40
0.5
 40
0.5833333333333333
 40
0.5833333333333333
 40
0.5833333333333333
 40
0.6666666666666666
 40
0.6666666666666666
 40
0.6666666666666666
 40
0.75
 40
0.75
 40
0.75
 40
0.8333333333333333
 40
0.8333333333333333
 40
0.8333333333333333
 40
0.9166666666666666
 40
0.9166666666666666
 40
0.9166666666666666
 40
1.0
 40
1.0
 40
1.0
 40
1.0
 10
16.18869
 20
20.71266
 30
0.0
 10
16.18869
 20
20.71266
 30
0.0
 10
16.18869
 20
21.21266
 30
0.0
 10
16.18869
 20
21.21266
 30
0.0
 10
16.18869
 20
21.21266
 30
0.0
 10
-17.61131
 20
21.21266
 30
0.0
 10
-17.61131
 20
21.21266
 30
0.0
 10
-17.61131
 20
21.21266
 30
0.0
 10
-17.61131
 20
20.71266
 30
0.0
 10
-17.61131
 20
20.71266
 30
0.0
 10
-17.61131
 20
20.71266
 30
0.0
 10
-18.21131
 20
20.71266
 30
0.0
 10
-18.21131
 20
20.71266
 30
0.0
 10
-18.21131
 20
20.71266
 30
0.0
 10
-18.21131
 20
19.71266
 30
0.0
 10
-18.21131
 20
19.71266
 30
0.0
 10
-18.21131
 20
19.71266
 30
0.0
 10
-17.61131
 20
19.71266
 30
0.0
 10
-17.61131
 20
19.71266
 30
0.0
 10
-17.61131
 20
19.71266
 30
0.0
 10
-17.61131
 20
19.21266
 30
0.0
 10
-17.61131
 20
19.21266
 30
0.0
 10
-17.61131
 20
19.21266
 30
0.0
 10
16.18869
 20
19.21266
 30
0.0
 10
16.18869
 20
19.21266
 30
0.0
 10
16.18869
 20
19.21266
 30
0.0
 10
16.18869
 20
19.71266
 30
0.0
 10
16.18869
 20
19.71266
 30
0.0
 10
16.18869
 20
19.71266
 30
0.0
 10
16.78869
 20
19.71266
 30
0.0
 10
16.78869
 20
19.71266
 30
0.0
 10
16.78869
 20
19.71266
 30
0.0
 10
16.78869
 20
20.71266
 30
0.0
 10
16.78869
 20
20.71266
 30
0.0
 10
16.78869
 20
20.71266
 30
0.0
 10
16.18869
 20
20.71266
 30
0.0
 10
16.18869
 20
20.71266
 30
0.0
  0
ENDSEC
  0
SECTION
  2
OBJECTS
  0
DICTIONARY
  5
C
330
0
100
AcDbDictionary
281
     1
  3
ACAD_DETAILVIEWSTYLE
350
78
  3
ACAD_GROUP
350
D
  3
ACAD_LAYOUT
350
1A
  3
ACAD_MATERIAL
350
43
  3
ACAD_MLEADERSTYLE
350
5B
  3
ACAD_MLINESTYLE
350
17
  3
ACAD_PLOTSETTINGS
350
19
  3
ACAD_PLOTSTYLENAME
350
E
  3
ACAD_SCALELIST
350
47
  3
ACAD_SECTIONVIEWSTYLE
350
79
  3
ACAD_TABLESTYLE
350
59
  3
ACAD_VISUALSTYLE
350
2A
  3
ACDB_RECOMPOSE_DATA
350
75
  3
AcDbVariableDictionary
350
71
  0
SUN
  5
5D
330
29
100
AcDbSun
 90
        1
290
     0
 63
     7
421
 16777215
 40
1.0
291
     1
 91
  2455826
 92
 54000000
292
     0
 70
     2
 71
   256
280
     1
  0
DICTIONARY
  5
78
102
{ACAD_REACTORS
330
C
102
}
330
C
100
AcDbDictionary
281
     1
  0
DICTIONARY
  5
D
102
{ACAD_REACTORS
330
C
102
}
330
C
100
AcDbDictionary
281
     1
  0
DICTIONARY
  5
1A
102
{ACAD_REACTORS
330
C
102
}
330
C
100
AcDbDictionary
281
     1
  3
Layout1
350
1E
  3
Layout2
350
26
  3
Model
350
22
  0
DICTIONARY
  5
43
102
{ACAD_REACTORS
330
C
102
}
330
C
100
AcDbDictionary
281
     1
  3
ByBlock
350
45
  3
ByLayer
350
44
  3
Global
350
46
  0
DICTIONARY
  5
5B
102
{ACAD_REACTORS
330
C
102
}
330
C
100
AcDbDictionary
281
     1
  3
Standard
350
5C
  0
DICTIONARY
  5
17
102
{ACAD_REACTORS
330
C
102
}
330
C
100
AcDbDictionary
281
     1
  3
Standard
350
18
  0
DICTIONARY
  5
19
102
{ACAD_REACTORS
330
C
102
}
330
C
100
AcDbDictionary
281
     1
  0
ACDBDICTIONARYWDFLT
  5
E
102
{ACAD_REACTORS
330
C
102
}
330
C
100
AcDbDictionary
281
     1
  3
Normal
350
F
100
AcDbDictionaryWithDefault
340
F
  0
DICTIONARY
  5
47
102
{ACAD_REACTORS
330
C
102
}
330
C
100
AcDbDictionary
281
     1
  3
A0
350
48
  3
A1
350
49
  3
A2
350
4A
  3
A3
350
4B
  3
A4
350
4C
  3
A5
350
4D
  3
A6
350
4E
  3
A7
350
4F
  3
A8
350
50
  3
A9
350
51
  3
B1
350
52
  3
B2
350
53
  3
B3
350
54
  3
B4
350
55
  3
B5
350
56
  3
B6
350
57
  3
B7
350
58
  0
DICTIONARY
  5
79
102
{ACAD_REACTORS
330
C
102
}
330
C
100
AcDbDictionary
281
     1
  0
DICTIONARY
  5
59
102
{ACAD_REACTORS
330
C
102
}
330
C
100
AcDbDictionary
281
     1
  3
Standard
350
5A
  0
DICTIONARY
  5
2A
102
{ACAD_REACTORS
330
C
102
}
330
C
100
AcDbDictionary
281
     1
  3
2dWireframe
350
2F
  3
Basic
350
32
  3
Brighten
350
36
  3
ColorChange
350
3A
  3
Conceptual
350
34
  3
Dim
350
35
  3
EdgeColorOff
350
3D
  3
Facepattern
350
39
  3
Flat
350
2B
  3
FlatWithEdges
350
2C
  3
Gouraud
350
2D
  3
GouraudWithEdges
350
2E
  3
Hidden
350
31
  3
JitterOff
350
3B
  3
Linepattern
350
38
  3
OverhangOff
350
3C
  3
Realistic
350
33
  3
Shaded
350
42
  3
Shaded with edges
350
41
  3
Shades of Gray
350
3E
  3
Sketchy
350
3F
  3
Thicken
350
37
  3
Wireframe
350
30
  3
X-Ray
350
40
  0
XRECORD
  5
75
102
{ACAD_REACTORS
330
C
102
}
330
C
100
AcDbXrecord
280
     1
 90
        1
330
5A
  0
DICTIONARY
  5
71
102
{ACAD_REACTORS
330
C
102
}
330
C
100
AcDbDictionary
281
     1
  3
CANNOSCALE
350
72
  3
CMLEADERSTYLE
350
77
  3
CTABLESTYLE
350
76
  0
LAYOUT
  5
1E
102
{ACAD_REACTORS
330
1A
102
}
330
1A
100
AcDbPlotSettings
  1

  2
none_device
  4

  6

 40
0.0
 41
0.0
 42
0.0
 43
0.0
 44
0.0
 45
0.0
 46
0.0
 47
0.0
 48
0.0
 49
0.0
140
0.0
141
0.0
142
1.0
143
1.0
 70
   688
 72
     0
 73
     0
 74
     5
  7

 75
    16
 76
     0
 77
     2
 78
   300
147
1.0
148
0.0
149
0.0
100
AcDbLayout
  1
Layout1
 70
     1
 71
     1
 10
0.0
 20
0.0
 11
12.0
 21
9.0
 12
0.0
 22
0.0
 32
0.0
 14
1.000000000000000E+20
 24
1.000000000000000E+20
 34
1.000000000000000E+20
 15
-1.000000000000000E+20
 25
-1.000000000000000E+20
 35
-1.000000000000000E+20
146
0.0
 13
0.0
 23
0.0
 33
0.0
 16
1.0
 26
0.0
 36
0.0
 17
0.0
 27
1.0
 37
0.0
 76
     0
330
1B
  0
LAYOUT
  5
26
102
{ACAD_REACTORS
330
1A
102
}
330
1A
100
AcDbPlotSettings
  1

  2
none_device
  4

  6

 40
0.0
 41
0.0
 42
0.0
 43
0.0
 44
0.0
 45
0.0
 46
0.0
 47
0.0
 48
0.0
 49
0.0
140
0.0
141
0.0
142
1.0
143
1.0
 70
   688
 72
     0
 73
     0
 74
     5
  7

 75
    16
 76
     0
 77
     2
 78
   300
147
1.0
148
0.0
149
0.0
100
AcDbLayout
  1
Layout2
 70
     1
 71
     2
 10
0.0
 20
0.0
 11
0.0
 21
0.0
 12
0.0
 22
0.0
 32
0.0
 14
0.0
 24
0.0
 34
0.0
 15
0.0
 25
0.0
 35
0.0
146
0.0
 13
0.0
 23
0.0
 33
0.0
 16
1.0
 26
0.0
 36
0.0
 17
0.0
 27
1.0
 37
0.0
 76
     0
330
23
  0
LAYOUT
  5
22
102
{ACAD_REACTORS
330
1A
102
}
330
1A
100
AcDbPlotSettings
  1

  2
none_device
  4
Letter_(8.50_x_11.00_Inches)
  6

 40
6.35
 41
6.35
 42
6.35000508
 43
6.35000508
 44
215.9
 45
279.4
 46
0.0
 47
0.0
 48
0.0
 49
0.0
140
0.0
141
0.0
142
1.0
143
1.0
 70
  1712
 72
     0
 73
     0
 74
     0
  7

 75
     0
 76
     0
 77
     2
 78
   300
147
1.0
148
0.0
149
0.0
100
AcDbLayout
  1
Model
 70
     1
 71
     0
 10
0.0
 20
0.0
 11
12.0
 21
9.0
 12
0.0
 22
0.0
 32
0.0
 14
-30.90303
 24
-11.61731
 34
0.0
 15
28.99798
 25
24.75528
 35
0.0
146
0.0
 13
0.0
 23
0.0
 33
0.0
 16
1.0
 26
0.0
 36
0.0
 17
0.0
 27
1.0
 37
0.0
 76
     0
330
1F
331
29
  0
MATERIAL
  5
45
102
{ACAD_REACTORS
330
43
102
}
330
43
100
AcDbMaterial
  1
ByBlock
 72
     1
 94
      127
  0
MATERIAL
  5
44
102
{ACAD_REACTORS
330
43
102
}
330
43
100
AcDbMaterial
  1
ByLayer
 72
     1
 94
      127
  0
MATERIAL
  5
46
102
{ACAD_REACTORS
330
43
102
}
330
43
100
AcDbMaterial
  1
Global
 72
     1
 94
      127
  0
MLEADERSTYLE
  5
5C
102
{ACAD_REACTORS
330
5B
102
}
330
5B
100
AcDbMLeaderStyle
179
     2
170
     2
171
     1
172
     0
 90
        2
 40
0.0
 41
0.0
173
     1
 91
-1056964608
340
14
 92
       -2
290
     1
 42
0.09
291
     1
 43
0.36
  3
Standard
341
0
 44
0.18
300

342
11
174
     1
178
     6
175
     1
176
     0
 93
-1056964608
 45
0.18
292
     0
297
     0
 46
0.18
343
0
 94
-1056964608
 47
1.0
 49
1.0
140
1.0
293
     1
141
0.0
294
     1
177
     0
142
1.0
295
     0
296
     0
143
0.125
271
     0
272
     9
273
     9
298
     0
  0
MLINESTYLE
  5
18
102
{ACAD_REACTORS
330
17
102
}
330
17
100
AcDbMlineStyle
  2
Standard
 70
     0
  3

 62
   256
 51
90.0
 52
90.0
 71
     2
 49
0.5
 62
   256
  6
BYLAYER
 49
-0.5
 62
   256
  6
BYLAYER
  0
ACDBPLACEHOLDER
  5
F
102
{ACAD_REACTORS
330
E
102
}
330
E
  0
SCALE
  5
48
102
{ACAD_REACTORS
330
47
102
}
330
47
100
AcDbScale
 70
     0
300
1:1
140
1.0
141
1.0
290
     1
  0
SCALE
  5
49
102
{ACAD_REACTORS
330
47
102
}
330
47
100
AcDbScale
 70
     0
300
1/128" = 1'-0"
140
0.0078125
141
12.0
290
     0
  0
SCALE
  5
4A
102
{ACAD_REACTORS
330
47
102
}
330
47
100
AcDbScale
 70
     0
300
1/64" = 1'-0"
140
0.015625
141
12.0
290
     0
  0
SCALE
  5
4B
102
{ACAD_REACTORS
330
47
102
}
330
47
100
AcDbScale
 70
     0
300
1/32" = 1'-0"
140
0.03125
141
12.0
290
     0
  0
SCALE
  5
4C
102
{ACAD_REACTORS
330
47
102
}
330
47
100
AcDbScale
 70
     0
300
1/16" = 1'-0"
140
0.0625
141
12.0
290
     0
  0
SCALE
  5
4D
102
{ACAD_REACTORS
330
47
102
}
330
47
100
AcDbScale
 70
     0
300
3/32" = 1'-0"
140
0.09375
141
12.0
290
     0
  0
SCALE
  5
4E
102
{ACAD_REACTORS
330
47
102
}
330
47
100
AcDbScale
 70
     0
300
1/8" = 1'-0"
140
0.125
141
12.0
290
     0
  0
SCALE
  5
4F
102
{ACAD_REACTORS
330
47
102
}
330
47
100
AcDbScale
 70
     0
300
3/16" = 1'-0"
140
0.1875
141
12.0
290
     0
  0
SCALE
  5
50
102
{ACAD_REACTORS
330
47
102
}
330
47
100
AcDbScale
 70
     0
300
1/4" = 1'-0"
140
0.25
141
12.0
290
     0
  0
SCALE
  5
51
102
{ACAD_REACTORS
330
47
102
}
330
47
100
AcDbScale
 70
     0
300
3/8" = 1'-0"
140
0.375
141
12.0
290
     0
  0
SCALE
  5
52
102
{ACAD_REACTORS
330
47
102
}
330
47
100
AcDbScale
 70
     0
300
1/2" = 1'-0"
140
0.5
141
12.0
290
     0
  0
SCALE
  5
53
102
{ACAD_REACTORS
330
47
102
}
330
47
100
AcDbScale
 70
     0
300
3/4" = 1'-0"
140
0.75
141
12.0
290
     0
  0
SCALE
  5
54
102
{ACAD_REACTORS
330
47
102
}
330
47
100
AcDbScale
 70
     0
300
1" = 1'-0"
140
1.0
141
12.0
290
     0
  0
SCALE
  5
55
102
{ACAD_REACTORS
330
47
102
}
330
47
100
AcDbScale
 70
     0
300
1-1/2" = 1'-0"
140
1.5
141
12.0
290
     0
  0
SCALE
  5
56
102
{ACAD_REACTORS
330
47
102
}
330
47
100
AcDbScale
 70
     0
300
3" = 1'-0"
140
3.0
141
12.0
290
     0
  0
SCALE
  5
57
102
{ACAD_REACTORS
330
47
102
}
330
47
100
AcDbScale
 70
     0
300
6" = 1'-0"
140
6.0
141
12.0
290
     0
  0
SCALE
  5
58
102
{ACAD_REACTORS
330
47
102
}
330
47
100
AcDbScale
 70
     0
300
1'-0" = 1'-0"
140
12.0
141
12.0
290
     0
  0
TABLESTYLE
  5
5A
102
{ACAD_REACTORS
330
59
102
}
102
{ACAD_XDICTIONARY
360
73
102
}
330
59
100
AcDbTableStyle
  3
Standard
 70
     0
 71
     0
 40
0.06
 41
0.06
280
     0
281
     0
  7
Standard
140
0.18
170
     2
 62
     0
 63
   257
283
     0
 90
        4
 91
        0
  1

274
    -2
284
     1
 64
     0
275
    -2
285
     1
 65
     0
276
    -2
286
     1
 66
     0
277
    -2
287
     1
 67
     0
278
    -2
288
     1
 68
     0
279
    -2
289
     1
 69
     0
  7
Standard
140
0.25
170
     5
 62
     0
 63
   257
283
     0
 90
        4
 91
        0
  1

274
    -2
284
     1
 64
     0
275
    -2
285
     1
 65
     0
276
    -2
286
     1
 66
     0
277
    -2
287
     1
 67
     0
278
    -2
288
     1
 68
     0
279
    -2
289
     1
 69
     0
  7
Standard
140
0.18
170
     5
 62
     0
 63
   257
283
     0
 90
        4
 91
        0
  1

274
    -2
284
     1
 64
     0
275
    -2
285
     1
 65
     0
276
    -2
286
     1
 66
     0
277
    -2
287
     1
 67
     0
278
    -2
288
     1
 68
     0
279
    -2
289
     1
 69
     0
  0
VISUALSTYLE
  5
2F
102
{ACAD_REACTORS
330
2A
102
}
330
2A
100
AcDbVisualStyle
  2
2dWireframe
 70
     4
177
     3
291
     0
 70
    58
 90
        0
176
     1
 90
        2
176
     1
 90
        0
176
     1
 90
        0
176
     1
 40
0.6
176
     1
 40
30.0
176
     1
 62
     7
420
 16777215
176
     1
 90
        1
176
     1
 90
        4
176
     1
 62
     7
176
     1
 62
   257
176
     1
 90
        1
176
     1
 90
        1
176
     1
 40
1.0
176
     1
 90
        0
176
     1
 62
   257
176
     1
 40
1.0
176
     1
 90
        1
176
     1
 90
        6
176
     1
 90
        2
176
     1
 62
     7
176
     1
 90
        5
176
     1
 90
        0
176
     1
 90
        0
176
     1
290
     0
176
     1
 90
        1
176
     1
 40
0.0
176
     1
 90
        0
176
     1
290
     1
176
     1
290
     1
176
     1
290
     0
176
     1
290
     0
176
     1
290
     0
176
     1
290
     0
176
     1
290
     0
176
     1
290
     0
176
     1
290
     0
176
     1
 90
       50
176
     1
 40
0.0
176
     1
 40
1.0
176
     1
 90
        0
176
     1
 62
    18
420
        0
176
     1
 90
       50
176
     1
 90
        3
176
     1
 62
     5
420
      255
176
     1
290
     0
176
     1
 90
       50
176
     1
 90
       50
176
     1
 90
       50
176
     1
290
     0
176
     1
 90
       50
176
     1
 62
   256
176
     0
 40
1.0
176
     0
 90
        2
176
     1
  1
strokes_ogs.tif
176
     1
290
     0
176
     1
 40
1.0
176
     1
 40
1.0
176
     1
  0
VISUALSTYLE
  5
32
102
{ACAD_REACTORS
330
2A
102
}
330
2A
100
AcDbVisualStyle
  2
Basic
 70
     7
177
     3
291
     1
 70
    58
 90
        1
176
     1
 90
        0
176
     1
 90
        1
176
     1
 90
        0
176
     1
 40
0.6
176
     1
 40
30.0
176
     1
 62
     7
420
 16777215
176
     1
 90
        0
176
     1
 90
        4
176
     1
 62
     7
176
     1
 62
   257
176
     1
 90
        1
176
     1
 90
        1
176
     1
 40
1.0
176
     1
 90
        8
176
     1
 62
     7
176
     1
 40
1.0
176
     1
 90
        1
176
     1
 90
        6
176
     1
 90
        2
176
     1
 62
     7
176
     1
 90
        5
176
     1
 90
        0
176
     1
 90
        0
176
     1
290
     0
176
     1
 90
        1
176
     1
 40
0.0
176
     1
 90
        0
176
     1
290
     0
176
     1
290
     1
176
     1
290
     1
176
     1
290
     0
176
     1
290
     0
176
     1
290
     0
176
     1
290
     0
176
     1
290
     0
176
     1
290
     0
176
     1
 90
       50
176
     1
 40
0.0
176
     1
 40
1.0
176
     1
 90
        0
176
     1
 62
    18
420
        0
176
     1
 90
       50
176
     1
 90
        3
176
     1
 62
     5
420
      255
176
     1
290
     0
176
     1
 90
       50
176
     1
 90
       50
176
     1
 90
       50
176
     1
290
     0
176
     1
 90
       50
176
     1
 62
   256
176
     0
 40
1.0
176
     0
 90
        2
176
     1
  1
strokes_ogs.tif
176
     1
290
     0
176
     1
 40
1.0
176
     1
 40
1.0
176
     1
  0
VISUALSTYLE
  5
36
102
{ACAD_REACTORS
330
2A
102
}
330
2A
100
AcDbVisualStyle
  2
Brighten
 70
    12
177
     3
291
     1
 70
    58
 90
        2
176
     1
 90
        2
176
     1
 90
        0
176
     1
 90
        0
176
     1
 40
0.6
176
     1
 40
30.0
176
     1
 62
     7
420
 16777215
176
     1
 90
        1
176
     1
 90
        4
176
     1
 62
     7
176
     1
 62
   257
176
     1
 90
        1
176
     1
 90
        1
176
     1
 40
1.0
176
     1
 90
        8
176
     1
 62
     7
176
     1
 40
1.0
176
     1
 90
        1
176
     1
 90
        6
176
     1
 90
        2
176
     1
 62
     7
176
     1
 90
        5
176
     1
 90
        0
176
     1
 90
        0
176
     1
290
     0
176
     1
 90
        1
176
     1
 40
50.0
176
     1
 90
        0
176
     1
290
     0
176
     1
290
     1
176
     1
290
     1
176
     1
290
     0
176
     1
290
     0
176
     1
290
     0
176
     1
290
     0
176
     1
290
     0
176
     1
290
     0
176
     1
 90
       50
176
     1
 40
0.0
176
     1
 40
1.0
176
     1
 90
        0
176
     1
 62
    18
420
        0
176
     1
 90
       50
176
     1
 90
        3
176
     1
 62
     5
420
      255
176
     1
290
     0
176
     1
 90
       50
176
     1
 90
       50
176
     1
 90
       50
176
     1
290
     0
176
     1
 90
       50
176
     1
 62
   256
176
     0
 40
1.0
176
     0
 90
        2
176
     1
  1
strokes_ogs.tif
176
     1
290
     0
176
     1
 40
1.0
176
     1
 40
1.0
176
     1
  0
VISUALSTYLE
  5
3A
102
{ACAD_REACTORS
330
2A
102
}
330
2A
100
AcDbVisualStyle
  2
ColorChange
 70
    16
177
     3
291
     1
 70
    58
 90
        2
176
     1
 90
        2
176
     1
 90
        3
176
     1
 90
        0
176
     1
 40
0.6
176
     1
 40
30.0
176
     1
 62
     8
420
  8421504
176
     1
 90
        1
176
     1
 90
        4
176
     1
 62
     7
176
     1
 62
   257
176
     1
 90
        1
176
     1
 90
        1
176
     1
 40
1.0
176
     1
 90
        8
176
     1
 62
     8
420
  8421504
176
     1
 40
1.0
176
     1
 90
        1
176
     1
 90
        6
176
     1
 90
        2
176
     1
 62
     7
176
     1
 90
        5
176
     1
 90
        0
176
     1
 90
        0
176
     1
290
     0
176
     1
 90
        1
176
     1
 40
0.0
176
     1
 90
        0
176
     1
290
     0
176
     1
290
     1
176
     1
290
     1
176
     1
290
     0
176
     1
290
     0
176
     1
290
     0
176
     1
290
     0
176
     1
290
     0
176
     1
290
     0
176
     1
 90
       50
176
     1
 40
0.0
176
     1
 40
1.0
176
     1
 90
        0
176
     1
 62
    18
420
        0
176
     1
 90
       50
176
     1
 90
        3
176
     1
 62
     5
420
      255
176
     1
290
     0
176
     1
 90
       50
176
     1
 90
       50
176
     1
 90
       50
176
     1
290
     0
176
     1
 90
       50
176
     1
 62
   256
176
     0
 40
1.0
176
     0
 90
        2
176
     1
  1
strokes_ogs.tif
176
     1
290
     0
176
     1
 40
1.0
176
     1
 40
1.0
176
     1
  0
VISUALSTYLE
  5
34
102
{ACAD_REACTORS
330
2A
102
}
330
2A
100
AcDbVisualStyle
  2
Conceptual
 70
     9
177
     3
291
     0
 70
    58
 90
        3
176
     1
 90
        2
176
     1
 90
        0
176
     1
 90
        0
176
     1
 40
0.6
176
     1
 40
30.0
176
     1
 62
     7
420
 16777215
176
     1
 90
        2
176
     1
 90
        2
176
     1
 62
     7
176
     1
 62
   257
176
     1
 90
        1
176
     1
 90
        1
176
     1
 40
179.0
176
     1
 90
        8
176
     1
 62
     7
176
     1
 40
1.0
176
     1
 90
        1
176
     1
 90
        6
176
     1
 90
        2
176
     1
 62
     7
176
     1
 90
        3
176
     1
 90
        0
176
     1
 90
        0
176
     1
290
     0
176
     1
 90
        1
176
     1
 40
0.0
176
     1
 90
        0
176
     1
290
     0
176
     1
290
     1
176
     1
290
     1
176
     1
290
     0
176
     1
290
     0
176
     1
290
     0
176
     1
290
     0
176
     1
290
     0
176
     1
290
     0
176
     1
 90
       50
176
     1
 40
0.0
176
     1
 40
1.0
176
     1
 90
        0
176
     1
 62
    18
420
        0
176
     1
 90
       50
176
     1
 90
        3
176
     1
 62
     5
420
      255
176
     1
290
     0
176
     1
 90
       50
176
     1
 90
       50
176
     1
 90
       50
176
     1
290
     0
176
     1
 90
       50
176
     1
 62
   256
176
     0
 40
1.0
176
     0
 90
        2
176
     1
  1
strokes_ogs.tif
176
     1
290
     0
176
     1
 40
1.0
176
     1
 40
1.0
176
     1
  0
VISUALSTYLE
  5
35
102
{ACAD_REACTORS
330
2A
102
}
330
2A
100
AcDbVisualStyle
  2
Dim
 70
    11
177
     3
291
     1
 70
    58
 90
        2
176
     1
 90
        2
176
     1
 90
        0
176
     1
 90
        0
176
     1
 40
0.6
176
     1
 40
30.0
176
     1
 62
     7
420
 16777215
176
     1
 90
        1
176
     1
 90
        4
176
     1
 62
     7
176
     1
 62
   257
176
     1
 90
        1
176
     1
 90
        1
176
     1
 40
1.0
176
     1
 90
        8
176
     1
 62
     7
176
     1
 40
1.0
176
     1
 90
        1
176
     1
 90
        6
176
     1
 90
        2
176
     1
 62
     7
176
     1
 90
        5
176
     1
 90
        0
176
     1
 90
        0
176
     1
290
     0
176
     1
 90
        1
176
     1
 40
-50.0
176
     1
 90
        0
176
     1
290
     0
176
     1
290
     1
176
     1
290
     1
176
     1
290
     0
176
     1
290
     0
176
     1
290
     0
176
     1
290
     0
176
     1
290
     0
176
     1
290
     0
176
     1
 90
       50
176
     1
 40
0.0
176
     1
 40
1.0
176
     1
 90
        0
176
     1
 62
    18
420
        0
176
     1
 90
       50
176
     1
 90
        3
176
     1
 62
     5
420
      255
176
     1
290
     0
176
     1
 90
       50
176
     1
 90
       50
176
     1
 90
       50
176
     1
290
     0
176
     1
 90
       50
176
     1
 62
   256
176
     0
 40
1.0
176
     0
 90
        2
176
     1
  1
strokes_ogs.tif
176
     1
290
     0
176
     1
 40
1.0
176
     1
 40
1.0
176
     1
  0
VISUALSTYLE
  5
3D
102
{ACAD_REACTORS
330
2A
102
}
330
2A
100
AcDbVisualStyle
  2
EdgeColorOff
 70
    22
177
     3
291
     1
 70
    58
 90
        2
176
     0
 90
        2
176
     0
 90
        0
176
     0
 90
        0
176
     0
 40
0.6
176
     0
 40
30.0
176
     0
 62
     7
420
 16777215
176
     0
 90
        1
176
     0
 90
        4
176
     0
 62
     7
176
     0
 62
   257
176
     0
 90
        1
176
     0
 90
        1
176
     0
 40
1.0
176
     0
 90
        8
176
     2
 62
     7
176
     0
 40
1.0
176
     0
 90
        1
176
     0
 90
        6
176
     0
 90
        2
176
     0
 62
     7
176
     0
 90
        5
176
     0
 90
        0
176
     0
 90
        0
176
     0
290
     0
176
     0
 90
        1
176
     0
 40
0.0
176
     0
 90
        0
176
     0
290
     0
176
     0
290
     1
176
     0
290
     1
176
     0
290
     0
176
     0
290
     0
176
     0
290
     0
176
     0
290
     0
176
     0
290
     0
176
     0
290
     0
176
     0
 90
       50
176
     0
 40
0.0
176
     0
 40
1.0
176
     0
 90
        0
176
     0
 62
    18
420
        0
176
     0
 90
       50
176
     0
 90
        3
176
     0
 62
     5
420
      255
176
     0
290
     0
176
     0
 90
       50
176
     0
 90
       50
176
     0
 90
       50
176
     0
290
     0
176
     0
 90
       50
176
     0
 62
   256
176
     0
 40
1.0
176
     0
 90
        2
176
     0
  1
strokes_ogs.tif
176
     0
290
     0
176
     0
 40
1.0
176
     0
 40
1.0
176
     0
  0
VISUALSTYLE
  5
39
102
{ACAD_REACTORS
330
2A
102
}
330
2A
100
AcDbVisualStyle
  2
Facepattern
 70
    15
177
     3
291
     1
 70
    58
 90
        2
176
     1
 90
        2
176
     1
 90
        0
176
     1
 90
        0
176
     1
 40
0.6
176
     1
 40
30.0
176
     1
 62
     7
420
 16777215
176
     1
 90
        1
176
     1
 90
        4
176
     1
 62
     7
176
     1
 62
   257
176
     1
 90
        1
176
     1
 90
        1
176
     1
 40
1.0
176
     1
 90
        8
176
     1
 62
     7
176
     1
 40
1.0
176
     1
 90
        1
176
     1
 90
        6
176
     1
 90
        2
176
     1
 62
     7
176
     1
 90
        5
176
     1
 90
        0
176
     1
 90
        0
176
     1
290
     0
176
     1
 90
        1
176
     1
 40
0.0
176
     1
 90
        0
176
     1
290
     0
176
     1
290
     1
176
     1
290
     1
176
     1
290
     0
176
     1
290
     0
176
     1
290
     0
176
     1
290
     0
176
     1
290
     0
176
     1
290
     0
176
     1
 90
       50
176
     1
 40
0.0
176
     1
 40
1.0
176
     1
 90
        0
176
     1
 62
    18
420
        0
176
     1
 90
       50
176
     1
 90
        3
176
     1
 62
     5
420
      255
176
     1
290
     0
176
     1
 90
       50
176
     1
 90
       50
176
     1
 90
       50
176
     1
290
     0
176
     1
 90
       50
176
     1
 62
   256
176
     0
 40
1.0
176
     0
 90
        2
176
     1
  1
strokes_ogs.tif
176
     1
290
     0
176
     1
 40
1.0
176
     1
 40
1.0
176
     1
  0
VISUALSTYLE
  5
2B
102
{ACAD_REACTORS
330
2A
102
}
330
2A
100
AcDbVisualStyle
  2
Flat
 70
     0
177
     3
291
     1
 70
    58
 90
        2
176
     1
 90
        1
176
     1
 90
        1
176
     1
 90
        2
176
     1
 40
0.6
176
     1
 40
30.0
176
     1
 62
     7
420
 16777215
176
     1
 90
        0
176
     1
 90
        0
176
     1
 62
     7
176
     1
 62
   257
176
     1
 90
        1
176
     1
 90
        1
176
     1
 40
1.0
176
     1
 90
        8
176
     1
 62
     7
176
     1
 40
1.0
176
     1
 90
        1
176
     1
 90
        6
176
     1
 90
        2
176
     1
 62
     7
176
     1
 90
        5
176
     1
 90
        0
176
     1
 90
        0
176
     1
290
     0
176
     1
 90
       13
176
     1
 40
0.0
176
     1
 90
        0
176
     1
290
     0
176
     1
290
     1
176
     1
290
     1
176
     1
290
     0
176
     1
290
     0
176
     1
290
     0
176
     1
290
     0
176
     1
290
     0
176
     1
290
     0
176
     1
 90
       50
176
     1
 40
0.0
176
     1
 40
1.0
176
     1
 90
        0
176
     1
 62
    18
420
        0
176
     1
 90
       50
176
     1
 90
        3
176
     1
 62
     5
420
      255
176
     1
290
     0
176
     1
 90
       50
176
     1
 90
       50
176
     1
 90
       50
176
     1
290
     0
176
     1
 90
       50
176
     1
 62
   256
176
     0
 40
1.0
176
     0
 90
        2
176
     1
  1
strokes_ogs.tif
176
     1
290
     0
176
     1
 40
1.0
176
     1
 40
1.0
176
     1
  0
VISUALSTYLE
  5
2C
102
{ACAD_REACTORS
330
2A
102
}
330
2A
100
AcDbVisualStyle
  2
FlatWithEdges
 70
     1
177
     3
291
     1
 70
    58
 90
        2
176
     1
 90
        1
176
     1
 90
        1
176
     1
 90
        2
176
     1
 40
0.6
176
     1
 40
30.0
176
     1
 62
     7
420
 16777215
176
     1
 90
        1
176
     1
 90
        0
176
     1
 62
     7
176
     1
 62
   257
176
     1
 90
        1
176
     1
 90
        1
176
     1
 40
1.0
176
     1
 90
        0
176
     1
 62
   257
176
     1
 40
1.0
176
     1
 90
        1
176
     1
 90
        6
176
     1
 90
        2
176
     1
 62
     7
176
     1
 90
        5
176
     1
 90
        0
176
     1
 90
        0
176
     1
290
     0
176
     1
 90
       13
176
     1
 40
0.0
176
     1
 90
        0
176
     1
290
     0
176
     1
290
     1
176
     1
290
     1
176
     1
290
     0
176
     1
290
     0
176
     1
290
     0
176
     1
290
     0
176
     1
290
     0
176
     1
290
     0
176
     1
 90
       50
176
     1
 40
0.0
176
     1
 40
1.0
176
     1
 90
        0
176
     1
 62
    18
420
        0
176
     1
 90
       50
176
     1
 90
        3
176
     1
 62
     5
420
      255
176
     1
290
     0
176
     1
 90
       50
176
     1
 90
       50
176
     1
 90
       50
176
     1
290
     0
176
     1
 90
       50
176
     1
 62
   256
176
     0
 40
1.0
176
     0
 90
        2
176
     1
  1
strokes_ogs.tif
176
     1
290
     0
176
     1
 40
1.0
176
     1
 40
1.0
176
     1
  0
VISUALSTYLE
  5
2D
102
{ACAD_REACTORS
330
2A
102
}
330
2A
100
AcDbVisualStyle
  2
Gouraud
 70
     2
177
     3
291
     1
 70
    58
 90
        2
176
     1
 90
        2
176
     1
 90
        1
176
     1
 90
        2
176
     1
 40
0.6
176
     1
 40
30.0
176
     1
 62
     7
420
 16777215
176
     1
 90
        0
176
     1
 90
        0
176
     1
 62
     7
176
     1
 62
   257
176
     1
 90
        1
176
     1
 90
        1
176
     1
 40
1.0
176
     1
 90
        0
176
     1
 62
     7
176
     1
 40
1.0
176
     1
 90
        1
176
     1
 90
        6
176
     1
 90
        2
176
     1
 62
     7
176
     1
 90
        5
176
     1
 90
        0
176
     1
 90
        0
176
     1
290
     0
176
     1
 90
       13
176
     1
 40
0.0
176
     1
 90
        0
176
     1
290
     0
176
     1
290
     1
176
     1
290
     1
176
     1
290
     0
176
     1
290
     0
176
     1
290
     0
176
     1
290
     0
176
     1
290
     0
176
     1
290
     0
176
     1
 90
       50
176
     1
 40
0.0
176
     1
 40
1.0
176
     1
 90
        0
176
     1
 62
    18
420
        0
176
     1
 90
       50
176
     1
 90
        3
176
     1
 62
     5
420
      255
176
     1
290
     0
176
     1
 90
       50
176
     1
 90
       50
176
     1
 90
       50
176
     1
290
     0
176
     1
 90
       50
176
     1
 62
   256
176
     0
 40
1.0
176
     0
 90
        2
176
     1
  1
strokes_ogs.tif
176
     1
290
     0
176
     1
 40
1.0
176
     1
 40
1.0
176
     1
  0
VISUALSTYLE
  5
2E
102
{ACAD_REACTORS
330
2A
102
}
330
2A
100
AcDbVisualStyle
  2
GouraudWithEdges
 70
     3
177
     3
291
     1
 70
    58
 90
        2
176
     1
 90
        2
176
     1
 90
        1
176
     1
 90
        2
176
     1
 40
0.6
176
     1
 40
30.0
176
     1
 62
     7
420
 16777215
176
     1
 90
        1
176
     1
 90
        0
176
     1
 62
     7
176
     1
 62
   257
176
     1
 90
        1
176
     1
 90
        1
176
     1
 40
1.0
176
     1
 90
        0
176
     1
 62
   257
176
     1
 40
1.0
176
     1
 90
        1
176
     1
 90
        6
176
     1
 90
        2
176
     1
 62
     7
176
     1
 90
        5
176
     1
 90
        0
176
     1
 90
        0
176
     1
290
     0
176
     1
 90
       13
176
     1
 40
0.0
176
     1
 90
        0
176
     1
290
     0
176
     1
290
     1
176
     1
290
     1
176
     1
290
     0
176
     1
290
     0
176
     1
290
     0
176
     1
290
     0
176
     1
290
     0
176
     1
290
     0
176
     1
 90
       50
176
     1
 40
0.0
176
     1
 40
1.0
176
     1
 90
        0
176
     1
 62
    18
420
        0
176
     1
 90
       50
176
     1
 90
        3
176
     1
 62
     5
420
      255
176
     1
290
     0
176
     1
 90
       50
176
     1
 90
       50
176
     1
 90
       50
176
     1
290
     0
176
     1
 90
       50
176
     1
 62
   256
176
     0
 40
1.0
176
     0
 90
        2
176
     1
  1
strokes_ogs.tif
176
     1
290
     0
176
     1
 40
1.0
176
     1
 40
1.0
176
     1
  0
VISUALSTYLE
  5
31
102
{ACAD_REACTORS
330
2A
102
}
330
2A
100
AcDbVisualStyle
  2
Hidden
 70
     6
177
     3
291
     0
 70
    58
 90
        1
176
     1
 90
        2
176
     1
 90
        2
176
     1
 90
        0
176
     1
 40
0.6
176
     1
 40
30.0
176
     1
 62
     7
420
 16777215
176
     1
 90
        2
176
     1
 90
        2
176
     1
 62
     7
176
     1
 62
   257
176
     1
 90
        2
176
     1
 90
        1
176
     1
 40
40.0
176
     1
 90
        0
176
     1
 62
   257
176
     1
 40
1.0
176
     1
 90
        1
176
     1
 90
        6
176
     1
 90
        2
176
     1
 62
     7
176
     1
 90
        3
176
     1
 90
        0
176
     1
 90
        0
176
     1
290
     0
176
     1
 90
        1
176
     1
 40
0.0
176
     1
 90
        0
176
     1
290
     0
176
     1
290
     1
176
     1
290
     1
176
     1
290
     0
176
     1
290
     0
176
     1
290
     0
176
     1
290
     0
176
     1
290
     0
176
     1
290
     0
176
     1
 90
       50
176
     1
 40
0.0
176
     1
 40
1.0
176
     1
 90
        0
176
     1
 62
    18
420
        0
176
     1
 90
       50
176
     1
 90
        3
176
     1
 62
     5
420
      255
176
     1
290
     0
176
     1
 90
       50
176
     1
 90
       50
176
     1
 90
       50
176
     1
290
     0
176
     1
 90
       50
176
     1
 62
   256
176
     0
 40
1.0
176
     0
 90
        2
176
     1
  1
strokes_ogs.tif
176
     1
290
     0
176
     1
 40
1.0
176
     1
 40
1.0
176
     1
  0
VISUALSTYLE
  5
3B
102
{ACAD_REACTORS
330
2A
102
}
330
2A
100
AcDbVisualStyle
  2
JitterOff
 70
    20
177
     3
291
     1
 70
    58
 90
        2
176
     0
 90
        2
176
     0
 90
        0
176
     0
 90
        0
176
     0
 40
0.6
176
     0
 40
30.0
176
     0
 62
     7
420
 16777215
176
     0
 90
        1
176
     0
 90
        4
176
     0
 62
     7
176
     0
 62
   257
176
     0
 90
        1
176
     0
 90
        1
176
     0
 40
1.0
176
     0
 90
       10
176
     2
 62
     7
176
     0
 40
1.0
176
     0
 90
        1
176
     0
 90
        6
176
     0
 90
        2
176
     0
 62
     7
176
     0
 90
        5
176
     0
 90
        0
176
     0
 90
        0
176
     0
290
     0
176
     0
 90
        1
176
     0
 40
0.0
176
     0
 90
        0
176
     0
290
     0
176
     0
290
     1
176
     0
290
     1
176
     0
290
     0
176
     0
290
     0
176
     0
290
     0
176
     0
290
     0
176
     0
290
     0
176
     0
290
     0
176
     0
 90
       50
176
     0
 40
0.0
176
     0
 40
1.0
176
     0
 90
        0
176
     0
 62
    18
420
        0
176
     0
 90
       50
176
     0
 90
        3
176
     0
 62
     5
420
      255
176
     0
290
     0
176
     0
 90
       50
176
     0
 90
       50
176
     0
 90
       50
176
     0
290
     0
176
     0
 90
       50
176
     0
 62
   256
176
     0
 40
1.0
176
     0
 90
        2
176
     0
  1
strokes_ogs.tif
176
     0
290
     0
176
     0
 40
1.0
176
     0
 40
1.0
176
     0
  0
VISUALSTYLE
  5
38
102
{ACAD_REACTORS
330
2A
102
}
330
2A
100
AcDbVisualStyle
  2
Linepattern
 70
    14
177
     3
291
     1
 70
    58
 90
        2
176
     1
 90
        2
176
     1
 90
        0
176
     1
 90
        0
176
     1
 40
0.6
176
     1
 40
30.0
176
     1
 62
     7
420
 16777215
176
     1
 90
        1
176
     1
 90
        4
176
     1
 62
     7
176
     1
 62
   257
176
     1
 90
        7
176
     1
 90
        7
176
     1
 40
1.0
176
     1
 90
        8
176
     1
 62
     7
176
     1
 40
1.0
176
     1
 90
        1
176
     1
 90
        6
176
     1
 90
        2
176
     1
 62
     7
176
     1
 90
        5
176
     1
 90
        0
176
     1
 90
        0
176
     1
290
     0
176
     1
 90
        1
176
     1
 40
0.0
176
     1
 90
        0
176
     1
290
     0
176
     1
290
     1
176
     1
290
     1
176
     1
290
     0
176
     1
290
     0
176
     1
290
     0
176
     1
290
     0
176
     1
290
     0
176
     1
290
     0
176
     1
 90
       50
176
     1
 40
0.0
176
     1
 40
1.0
176
     1
 90
        0
176
     1
 62
    18
420
        0
176
     1
 90
       50
176
     1
 90
        3
176
     1
 62
     5
420
      255
176
     1
290
     0
176
     1
 90
       50
176
     1
 90
       50
176
     1
 90
       50
176
     1
290
     0
176
     1
 90
       50
176
     1
 62
   256
176
     0
 40
1.0
176
     0
 90
        2
176
     1
  1
strokes_ogs.tif
176
     1
290
     0
176
     1
 40
1.0
176
     1
 40
1.0
176
     1
  0
VISUALSTYLE
  5
3C
102
{ACAD_REACTORS
330
2A
102
}
330
2A
100
AcDbVisualStyle
  2
OverhangOff
 70
    21
177
     3
291
     1
 70
    58
 90
        2
176
     0
 90
        2
176
     0
 90
        0
176
     0
 90
        0
176
     0
 40
0.6
176
     0
 40
30.0
176
     0
 62
     7
420
 16777215
176
     0
 90
        1
176
     0
 90
        4
176
     0
 62
     7
176
     0
 62
   257
176
     0
 90
        1
176
     0
 90
        1
176
     0
 40
1.0
176
     0
 90
        9
176
     2
 62
     7
176
     0
 40
1.0
176
     0
 90
        1
176
     0
 90
        6
176
     0
 90
        2
176
     0
 62
     7
176
     0
 90
        5
176
     0
 90
        0
176
     0
 90
        0
176
     0
290
     0
176
     0
 90
        1
176
     0
 40
0.0
176
     0
 90
        0
176
     0
290
     0
176
     0
290
     1
176
     0
290
     1
176
     0
290
     0
176
     0
290
     0
176
     0
290
     0
176
     0
290
     0
176
     0
290
     0
176
     0
290
     0
176
     0
 90
       50
176
     0
 40
0.0
176
     0
 40
1.0
176
     0
 90
        0
176
     0
 62
    18
420
        0
176
     0
 90
       50
176
     0
 90
        3
176
     0
 62
     5
420
      255
176
     0
290
     0
176
     0
 90
       50
176
     0
 90
       50
176
     0
 90
       50
176
     0
290
     0
176
     0
 90
       50
176
     0
 62
   256
176
     0
 40
1.0
176
     0
 90
        2
176
     0
  1
strokes_ogs.tif
176
     0
290
     0
176
     0
 40
1.0
176
     0
 40
1.0
176
     0
  0
VISUALSTYLE
  5
33
102
{ACAD_REACTORS
330
2A
102
}
330
2A
100
AcDbVisualStyle
  2
Realistic
 70
     8
177
     3
291
     0
 70
    58
 90
        2
176
     1
 90
        3
176
     1
 90
        0
176
     1
 90
        2
176
     1
 40
0.6
176
     1
 40
30.0
176
     1
 62
     7
420
 16777215
176
     1
 90
        0
176
     1
 90
        0
176
     1
 62
     7
176
     1
 62
   257
176
     1
 90
        1
176
     1
 90
        1
176
     1
 40
1.0
176
     1
 90
        8
176
     1
 62
   257
176
     1
 40
1.0
176
     1
 90
        1
176
     1
 90
        6
176
     1
 90
        2
176
     1
 62
     7
176
     1
 90
        3
176
     1
 90
        0
176
     1
 90
        0
176
     1
290
     0
176
     1
 90
       13
176
     1
 40
0.0
176
     1
 90
        0
176
     1
290
     0
176
     1
290
     1
176
     1
290
     1
176
     1
290
     0
176
     1
290
     0
176
     1
290
     0
176
     1
290
     0
176
     1
290
     0
176
     1
290
     0
176
     1
 90
       50
176
     1
 40
0.0
176
     1
 40
1.0
176
     1
 90
        0
176
     1
 62
    18
420
        0
176
     1
 90
       50
176
     1
 90
        3
176
     1
 62
     5
420
      255
176
     1
290
     0
176
     1
 90
       50
176
     1
 90
       50
176
     1
 90
       50
176
     1
290
     0
176
     1
 90
       50
176
     1
 62
   256
176
     0
 40
1.0
176
     0
 90
        2
176
     1
  1
strokes_ogs.tif
176
     1
290
     0
176
     1
 40
1.0
176
     1
 40
1.0
176
     1
  0
VISUALSTYLE
  5
42
102
{ACAD_REACTORS
330
2A
102
}
330
2A
100
AcDbVisualStyle
  2
Shaded
 70
    27
177
     3
291
     0
 70
    58
 90
        2
176
     1
 90
        2
176
     1
 90
        1
176
     1
 90
        2
176
     1
 40
0.6
176
     1
 40
30.0
176
     1
 62
     7
420
 16777215
176
     1
 90
        0
176
     1
 90
        4
176
     1
 62
     7
176
     1
 62
   257
176
     1
 90
        1
176
     1
 90
        1
176
     1
 40
1.0
176
     1
 90
        8
176
     1
 62
   257
176
     1
 40
1.0
176
     1
 90
        1
176
     1
 90
        6
176
     1
 90
        2
176
     1
 62
     8
420
  7895160
176
     1
 90
        3
176
     1
 90
        0
176
     1
 90
        0
176
     1
290
     0
176
     1
 90
        5
176
     1
 40
0.0
176
     1
 90
        0
176
     1
290
     0
176
     1
290
     1
176
     1
290
     1
176
     1
290
     0
176
     1
290
     0
176
     1
290
     0
176
     1
290
     0
176
     1
290
     0
176
     1
290
     0
176
     1
 90
       50
176
     1
 40
0.0
176
     1
 40
1.0
176
     1
 90
        0
176
     1
 62
    18
420
        0
176
     1
 90
       50
176
     1
 90
        3
176
     1
 62
     5
420
      255
176
     1
290
     0
176
     1
 90
       50
176
     1
 90
       50
176
     1
 90
       50
176
     1
290
     0
176
     1
 90
       50
176
     1
 62
   256
176
     0
 40
1.0
176
     0
 90
        2
176
     1
  1
strokes_ogs.tif
176
     1
290
     0
176
     1
 40
1.0
176
     1
 40
1.0
176
     1
  0
VISUALSTYLE
  5
41
102
{ACAD_REACTORS
330
2A
102
}
330
2A
100
AcDbVisualStyle
  2
Shaded with edges
 70
    26
177
     3
291
     0
 70
    58
 90
        2
176
     1
 90
        2
176
     1
 90
        1
176
     1
 90
        2
176
     1
 40
0.6
176
     1
 40
30.0
176
     1
 62
     7
420
 16777215
176
     1
 90
        1
176
     1
 90
       10
176
     1
 62
     7
176
     1
 62
   257
176
     1
 90
        2
176
     1
 90
        1
176
     1
 40
1.0
176
     1
 90
        8
176
     1
 62
   257
176
     1
 40
1.0
176
     1
 90
        1
176
     1
 90
        6
176
     1
 90
        2
176
     1
 62
     7
176
     1
 90
        3
176
     1
 90
        0
176
     1
 90
        0
176
     1
290
     0
176
     1
 90
        5
176
     1
 40
0.0
176
     1
 90
        0
176
     1
290
     0
176
     1
290
     1
176
     1
290
     1
176
     1
290
     0
176
     1
290
     0
176
     1
290
     0
176
     1
290
     0
176
     1
290
     0
176
     1
290
     0
176
     1
 90
       50
176
     1
 40
0.0
176
     1
 40
1.0
176
     1
 90
        0
176
     1
 62
    18
420
        0
176
     1
 90
       50
176
     1
 90
        3
176
     1
 62
     5
420
      255
176
     1
290
     0
176
     1
 90
       50
176
     1
 90
       50
176
     1
 90
       50
176
     1
290
     0
176
     1
 90
       50
176
     1
 62
   256
176
     0
 40
1.0
176
     0
 90
        2
176
     1
  1
strokes_ogs.tif
176
     1
290
     0
176
     1
 40
1.0
176
     1
 40
1.0
176
     1
  0
VISUALSTYLE
  5
3E
102
{ACAD_REACTORS
330
2A
102
}
330
2A
100
AcDbVisualStyle
  2
Shades of Gray
 70
    23
177
     3
291
     0
 70
    58
 90
        2
176
     1
 90
        2
176
     1
 90
        3
176
     1
 90
        0
176
     1
 40
0.6
176
     1
 40
30.0
176
     1
 62
     7
420
 16777215
176
     1
 90
        2
176
     1
 90
        2
176
     1
 62
     7
176
     1
 62
     7
176
     1
 90
        1
176
     1
 90
        1
176
     1
 40
40.0
176
     1
 90
        8
176
     1
 62
     7
176
     1
 40
1.0
176
     1
 90
        1
176
     1
 90
        6
176
     1
 90
        2
176
     1
 62
     7
176
     1
 90
        3
176
     1
 90
        0
176
     1
 90
        0
176
     1
290
     0
176
     1
 90
        1
176
     1
 40
0.0
176
     1
 90
        0
176
     1
290
     0
176
     1
290
     1
176
     1
290
     1
176
     1
290
     0
176
     1
290
     0
176
     1
290
     0
176
     1
290
     0
176
     1
290
     0
176
     1
290
     0
176
     1
 90
       50
176
     1
 40
0.0
176
     1
 40
1.0
176
     1
 90
        0
176
     1
 62
    18
420
        0
176
     1
 90
       50
176
     1
 90
        3
176
     1
 62
     5
420
      255
176
     1
290
     0
176
     1
 90
       50
176
     1
 90
       50
176
     1
 90
       50
176
     1
290
     0
176
     1
 90
       50
176
     1
 62
   256
176
     0
 40
1.0
176
     0
 90
        2
176
     1
  1
strokes_ogs.tif
176
     1
290
     0
176
     1
 40
1.0
176
     1
 40
1.0
176
     1
  0
VISUALSTYLE
  5
3F
102
{ACAD_REACTORS
330
2A
102
}
330
2A
100
AcDbVisualStyle
  2
Sketchy
 70
    24
177
     3
291
     0
 70
    58
 90
        1
176
     1
 90
        2
176
     1
 90
        2
176
     1
 90
        0
176
     1
 40
0.6
176
     1
 40
30.0
176
     1
 62
     7
420
 16777215
176
     1
 90
        2
176
     1
 90
        2
176
     1
 62
     7
176
     1
 62
     7
176
     1
 90
        1
176
     1
 90
        1
176
     1
 40
40.0
176
     1
 90
       11
176
     1
 62
     7
176
     1
 40
1.0
176
     1
 90
        1
176
     1
 90
        6
176
     1
 90
        2
176
     1
 62
     7
176
     1
 90
        6
176
     1
 90
        0
176
     1
 90
        0
176
     1
290
     0
176
     1
 90
        1
176
     1
 40
0.0
176
     1
 90
        0
176
     1
290
     0
176
     1
290
     1
176
     1
290
     1
176
     1
290
     0
176
     1
290
     0
176
     1
290
     0
176
     1
290
     0
176
     1
290
     0
176
     1
290
     0
176
     1
 90
       50
176
     1
 40
0.0
176
     1
 40
1.0
176
     1
 90
        0
176
     1
 62
    18
420
        0
176
     1
 90
       50
176
     1
 90
        3
176
     1
 62
     5
420
      255
176
     1
290
     0
176
     1
 90
       50
176
     1
 90
       50
176
     1
 90
       50
176
     1
290
     0
176
     1
 90
       50
176
     1
 62
   256
176
     0
 40
1.0
176
     0
 90
        2
176
     1
  1
strokes_ogs.tif
176
     1
290
     0
176
     1
 40
1.0
176
     1
 40
1.0
176
     1
  0
VISUALSTYLE
  5
37
102
{ACAD_REACTORS
330
2A
102
}
330
2A
100
AcDbVisualStyle
  2
Thicken
 70
    13
177
     3
291
     1
 70
    58
 90
        2
176
     1
 90
        2
176
     1
 90
        0
176
     1
 90
        0
176
     1
 40
0.6
176
     1
 40
30.0
176
     1
 62
     7
420
 16777215
176
     1
 90
        1
176
     1
 90
        4
176
     1
 62
     7
176
     1
 62
   257
176
     1
 90
        1
176
     1
 90
        1
176
     1
 40
1.0
176
     1
 90
       12
176
     1
 62
     7
176
     1
 40
1.0
176
     1
 90
        1
176
     1
 90
        6
176
     1
 90
        2
176
     1
 62
     7
176
     1
 90
        5
176
     1
 90
        0
176
     1
 90
        0
176
     1
290
     0
176
     1
 90
        1
176
     1
 40
0.0
176
     1
 90
        0
176
     1
290
     0
176
     1
290
     1
176
     1
290
     1
176
     1
290
     0
176
     1
290
     0
176
     1
290
     0
176
     1
290
     0
176
     1
290
     0
176
     1
290
     0
176
     1
 90
       50
176
     1
 40
0.0
176
     1
 40
1.0
176
     1
 90
        0
176
     1
 62
    18
420
        0
176
     1
 90
       50
176
     1
 90
        3
176
     1
 62
     5
420
      255
176
     1
290
     0
176
     1
 90
       50
176
     1
 90
       50
176
     1
 90
       50
176
     1
290
     0
176
     1
 90
       50
176
     1
 62
   256
176
     0
 40
1.0
176
     0
 90
        2
176
     1
  1
strokes_ogs.tif
176
     1
290
     0
176
     1
 40
1.0
176
     1
 40
1.0
176
     1
  0
VISUALSTYLE
  5
30
102
{ACAD_REACTORS
330
2A
102
}
330
2A
100
AcDbVisualStyle
  2
Wireframe
 70
     5
177
     3
291
     0
 70
    58
 90
        0
176
     1
 90
        2
176
     1
 90
        0
176
     1
 90
        0
176
     1
 40
0.6
176
     1
 40
30.0
176
     1
 62
     7
420
 16777215
176
     1
 90
        1
176
     1
 90
        4
176
     1
 62
     7
176
     1
 62
   257
176
     1
 90
        1
176
     1
 90
        1
176
     1
 40
1.0
176
     1
 90
        0
176
     1
 62
   257
176
     1
 40
1.0
176
     1
 90
        1
176
     1
 90
        6
176
     1
 90
        2
176
     1
 62
     7
176
     1
 90
        3
176
     1
 90
        0
176
     1
 90
        0
176
     1
290
     0
176
     1
 90
        1
176
     1
 40
0.0
176
     1
 90
        0
176
     1
290
     0
176
     1
290
     1
176
     1
290
     1
176
     1
290
     0
176
     1
290
     0
176
     1
290
     0
176
     1
290
     0
176
     1
290
     0
176
     1
290
     0
176
     1
 90
       50
176
     1
 40
0.0
176
     1
 40
1.0
176
     1
 90
        0
176
     1
 62
    18
420
        0
176
     1
 90
       50
176
     1
 90
        3
176
     1
 62
     5
420
      255
176
     1
290
     0
176
     1
 90
       50
176
     1
 90
       50
176
     1
 90
       50
176
     1
290
     0
176
     1
 90
       50
176
     1
 62
   256
176
     0
 40
1.0
176
     0
 90
        2
176
     1
  1
strokes_ogs.tif
176
     1
290
     0
176
     1
 40
1.0
176
     1
 40
1.0
176
     1
  0
VISUALSTYLE
  5
40
102
{ACAD_REACTORS
330
2A
102
}
330
2A
100
AcDbVisualStyle
  2
X-Ray
 70
    25
177
     3
291
     0
 70
    58
 90
        2
176
     1
 90
        2
176
     1
 90
        1
176
     1
 90
        1
176
     1
 40
0.5
176
     1
 40
30.0
176
     1
 62
     7
420
 16777215
176
     1
 90
        1
176
     1
 90
        0
176
     1
 62
     7
176
     1
 62
   257
176
     1
 90
        1
176
     1
 90
        1
176
     1
 40
1.0
176
     1
 90
        8
176
     1
 62
     7
176
     1
 40
1.0
176
     1
 90
        1
176
     1
 90
        6
176
     1
 90
        2
176
     1
 62
     7
176
     1
 90
        3
176
     1
 90
        0
176
     1
 90
        0
176
     1
290
     0
176
     1
 90
       13
176
     1
 40
0.0
176
     1
 90
        0
176
     1
290
     0
176
     1
290
     1
176
     1
290
     1
176
     1
290
     0
176
     1
290
     0
176
     1
290
     0
176
     1
290
     0
176
     1
290
     0
176
     1
290
     0
176
     1
 90
       50
176
     1
 40
0.0
176
     1
 40
1.0
176
     1
 90
        0
176
     1
 62
    18
420
        0
176
     1
 90
       50
176
     1
 90
        3
176
     1
 62
     5
420
      255
176
     1
290
     0
176
     1
 90
       50
176
     1
 90
       50
176
     1
 90
       50
176
     1
290
     0
176
     1
 90
       50
176
     1
 62
   256
176
     0
 40
1.0
176
     0
 90
        2
176
     1
  1
strokes_ogs.tif
176
     1
290
     0
176
     1
 40
1.0
176
     1
 40
1.0
176
     1
  0
DICTIONARYVAR
  5
72
102
{ACAD_REACTORS
330
71
102
}
330
71
100
DictionaryVariables
280
     0
  1
1:1
  0
DICTIONARYVAR
  5
77
102
{ACAD_REACTORS
330
71
102
}
330
71
100
DictionaryVariables
280
     0
  1
Standard
  0
DICTIONARYVAR
  5
76
102
{ACAD_REACTORS
330
71
102
}
330
71
100
DictionaryVariables
280
     0
  1
Standard
  0
DICTIONARY
  5
73
330
5A
100
AcDbDictionary
280
     1
281
     1
  3
ACAD_ROUNDTRIP_2008_TABLESTYLE_CELLSTYLEMAP
360
74
  0
CELLSTYLEMAP
  5
74
102
{ACAD_REACTORS
330
73
102
}
330
73
100
AcDbCellStyleMap
 90
        3
300
CELLSTYLE
  1
TABLEFORMAT_BEGIN
 90
        5
170
     1
 91
        0
 92
    32768
 62
   257
 93
        1
300
CONTENTFORMAT
  1
CONTENTFORMAT_BEGIN
 90
        0
 91
        0
 92
        4
 93
        0
300

 40
0.0
140
1.0
 94
        5
 62
     0
340
11
144
0.25
309
CONTENTFORMAT_END
171
     1
301
MARGIN
  1
CELLMARGIN_BEGIN
 40
0.06
 40
0.06
 40
0.06
 40
0.06
 40
0.06
 40
0.06
309
CELLMARGIN_END
 94
        6
 95
        1
302
GRIDFORMAT
  1
GRIDFORMAT_BEGIN
 90
        0
 91
        1
 62
     0
 92
       -2
340
14
 93
        0
 40
0.045
309
GRIDFORMAT_END
 95
        2
302
GRIDFORMAT
  1
GRIDFORMAT_BEGIN
 90
        0
 91
        1
 62
     0
 92
       -2
340
14
 93
        0
 40
0.045
309
GRIDFORMAT_END
 95
        4
302
GRIDFORMAT
  1
GRIDFORMAT_BEGIN
 90
        0
 91
        1
 62
     0
 92
       -2
340
14
 93
        0
 40
0.045
309
GRIDFORMAT_END
 95
        8
302
GRIDFORMAT
  1
GRIDFORMAT_BEGIN
 90
        0
 91
        1
 62
     0
 92
       -2
340
14
 93
        0
 40
0.045
309
GRIDFORMAT_END
 95
       16
302
GRIDFORMAT
  1
GRIDFORMAT_BEGIN
 90
        0
 91
        1
 62
     0
 92
       -2
340
14
 93
        0
 40
0.045
309
GRIDFORMAT_END
 95
       32
302
GRIDFORMAT
  1
GRIDFORMAT_BEGIN
 90
        0
 91
        1
 62
     0
 92
       -2
340
14
 93
        0
 40
0.045
309
GRIDFORMAT_END
309
TABLEFORMAT_END
  1
CELLSTYLE_BEGIN
 90
        1
 91
        1
300
_TITLE
309
CELLSTYLE_END
300
CELLSTYLE
  1
TABLEFORMAT_BEGIN
 90
        5
170
     1
 91
        0
 92
        0
 62
   257
 93
        1
300
CONTENTFORMAT
  1
CONTENTFORMAT_BEGIN
 90
        0
 91
        0
 92
        4
 93
        0
300

 40
0.0
140
1.0
 94
        5
 62
     0
340
11
144
0.18
309
CONTENTFORMAT_END
171
     1
301
MARGIN
  1
CELLMARGIN_BEGIN
 40
0.06
 40
0.06
 40
0.06
 40
0.06
 40
0.06
 40
0.06
309
CELLMARGIN_END
 94
        6
 95
        1
302
GRIDFORMAT
  1
GRIDFORMAT_BEGIN
 90
        0
 91
        1
 62
     0
 92
       -2
340
14
 93
        0
 40
0.045
309
GRIDFORMAT_END
 95
        2
302
GRIDFORMAT
  1
GRIDFORMAT_BEGIN
 90
        0
 91
        1
 62
     0
 92
       -2
340
14
 93
        0
 40
0.045
309
GRIDFORMAT_END
 95
        4
302
GRIDFORMAT
  1
GRIDFORMAT_BEGIN
 90
        0
 91
        1
 62
     0
 92
       -2
340
14
 93
        0
 40
0.045
309
GRIDFORMAT_END
 95
        8
302
GRIDFORMAT
  1
GRIDFORMAT_BEGIN
 90
        0
 91
        1
 62
     0
 92
       -2
340
14
 93
        0
 40
0.045
309
GRIDFORMAT_END
 95
       16
302
GRIDFORMAT
  1
GRIDFORMAT_BEGIN
 90
        0
 91
        1
 62
     0
 92
       -2
340
14
 93
        0
 40
0.045
309
GRIDFORMAT_END
 95
       32
302
GRIDFORMAT
  1
GRIDFORMAT_BEGIN
 90
        0
 91
        1
 62
     0
 92
       -2
340
14
 93
        0
 40
0.045
309
GRIDFORMAT_END
309
TABLEFORMAT_END
  1
CELLSTYLE_BEGIN
 90
        2
 91
        1
300
_HEADER
309
CELLSTYLE_END
300
CELLSTYLE
  1
TABLEFORMAT_BEGIN
 90
        5
170
     1
 91
        0
 92
        0
 62
   257
 93
        1
300
CONTENTFORMAT
  1
CONTENTFORMAT_BEGIN
 90
        0
 91
        0
 92
        4
 93
        0
300

 40
0.0
140
1.0
 94
        2
 62
     0
340
11
144
0.18
309
CONTENTFORMAT_END
171
     1
301
MARGIN
  1
CELLMARGIN_BEGIN
 40
0.06
 40
0.06
 40
0.06
 40
0.06
 40
0.06
 40
0.06
309
CELLMARGIN_END
 94
        6
 95
        1
302
GRIDFORMAT
  1
GRIDFORMAT_BEGIN
 90
        0
 91
        1
 62
     0
 92
       -2
340
14
 93
        0
 40
0.045
309
GRIDFORMAT_END
 95
        2
302
GRIDFORMAT
  1
GRIDFORMAT_BEGIN
 90
        0
 91
        1
 62
     0
 92
       -2
340
14
 93
        0
 40
0.045
309
GRIDFORMAT_END
 95
        4
302
GRIDFORMAT
  1
GRIDFORMAT_BEGIN
 90
        0
 91
        1
 62
     0
 92
       -2
340
14
 93
        0
 40
0.045
309
GRIDFORMAT_END
 95
        8
302
GRIDFORMAT
  1
GRIDFORMAT_BEGIN
 90
        0
 91
        1
 62
     0
 92
       -2
340
14
 93
        0
 40
0.045
309
GRIDFORMAT_END
 95
       16
302
GRIDFORMAT
  1
GRIDFORMAT_BEGIN
 90
        0
 91
        1
 62
     0
 92
       -2
340
14
 93
        0
 40
0.045
309
GRIDFORMAT_END
 95
       32
302
GRIDFORMAT
  1
GRIDFORMAT_BEGIN
 90
        0
 91
        1
 62
     0
 92
       -2
340
14
 93
        0
 40
0.045
309
GRIDFORMAT_END
309
TABLEFORMAT_END
  1
CELLSTYLE_BEGIN
 90
        3
 91
        2
300
_DATA
309
CELLSTYLE_END
  0
ENDSEC
  0
EOF
