  0
SECTION
  2
HEADER
  9
$ACADVER
  1
AC1032
  9
$ACADMAINTVER
 90
       55
  9
$DWGCODEPAGE
  3
ANSI_1251
  9
$LASTSAVEDBY
  1
torde
  9
$REQUIREDVERSIONS
160
                 0
  9
$INSBASE
 10
0.0
 20
0.0
 30
0.0
  9
$EXTMIN
 10
-23.34693
 20
-18.77691
 30
0.0
  9
$EXTMAX
 10
23.94002
 20
23.64123
 30
0.0
  9
$LIMMIN
 10
0.0
 20
0.0
  9
$LIMMAX
 10
12.0
 20
9.0
  9
$ORTHOMODE
 70
     0
  9
$REGENMODE
 70
     1
  9
$FILLMODE
 70
     1
  9
$QTEXTMODE
 70
     0
  9
$MIRRTEXT
 70
     1
  9
$LTSCALE
 40
1.0
  9
$ATTMODE
 70
     1
  9
$TEXTSIZE
 40
0.2
  9
$TRACEWID
 40
0.05
  9
$TEXTSTYLE
  7
Standard
  9
$CLAYER
  8
0
  9
$CELTYPE
  6
ByLayer
  9
$CECOLOR
 62
   256
  9
$CELTSCALE
 40
1.0
  9
$DISPSILH
 70
     0
  9
$DIMSCALE
 40
1.0
  9
$DIMASZ
 40
0.18
  9
$DIMEXO
 40
0.0625
  9
$DIMDLI
 40
0.38
  9
$DIMRND
 40
0.0
  9
$DIMDLE
 40
0.0
  9
$DIMEXE
 40
0.18
  9
$DIMTP
 40
0.0
  9
$DIMTM
 40
0.0
  9
$DIMTXT
 40
0.18
  9
$DIMCEN
 40
0.09
  9
$DIMTSZ
 40
0.0
  9
$DIMTOL
 70
     0
  9
$DIMLIM
 70
     0
  9
$DIMTIH
 70
     1
  9
$DIMTOH
 70
     1
  9
$DIMSE1
 70
     0
  9
$DIMSE2
 70
     0
  9
$DIMTAD
 70
     0
  9
$DIMZIN
 70
     0
  9
$DIMBLK
  1

  9
$DIMASO
 70
     1
  9
$DIMSHO
 70
     1
  9
$DIMPOST
  1

  9
$DIMAPOST
  1

  9
$DIMALT
 70
     0
  9
$DIMALTD
 70
     2
  9
$DIMALTF
 40
25.4
  9
$DIMLFAC
 40
1.0
  9
$DIMTOFL
 70
     0
  9
$DIMTVP
 40
0.0
  9
$DIMTIX
 70
     0
  9
$DIMSOXD
 70
     0
  9
$DIMSAH
 70
     0
  9
$DIMBLK1
  1

  9
$DIMBLK2
  1

  9
$DIMSTYLE
  2
Standard
  9
$DIMCLRD
 70
     0
  9
$DIMCLRE
 70
     0
  9
$DIMCLRT
 70
     0
  9
$DIMTFAC
 40
1.0
  9
$DIMGAP
 40
0.09
  9
$DIMJUST
 70
     0
  9
$DIMSD1
 70
     0
  9
$DIMSD2
 70
     0
  9
$DIMTOLJ
 70
     1
  9
$DIMTZIN
 70
     0
  9
$DIMALTZ
 70
     0
  9
$DIMALTTZ
 70
     0
  9
$DIMUPT
 70
     0
  9
$DIMDEC
 70
     4
  9
$DIMTDEC
 70
     4
  9
$DIMALTU
 70
     2
  9
$DIMALTTD
 70
     2
  9
$DIMTXSTY
  7
Standard
  9
$DIMAUNIT
 70
     0
  9
$DIMADEC
 70
     0
  9
$DIMALTRND
 40
0.0
  9
$DIMAZIN
 70
     0
  9
$DIMDSEP
 70
    46
  9
$DIMATFIT
 70
     3
  9
$DIMFRAC
 70
     0
  9
$DIMLDRBLK
  1

  9
$DIMLUNIT
 70
     2
  9
$DIMLWD
 70
    -2
  9
$DIMLWE
 70
    -2
  9
$DIMTMOVE
 70
     0
  9
$DIMFXL
 40
1.0
  9
$DIMFXLON
 70
     0
  9
$DIMJOGANG
 40
0.7853981633974483
  9
$DIMTFILL
 70
     0
  9
$DIMTFILLCLR
 70
     0
  9
$DIMARCSYM
 70
     0
  9
$DIMLTYPE
  6

  9
$DIMLTEX1
  6

  9
$DIMLTEX2
  6

  9
$DIMTXTDIRECTION
 70
     0
  9
$LUNITS
 70
     2
  9
$LUPREC
 70
     4
  9
$SKETCHINC
 40
0.1
  9
$FILLETRAD
 40
0.0
  9
$AUNITS
 70
     0
  9
$AUPREC
 70
     0
  9
$MENU
  1
.
  9
$ELEVATION
 40
0.0
  9
$PELEVATION
 40
0.0
  9
$THICKNESS
 40
0.0
  9
$LIMCHECK
 70
     0
  9
$CHAMFERA
 40
0.0
  9
$CHAMFERB
 40
0.0
  9
$CHAMFERC
 40
0.0
  9
$CHAMFERD
 40
0.0
  9
$SKPOLY
 70
     0
  9
$TDCREATE
 40
2461096.628642535
  9
$TDUCREATE
 40
2461096.503642535
  9
$TDUPDATE
 40
2461096.628642535
  9
$TDUUPDATE
 40
2461096.503642535
  9
$TDINDWG
 40
0.0000000116
  9
$TDUSRTIMER
 40
0.0000000116
  9
$USRTIMER
 70
     1
  9
$ANGBASE
 50
0.0
  9
$ANGDIR
 70
     0
  9
$PDMODE
 70
     0
  9
$PDSIZE
 40
0.0
  9
$PLINEWID
 40
0.0
  9
$SPLFRAME
 70
     0
  9
$SPLINETYPE
 70
     6
  9
$SPLINESEGS
 70
     8
  9
$HANDSEED
  5
B1
  9
$SURFTAB1
 70
     6
  9
$SURFTAB2
 70
     6
  9
$SURFTYPE
 70
     6
  9
$SURFU
 70
     6
  9
$SURFV
 70
     6
  9
$UCSBASE
  2

  9
$UCSNAME
  2

  9
$UCSORG
 10
0.0
 20
0.0
 30
0.0
  9
$UCSXDIR
 10
1.0
 20
0.0
 30
0.0
  9
$UCSYDIR
 10
0.0
 20
1.0
 30
0.0
  9
$UCSORTHOREF
  2

  9
$UCSORTHOVIEW
 70
     0
  9
$UCSORGTOP
 10
0.0
 20
0.0
 30
0.0
  9
$UCSORGBOTTOM
 10
0.0
 20
0.0
 30
0.0
  9
$UCSORGLEFT
 10
0.0
 20
0.0
 30
0.0
  9
$UCSORGRIGHT
 10
0.0
 20
0.0
 30
0.0
  9
$UCSORGFRONT
 10
0.0
 20
0.0
 30
0.0
  9
$UCSORGBACK
 10
0.0
 20
0.0
 30
0.0
  9
$PUCSBASE
  2

  9
$PUCSNAME
  2

  9
$PUCSORG
 10
0.0
 20
0.0
 30
0.0
  9
$PUCSXDIR
 10
1.0
 20
0.0
 30
0.0
  9
$PUCSYDIR
 10
0.0
 20
1.0
 30
0.0
  9
$PUCSORTHOREF
  2

  9
$PUCSORTHOVIEW
 70
     0
  9
$PUCSORGTOP
 10
0.0
 20
0.0
 30
0.0
  9
$PUCSORGBOTTOM
 10
0.0
 20
0.0
 30
0.0
  9
$PUCSORGLEFT
 10
0.0
 20
0.0
 30
0.0
  9
$PUCSORGRIGHT
 10
0.0
 20
0.0
 30
0.0
  9
$PUCSORGFRONT
 10
0.0
 20
0.0
 30
0.0
  9
$PUCSORGBACK
 10
0.0
 20
0.0
 30
0.0
  9
$USERI1
 70
     0
  9
$USERI2
 70
     0
  9
$USERI3
 70
     0
  9
$USERI4
 70
     0
  9
$USERI5
 70
     0
  9
$USERR1
 40
0.0
  9
$USERR2
 40
0.0
  9
$USERR3
 40
0.0
  9
$USERR4
 40
0.0
  9
$USERR5
 40
0.0
  9
$WORLDVIEW
 70
     1
  9
$SHADEDGE
 70
     3
  9
$SHADEDIF
 70
    70
  9
$TILEMODE
 70
     1
  9
$MAXACTVP
 70
    64
  9
$PINSBASE
 10
0.0
 20
0.0
 30
0.0
  9
$PLIMCHECK
 70
     0
  9
$PEXTMIN
 10
1.000000000000000E+20
 20
1.000000000000000E+20
 30
1.000000000000000E+20
  9
$PEXTMAX
 10
-1.000000000000000E+20
 20
-1.000000000000000E+20
 30
-1.000000000000000E+20
  9
$PLIMMIN
 10
0.0
 20
0.0
  9
$PLIMMAX
 10
12.0
 20
9.0
  9
$UNITMODE
 70
     0
  9
$VISRETAIN
 70
     1
  9
$PLINEGEN
 70
     0
  9
$PSLTSCALE
 70
     1
  9
$TREEDEPTH
 70
  3020
  9
$CMLSTYLE
  2
Standard
  9
$CMLJUST
 70
     0
  9
$CMLSCALE
 40
1.0
  9
$PROXYGRAPHICS
 70
     1
  9
$MEASUREMENT
 70
     0
  9
$CELWEIGHT
370
    -1
  9
$ENDCAPS
280
     0
  9
$JOINSTYLE
280
     0
  9
$LWDISPLAY
290
     0
  9
$INSUNITS
 70
     5
  9
$HYPERLINKBASE
  1

  9
$STYLESHEET
  1

  9
$XEDIT
290
     1
  9
$CEPSNTYPE
380
     0
  9
$PSTYLEMODE
290
     1
  9
$FINGERPRINTGUID
  2
{89cd7c13-2f30-4e3e-bb70-bb6f8fd45b11}
  9
$VERSIONGUID
  2
{FAEB1C32-E019-11D5-929B-00C0DF256EC4}
  9
$EXTNAMES
290
     1
  9
$PSVPSCALE
 40
0.0
  9
$OLESTARTUP
290
     0
  9
$SORTENTS
280
   127
  9
$INDEXCTL
280
     0
  9
$HIDETEXT
280
     1
  9
$XCLIPFRAME
280
     2
  9
$HALOGAP
280
     0
  9
$OBSCOLOR
 70
   257
  9
$OBSLTYPE
280
     0
  9
$INTERSECTIONDISPLAY
280
     0
  9
$INTERSECTIONCOLOR
 70
   257
  9
$DIMASSOC
280
     2
  9
$PROJECTNAME
  1

  9
$CAMERADISPLAY
290
     0
  9
$LENSLENGTH
 40
50.0
  9
$CAMERAHEIGHT
 40
0.0
  9
$STEPSPERSEC
 40
2.0
  9
$STEPSIZE
 40
6.0
  9
$3DDWFPREC
 40
2.0
  9
$PSOLWIDTH
 40
0.25
  9
$PSOLHEIGHT
 40
4.0
  9
$LOFTANG1
 40
1.570796326794897
  9
$LOFTANG2
 40
1.570796326794897
  9
$LOFTMAG1
 40
0.0
  9
$LOFTMAG2
 40
0.0
  9
$LOFTPARAM
 70
     7
  9
$LOFTNORMALS
280
     1
  9
$LATITUDE
 40
37.795
  9
$LONGITUDE
 40
-122.394
  9
$NORTHDIRECTION
 40
0.0
  9
$TIMEZONE
 70
 -8000
  9
$LIGHTGLYPHDISPLAY
280
     1
  9
$TILEMODELIGHTSYNCH
280
     1
  9
$CMATERIAL
347
44
  9
$SOLIDHIST
280
     0
  9
$SHOWHIST
280
     1
  9
$DWFFRAME
280
     2
  9
$DGNFRAME
280
     2
  9
$REALWORLDSCALE
290
     1
  9
$INTERFERECOLOR
 62
   256
  9
$CSHADOW
280
     0
  9
$SHADOWPLANELOCATION
 40
0.0
  0
ENDSEC
  0
SECTION
  2
CLASSES
  0
CLASS
  1
ACDBDICTIONARYWDFLT
  2
AcDbDictionaryWithDefault
  3
ObjectDBX Classes
 90
        0
 91
        3
280
     0
281
     0
  0
CLASS
  1
VISUALSTYLE
  2
AcDbVisualStyle
  3
ObjectDBX Classes
 90
     4095
 91
        3
280
     0
281
     0
  0
CLASS
  1
MATERIAL
  2
AcDbMaterial
  3
ObjectDBX Classes
 90
     1153
 91
        3
280
     0
281
     0
  0
CLASS
  1
SCALE
  2
AcDbScale
  3
ObjectDBX Classes
 90
     1153
 91
        3
280
     0
281
     0
  0
CLASS
  1
TABLESTYLE
  2
AcDbTableStyle
  3
ObjectDBX Classes
 90
     4095
 91
        3
280
     0
281
     0
  0
CLASS
  1
MLEADERSTYLE
  2
AcDbMLeaderStyle
  3
ACDB_MLEADERSTYLE_CLASS
 90
     4095
 91
        3
280
     0
281
     0
  0
CLASS
  1
SUN
  2
AcDbSun
  3
SCENEOE
 90
     1153
 91
        3
280
     0
281
     0
  0
CLASS
  1
DICTIONARYVAR
  2
AcDbDictionaryVar
  3
ObjectDBX Classes
 90
        0
 91
        3
280
     0
281
     0
  0
CLASS
  1
CELLSTYLEMAP
  2
AcDbCellStyleMap
  3
ObjectDBX Classes
 90
     1152
 91
        3
280
     0
281
     0
  0
ENDSEC
  0
SECTION
  2
TABLES
  0
TABLE
  2
VPORT
  5
8
330
0
100
AcDbSymbolTable
 70
     1
  0
VPORT
  5
29
330
8
100
AcDbSymbolTableRecord
100
AcDbViewportTableRecord
  2
*Active
 70
     0
 10
0.0
 20
0.0
 11
1.0
 21
1.0
 12
10.42990654205607
 22
4.5
 13
0.0
 23
0.0
 14
0.5
 24
0.5
 15
0.5
 25
0.5
 16
0.0
 26
0.0
 36
1.0
 17
0.0
 27
0.0
 37
0.0
 40
9.0
 41
1.972972972850329
 42
50.0
 43
0.0
 44
0.0
 50
0.0
 51
0.0
 71
     0
 72
   100
 73
     1
 74
     3
 75
     0
 76
     0
 77
     0
 78
     0
281
     0
 65
     1
110
0.0
120
0.0
130
0.0
111
1.0
121
0.0
131
0.0
112
0.0
122
1.0
132
0.0
 79
     0
146
0.0
348
2F
 60
     3
 61
     5
292
     1
282
     1
141
0.0
142
0.0
 63
   250
361
5D
  0
ENDTAB
  0
TABLE
  2
LTYPE
  5
5
330
0
100
AcDbSymbolTable
 70
     1
  0
LTYPE
  5
14
330
5
100
AcDbSymbolTableRecord
100
AcDbLinetypeTableRecord
  2
ByBlock
 70
     0
  3

 72
    65
 73
     0
 40
0.0
  0
LTYPE
  5
15
330
5
100
AcDbSymbolTableRecord
100
AcDbLinetypeTableRecord
  2
ByLayer
 70
     0
  3

 72
    65
 73
     0
 40
0.0
  0
LTYPE
  5
16
330
5
100
AcDbSymbolTableRecord
100
AcDbLinetypeTableRecord
  2
Continuous
 70
     0
  3
Solid line
 72
    65
 73
     0
 40
0.0
  0
ENDTAB
  0
TABLE
  2
LAYER
  5
2
330
0
100
AcDbSymbolTable
 70
     2
  0
LAYER
  5
10
330
2
100
AcDbSymbolTableRecord
100
AcDbLayerTableRecord
  2
0
 70
     0
 62
     7
  6
Continuous
370
    -3
390
F
347
46
348
0
  0
LAYER
  5
5F
330
2
100
AcDbSymbolTableRecord
100
AcDbLayerTableRecord
  2
Layer 1
 70
     0
 62
     7
  6
Continuous
370
    -3
390
F
347
46
348
0
  0
ENDTAB
  0
TABLE
  2
STYLE
  5
3
330
0
100
AcDbSymbolTable
 70
     1
  0
STYLE
  5
11
330
3
100
AcDbSymbolTableRecord
100
AcDbTextStyleTableRecord
  2
Standard
 70
     0
 40
0.0
 41
1.0
 50
0.0
 71
     0
 42
0.2
  3
txt
  4

  0
ENDTAB
  0
TABLE
  2
VIEW
  5
6
330
0
100
AcDbSymbolTable
 70
     0
  0
ENDTAB
  0
TABLE
  2
UCS
  5
7
330
0
100
AcDbSymbolTable
 70
     0
  0
ENDTAB
  0
TABLE
  2
APPID
  5
9
330
0
100
AcDbSymbolTable
 70
     2
  0
APPID
  5
12
330
9
100
AcDbSymbolTableRecord
100
AcDbRegAppTableRecord
  2
ACAD
 70
     0
  0
APPID
  5
5E
330
9
100
AcDbSymbolTableRecord
100
AcDbRegAppTableRecord
  2
ODA
 70
     0
  0
ENDTAB
  0
TABLE
  2
DIMSTYLE
  5
A
330
0
100
AcDbSymbolTable
 70
     1
100
AcDbDimStyleTable
  0
DIMSTYLE
105
27
330
A
100
AcDbSymbolTableRecord
100
AcDbDimStyleTableRecord
  2
Standard
 70
     0
178
     0
340
11
  0
ENDTAB
  0
TABLE
  2
BLOCK_RECORD
  5
1
330
0
100
AcDbSymbolTable
 70
     1
  0
BLOCK_RECORD
  5
1F
330
1
100
AcDbSymbolTableRecord
100
AcDbBlockTableRecord
  2
*Model_Space
340
22
 70
     0
280
     1
281
     0
  0
BLOCK_RECORD
  5
1B
330
1
100
AcDbSymbolTableRecord
100
AcDbBlockTableRecord
  2
*Paper_Space
340
1E
 70
     0
280
     1
281
     0
  0
BLOCK_RECORD
  5
23
330
1
100
AcDbSymbolTableRecord
100
AcDbBlockTableRecord
  2
*Paper_Space0
340
26
 70
     0
280
     1
281
     0
  0
ENDTAB
  0
ENDSEC
  0
SECTION
  2
BLOCKS
  0
BLOCK
  5
20
330
1F
100
AcDbEntity
  8
0
100
AcDbBlockBegin
  2
*Model_Space
 70
     0
 10
0.0
 20
0.0
 30
0.0
  3
*Model_Space
  1

  0
ENDBLK
  5
21
330
1F
100
AcDbEntity
  8
0
100
AcDbBlockEnd
  0
BLOCK
  5
1C
330
1B
100
AcDbEntity
 67
     1
  8
0
100
AcDbBlockBegin
  2
*Paper_Space
 70
     0
 10
0.0
 20
0.0
 30
0.0
  3
*Paper_Space
  1

  0
ENDBLK
  5
1D
330
1B
100
AcDbEntity
 67
     1
  8
0
100
AcDbBlockEnd
  0
BLOCK
  5
24
330
23
100
AcDbEntity
  8
0
100
AcDbBlockBegin
  2
*Paper_Space0
 70
     0
 10
0.0
 20
0.0
 30
0.0
  3
*Paper_Space0
  1

  0
ENDBLK
  5
25
330
23
100
AcDbEntity
  8
0
100
AcDbBlockEnd
  0
ENDSEC
  0
SECTION
  2
ENTITIES
  0
SPLINE
  5
60
330
1F
100
AcDbEntity
  8
Layer 1
370
     9
100
AcDbSpline
210
0.0
220
0.0
230
1.0
 70
    11
 71
     3
 72
    14
 73
    10
 74
     0
 42
0.0000000001
 43
0.0000000001
 40
0.0
 40
0.0
 40
0.0
 40
0.0
 40
0.3333333333333333
 40
0.3333333333333333
 40
0.3333333333333333
 40
0.6666666666666666
 40
0.6666666666666666
 40
0.6666666666666666
 40
1.0
 40
1.0
 40
1.0
 40
1.0
 10
-8.82549
 20
23.07182
 30
0.0
 10
-8.82549
 20
23.14075
 30
0.0
 10
-8.79262
 20
23.20202
 30
0.0
 10
-8.74169
 20
23.24076
 30
0.0
 10
-8.55714
 20
23.38118
 30
0.0
 10
-8.31258
 20
23.16195
 30
0.0
 10
-8.43098
 20
22.96334
 30
0.0
 10
-8.53902
 20
22.7821
 30
0.0
 10
-8.82549
 20
22.854
 30
0.0
 10
-8.82549
 20
23.07182
 30
0.0
  0
SPLINE
  5
61
330
1F
100
AcDbEntity
  8
Layer 1
370
     9
100
AcDbSpline
210
0.0
220
0.0
230
1.0
 70
    11
 71
     3
 72
   182
 73
   178
 74
     0
 42
0.0000000001
 43
0.0000000001
 40
0.0
 40
0.0
 40
0.0
 40
0.0
 40
0.0169491525423729
 40
0.0169491525423729
 40
0.0169491525423729
 40
0.0338983050847458
 40
0.0338983050847458
 40
0.0338983050847458
 40
0.0508474576271186
 40
0.0508474576271186
 40
0.0508474576271186
 40
0.0677966101694915
 40
0.0677966101694915
 40
0.0677966101694915
 40
0.0847457627118644
 40
0.0847457627118644
 40
0.0847457627118644
 40
0.1016949152542373
 40
0.1016949152542373
 40
0.1016949152542373
 40
0.1186440677966102
 40
0.1186440677966102
 40
0.1186440677966102
 40
0.1355932203389831
 40
0.1355932203389831
 40
0.1355932203389831
 40
0.1525423728813559
 40
0.1525423728813559
 40
0.1525423728813559
 40
0.1694915254237288
 40
0.1694915254237288
 40
0.1694915254237288
 40
0.1864406779661017
 40
0.1864406779661017
 40
0.1864406779661017
 40
0.2033898305084746
 40
0.2033898305084746
 40
0.2033898305084746
 40
0.2203389830508475
 40
0.2203389830508475
 40
0.2203389830508475
 40
0.2372881355932203
 40
0.2372881355932203
 40
0.2372881355932203
 40
0.2542372881355932
 40
0.2542372881355932
 40
0.2542372881355932
 40
0.2711864406779661
 40
0.2711864406779661
 40
0.2711864406779661
 40
0.288135593220339
 40
0.288135593220339
 40
0.288135593220339
 40
0.3050847457627119
 40
0.3050847457627119
 40
0.3050847457627119
 40
0.3220338983050847
 40
0.3220338983050847
 40
0.3220338983050847
 40
0.3389830508474576
 40
0.3389830508474576
 40
0.3389830508474576
 40
0.3559322033898305
 40
0.3559322033898305
 40
0.3559322033898305
 40
0.3728813559322034
 40
0.3728813559322034
 40
0.3728813559322034
 40
0.3898305084745763
 40
0.3898305084745763
 40
0.3898305084745763
 40
0.4067796610169492
 40
0.4067796610169492
 40
0.4067796610169492
 40
0.423728813559322
 40
0.423728813559322
 40
0.423728813559322
 40
0.4406779661016949
 40
0.4406779661016949
 40
0.4406779661016949
 40
0.4576271186440678
 40
0.4576271186440678
 40
0.4576271186440678
 40
0.4745762711864407
 40
0.4745762711864407
 40
0.4745762711864407
 40
0.4915254237288136
 40
0.4915254237288136
 40
0.4915254237288136
 40
0.5084745762711864
 40
0.5084745762711864
 40
0.5084745762711864
 40
0.5254237288135594
 40
0.5254237288135594
 40
0.5254237288135594
 40
0.5423728813559322
 40
0.5423728813559322
 40
0.5423728813559322
 40
0.559322033898305
 40
0.559322033898305
 40
0.559322033898305
 40
0.576271186440678
 40
0.576271186440678
 40
0.576271186440678
 40
0.5932203389830508
 40
0.5932203389830508
 40
0.5932203389830508
 40
0.6101694915254238
 40
0.6101694915254238
 40
0.6101694915254238
 40
0.6271186440677966
 40
0.6271186440677966
 40
0.6271186440677966
 40
0.6440677966101694
 40
0.6440677966101694
 40
0.6440677966101694
 40
0.6610169491525424
 40
0.6610169491525424
 40
0.6610169491525424
 40
0.6779661016949152
 40
0.6779661016949152
 40
0.6779661016949152
 40
0.6949152542372882
 40
0.6949152542372882
 40
0.6949152542372882
 40
0.711864406779661
 40
0.711864406779661
 40
0.711864406779661
 40
0.7288135593220338
 40
0.7288135593220338
 40
0.7288135593220338
 40
0.7457627118644068
 40
0.7457627118644068
 40
0.7457627118644068
 40
0.7627118644067796
 40
0.7627118644067796
 40
0.7627118644067796
 40
0.7796610169491526
 40
0.7796610169491526
 40
0.7796610169491526
 40
0.7966101694915254
 40
0.7966101694915254
 40
0.7966101694915254
 40
0.8135593220338984
 40
0.8135593220338984
 40
0.8135593220338984
 40
0.8305084745762712
 40
0.8305084745762712
 40
0.8305084745762712
 40
0.847457627118644
 40
0.847457627118644
 40
0.847457627118644
 40
0.864406779661017
 40
0.864406779661017
 40
0.864406779661017
 40
0.8813559322033898
 40
0.8813559322033898
 40
0.8813559322033898
 40
0.8983050847457628
 40
0.8983050847457628
 40
0.8983050847457628
 40
0.9152542372881356
 40
0.9152542372881356
 40
0.9152542372881356
 40
0.9322033898305084
 40
0.9322033898305084
 40
0.9322033898305084
 40
0.9491525423728814
 40
0.9491525423728814
 40
0.9491525423728814
 40
0.9661016949152542
 40
0.9661016949152542
 40
0.9661016949152542
 40
0.9830508474576272
 40
0.9830508474576272
 40
0.9830508474576272
 40
1.0
 40
1.0
 40
1.0
 40
1.0
 10
1.6102
 20
16.24795
 30
0.0
 10
1.61021
 20
16.3679
 30
0.0
 10
1.53892
 20
16.48127
 30
0.0
 10
1.4326
 20
16.54959
 30
0.0
 10
1.4326
 20
16.54959
 30
0.0
 10
-8.23235
 20
22.65378
 30
0.0
 10
-8.23235
 20
22.65378
 30
0.0
 10
-7.85237
 20
23.0003
 30
0.0
 10
-8.09732
 20
23.63742
 30
0.0
 10
-8.61334
 20
23.63742
 30
0.0
 10
-8.61334
 20
23.63742
 30
0.0
 10
-9.78978
 20
23.63742
 30
0.0
 10
-9.78978
 20
23.63742
 30
0.0
 10
-9.78978
 20
23.63742
 30
0.0
 10
-9.78978
 20
23.03742
 30
0.0
 10
-9.78978
 20
23.03742
 30
0.0
 10
-9.78978
 20
23.03742
 30
0.0
 10
-10.08978
 20
23.03742
 30
0.0
 10
-10.08978
 20
23.03742
 30
0.0
 10
-10.08978
 20
23.03742
 30
0.0
 10
-10.08978
 20
22.43742
 30
0.0
 10
-10.08978
 20
22.43742
 30
0.0
 10
-10.08978
 20
22.43742
 30
0.0
 10
-9.78978
 20
22.43742
 30
0.0
 10
-9.78978
 20
22.43742
 30
0.0
 10
-9.78978
 20
22.43742
 30
0.0
 10
-9.78979
 20
19.43742
 30
0.0
 10
-9.78979
 20
19.43742
 30
0.0
 10
-9.78979
 20
19.43742
 30
0.0
 10
-10.08978
 20
19.43742
 30
0.0
 10
-10.08978
 20
19.43742
 30
0.0
 10
-10.08978
 20
19.43742
 30
0.0
 10
-10.08978
 20
18.83742
 30
0.0
 10
-10.08978
 20
18.83742
 30
0.0
 10
-10.08978
 20
18.83742
 30
0.0
 10
-9.78979
 20
18.83742
 30
0.0
 10
-9.78979
 20
18.83742
 30
0.0
 10
-9.78979
 20
18.83742
 30
0.0
 10
-9.78979
 20
15.83742
 30
0.0
 10
-9.78979
 20
15.83742
 30
0.0
 10
-9.78979
 20
15.83742
 30
0.0
 10
-10.08978
 20
15.83742
 30
0.0
 10
-10.08978
 20
15.83742
 30
0.0
 10
-10.08978
 20
15.83742
 30
0.0
 10
-10.08978
 20
15.23742
 30
0.0
 10
-10.08978
 20
15.23742
 30
0.0
 10
-10.08978
 20
15.23742
 30
0.0
 10
-9.78979
 20
15.23742
 30
0.0
 10
-9.78979
 20
15.23742
 30
0.0
 10
-9.78979
 20
15.23742
 30
0.0
 10
-9.78979
 20
12.23742
 30
0.0
 10
-9.78979
 20
12.23742
 30
0.0
 10
-9.78979
 20
12.23742
 30
0.0
 10
-10.08978
 20
12.23742
 30
0.0
 10
-10.08978
 20
12.23742
 30
0.0
 10
-10.08978
 20
12.23742
 30
0.0
 10
-10.08978
 20
11.63742
 30
0.0
 10
-10.08978
 20
11.63742
 30
0.0
 10
-10.08978
 20
11.63742
 30
0.0
 10
-9.78979
 20
11.63742
 30
0.0
 10
-9.78979
 20
11.63742
 30
0.0
 10
-9.78979
 20
11.63742
 30
0.0
 10
-9.78979
 20
8.63742
 30
0.0
 10
-9.78979
 20
8.63742
 30
0.0
 10
-9.78979
 20
8.63742
 30
0.0
 10
-10.08978
 20
8.63742
 30
0.0
 10
-10.08978
 20
8.63742
 30
0.0
 10
-10.08978
 20
8.63742
 30
0.0
 10
-10.08978
 20
8.03742
 30
0.0
 10
-10.08978
 20
8.03742
 30
0.0
 10
-10.08978
 20
8.03742
 30
0.0
 10
-9.78979
 20
8.03742
 30
0.0
 10
-9.78979
 20
8.03742
 30
0.0
 10
-9.78979
 20
8.03742
 30
0.0
 10
-9.78979
 20
6.23742
 30
0.0
 10
-9.78979
 20
6.23742
 30
0.0
 10
-5.98979
 20
6.23742
 30
0.0
 10
-2.1898
 20
6.23742
 30
0.0
 10
1.6102
 20
6.23742
 30
0.0
 10
1.6102
 20
6.23742
 30
0.0
 10
1.61021
 20
6.83742
 30
0.0
 10
1.61021
 20
6.83742
 30
0.0
 10
1.61021
 20
6.83742
 30
0.0
 10
1.91021
 20
6.83742
 30
0.0
 10
1.91021
 20
6.83742
 30
0.0
 10
1.91021
 20
6.83742
 30
0.0
 10
1.91021
 20
7.43742
 30
0.0
 10
1.91021
 20
7.43742
 30
0.0
 10
1.91021
 20
7.43742
 30
0.0
 10
1.61021
 20
7.43742
 30
0.0
 10
1.61021
 20
7.43742
 30
0.0
 10
1.61021
 20
7.43742
 30
0.0
 10
1.61021
 20
8.03742
 30
0.0
 10
1.61021
 20
8.03742
 30
0.0
 10
1.61021
 20
8.03742
 30
0.0
 10
1.91021
 20
8.03742
 30
0.0
 10
1.91021
 20
8.03742
 30
0.0
 10
1.91021
 20
8.03742
 30
0.0
 10
1.91021
 20
8.63742
 30
0.0
 10
1.91021
 20
8.63742
 30
0.0
 10
1.91021
 20
8.63742
 30
0.0
 10
1.61021
 20
8.63742
 30
0.0
 10
1.61021
 20
8.63742
 30
0.0
 10
1.61021
 20
8.63742
 30
0.0
 10
1.61021
 20
9.23742
 30
0.0
 10
1.61021
 20
9.23742
 30
0.0
 10
1.61021
 20
9.23742
 30
0.0
 10
1.91021
 20
9.23742
 30
0.0
 10
1.91021
 20
9.23742
 30
0.0
 10
1.91021
 20
9.23742
 30
0.0
 10
1.91021
 20
9.83742
 30
0.0
 10
1.91021
 20
9.83742
 30
0.0
 10
1.91021
 20
9.83742
 30
0.0
 10
1.61021
 20
9.83742
 30
0.0
 10
1.61021
 20
9.83742
 30
0.0
 10
1.61021
 20
9.83742
 30
0.0
 10
1.61021
 20
10.43742
 30
0.0
 10
1.61021
 20
10.43742
 30
0.0
 10
1.61021
 20
10.43742
 30
0.0
 10
1.91021
 20
10.43742
 30
0.0
 10
1.91021
 20
10.43742
 30
0.0
 10
1.91021
 20
10.43742
 30
0.0
 10
1.91021
 20
11.03742
 30
0.0
 10
1.91021
 20
11.03742
 30
0.0
 10
1.91021
 20
11.03742
 30
0.0
 10
1.61021
 20
11.03742
 30
0.0
 10
1.61021
 20
11.03742
 30
0.0
 10
1.61021
 20
11.03742
 30
0.0
 10
1.61021
 20
11.63742
 30
0.0
 10
1.61021
 20
11.63742
 30
0.0
 10
1.61021
 20
11.63742
 30
0.0
 10
1.91021
 20
11.63742
 30
0.0
 10
1.91021
 20
11.63742
 30
0.0
 10
1.91021
 20
11.63742
 30
0.0
 10
1.91021
 20
12.23742
 30
0.0
 10
1.91021
 20
12.23742
 30
0.0
 10
1.91021
 20
12.23742
 30
0.0
 10
1.61021
 20
12.23742
 30
0.0
 10
1.61021
 20
12.23742
 30
0.0
 10
1.61021
 20
12.23742
 30
0.0
 10
1.61021
 20
12.83742
 30
0.0
 10
1.61021
 20
12.83742
 30
0.0
 10
1.61021
 20
12.83742
 30
0.0
 10
1.91021
 20
12.83742
 30
0.0
 10
1.91021
 20
12.83742
 30
0.0
 10
1.91021
 20
12.83742
 30
0.0
 10
1.91021
 20
13.43742
 30
0.0
 10
1.91021
 20
13.43742
 30
0.0
 10
1.91021
 20
13.43742
 30
0.0
 10
1.61021
 20
13.43742
 30
0.0
 10
1.61021
 20
13.43742
 30
0.0
 10
1.61021
 20
13.43742
 30
0.0
 10
1.61021
 20
14.03742
 30
0.0
 10
1.61021
 20
14.03742
 30
0.0
 10
1.61021
 20
14.03742
 30
0.0
 10
1.91021
 20
14.03742
 30
0.0
 10
1.91021
 20
14.03742
 30
0.0
 10
1.91021
 20
14.03742
 30
0.0
 10
1.91021
 20
14.63742
 30
0.0
 10
1.91021
 20
14.63742
 30
0.0
 10
1.91021
 20
14.63742
 30
0.0
 10
1.61021
 20
14.63742
 30
0.0
 10
1.61021
 20
14.63742
 30
0.0
 10
1.61021
 20
14.63742
 30
0.0
 10
1.61021
 20
15.23742
 30
0.0
 10
1.61021
 20
15.23742
 30
0.0
 10
1.61021
 20
15.23742
 30
0.0
 10
1.91021
 20
15.23742
 30
0.0
 10
1.91021
 20
15.23742
 30
0.0
 10
1.91021
 20
15.23742
 30
0.0
 10
1.91021
 20
15.83742
 30
0.0
 10
1.91021
 20
15.83742
 30
0.0
 10
1.91021
 20
15.83742
 30
0.0
 10
1.61021
 20
15.83742
 30
0.0
 10
1.61021
 20
15.83742
 30
0.0
 10
1.61021
 20
15.83742
 30
0.0
 10
1.6102
 20
16.24795
 30
0.0
 10
1.6102
 20
16.24795
 30
0.0
  0
SPLINE
  5
62
330
1F
100
AcDbEntity
  8
Layer 1
370
     9
100
AcDbSpline
210
0.0
220
0.0
230
1.0
 70
    11
 71
     3
 72
    17
 73
    13
 74
     0
 42
0.0000000001
 43
0.0000000001
 40
0.0
 40
0.0
 40
0.0
 40
0.0
 40
0.25
 40
0.25
 40
0.25
 40
0.5
 40
0.5
 40
0.5
 40
0.75
 40
0.75
 40
0.75
 40
1.0
 40
1.0
 40
1.0
 40
1.0
 10
-9.18979
 20
6.53742
 30
0.0
 10
-9.18979
 20
6.53742
 30
0.0
 10
-9.18979
 20
6.83742
 30
0.0
 10
-9.18979
 20
6.83742
 30
0.0
 10
-9.18979
 20
6.83742
 30
0.0
 10
-8.58979
 20
6.83742
 30
0.0
 10
-8.58979
 20
6.83742
 30
0.0
 10
-8.58979
 20
6.83742
 30
0.0
 10
-8.58979
 20
6.53742
 30
0.0
 10
-8.58979
 20
6.53742
 30
0.0
 10
-8.58979
 20
6.53742
 30
0.0
 10
-9.18979
 20
6.53742
 30
0.0
 10
-9.18979
 20
6.53742
 30
0.0
  0
SPLINE
  5
63
330
1F
100
AcDbEntity
  8
Layer 1
370
     9
100
AcDbSpline
210
0.0
220
0.0
230
1.0
 70
    11
 71
     3
 72
    17
 73
    13
 74
     0
 42
0.0000000001
 43
0.0000000001
 40
0.0
 40
0.0
 40
0.0
 40
0.0
 40
0.25
 40
0.25
 40
0.25
 40
0.5
 40
0.5
 40
0.5
 40
0.75
 40
0.75
 40
0.75
 40
1.0
 40
1.0
 40
1.0
 40
1.0
 10
0.4102
 20
6.83742
 30
0.0
 10
0.4102
 20
6.83742
 30
0.0
 10
0.4102
 20
6.53742
 30
0.0
 10
0.4102
 20
6.53742
 30
0.0
 10
0.4102
 20
6.53742
 30
0.0
 10
1.0102
 20
6.53742
 30
0.0
 10
1.0102
 20
6.53742
 30
0.0
 10
1.0102
 20
6.53742
 30
0.0
 10
1.0102
 20
6.83742
 30
0.0
 10
1.0102
 20
6.83742
 30
0.0
 10
1.0102
 20
6.83742
 30
0.0
 10
0.4102
 20
6.83742
 30
0.0
 10
0.4102
 20
6.83742
 30
0.0
  0
SPLINE
  5
64
330
1F
100
AcDbEntity
  8
Layer 1
370
     9
100
AcDbSpline
210
0.0
220
0.0
230
1.0
 70
    11
 71
     3
 72
    17
 73
    13
 74
     0
 42
0.0000000001
 43
0.0000000001
 40
0.0
 40
0.0
 40
0.0
 40
0.0
 40
0.25
 40
0.25
 40
0.25
 40
0.5
 40
0.5
 40
0.5
 40
0.75
 40
0.75
 40
0.75
 40
1.0
 40
1.0
 40
1.0
 40
1.0
 10
-4.38979
 20
6.83742
 30
0.0
 10
-4.38979
 20
6.83742
 30
0.0
 10
-4.38979
 20
6.53742
 30
0.0
 10
-4.38979
 20
6.53742
 30
0.0
 10
-4.38979
 20
6.53742
 30
0.0
 10
-3.78979
 20
6.53742
 30
0.0
 10
-3.78979
 20
6.53742
 30
0.0
 10
-3.78979
 20
6.53742
 30
0.0
 10
-3.78979
 20
6.83742
 30
0.0
 10
-3.78979
 20
6.83742
 30
0.0
 10
-3.78979
 20
6.83742
 30
0.0
 10
-4.38979
 20
6.83742
 30
0.0
 10
-4.38979
 20
6.83742
 30
0.0
  0
SPLINE
  5
65
330
1F
100
AcDbEntity
  8
Layer 1
370
     9
100
AcDbSpline
210
0.0
220
0.0
230
1.0
 70
    11
 71
     3
 72
    20
 73
    16
 74
     0
 42
0.0000000001
 43
0.0000000001
 40
0.0
 40
0.0
 40
0.0
 40
0.0
 40
0.2
 40
0.2
 40
0.2
 40
0.4
 40
0.4
 40
0.4
 40
0.6000000000000001
 40
0.6000000000000001
 40
0.6000000000000001
 40
0.8
 40
0.8
 40
0.8
 40
1.0
 40
1.0
 40
1.0
 40
1.0
 10
18.78774
 20
-2.94031
 30
0.0
 10
19.16042
 20
-2.64593
 30
0.0
 10
19.8708
 20
-2.85283
 30
0.0
 10
19.9171
 20
-3.59669
 30
0.0
 10
20.59902
 20
-3.12829
 30
0.0
 10
21.35914
 20
-3.7378
 30
0.0
 10
21.07244
 20
-4.32624
 30
0.0
 10
20.78469
 20
-4.91682
 30
0.0
 10
19.83678
 20
-5.07088
 30
0.0
 10
19.1675
 20
-5.15014
 30
0.0
 10
18.79975
 20
-4.56546
 30
0.0
 10
18.337
 20
-3.73893
 30
0.0
 10
18.63053
 20
-3.13647
 30
0.0
 10
18.66955
 20
-3.05638
 30
0.0
 10
18.72366
 20
-2.99093
 30
0.0
 10
18.78774
 20
-2.94031
 30
0.0
  0
SPLINE
  5
66
330
1F
100
AcDbEntity
  8
Layer 1
370
     9
100
AcDbSpline
210
0.0
220
0.0
230
1.0
 70
    11
 71
     3
 72
    26
 73
    22
 74
     0
 42
0.0000000001
 43
0.0000000001
 40
0.0
 40
0.0
 40
0.0
 40
0.0
 40
0.1428571428571428
 40
0.1428571428571428
 40
0.1428571428571428
 40
0.2857142857142857
 40
0.2857142857142857
 40
0.2857142857142857
 40
0.4285714285714285
 40
0.4285714285714285
 40
0.4285714285714285
 40
0.5714285714285714
 40
0.5714285714285714
 40
0.5714285714285714
 40
0.7142857142857142
 40
0.7142857142857142
 40
0.7142857142857142
 40
0.8571428571428571
 40
0.8571428571428571
 40
0.8571428571428571
 40
1.0
 40
1.0
 40
1.0
 40
1.0
 10
5.80721
 20
1.55345
 30
0.0
 10
5.97296
 20
1.9922
 30
0.0
 10
6.64742
 20
2.08439
 30
0.0
 10
6.91735
 20
1.58113
 30
0.0
 10
7.35466
 20
2.39648
 30
0.0
 10
8.4329
 20
1.79191
 30
0.0
 10
8.01829
 20
0.96119
 30
0.0
 10
7.93107
 20
0.78644
 30
0.0
 10
7.73985
 20
0.67504
 30
0.0
 10
7.50067
 20
0.51913
 30
0.0
 10
7.31857
 20
0.40044
 30
0.0
 10
7.10867
 20
0.25594
 30
0.0
 10
6.89567
 20
0.03807
 30
0.0
 10
6.70732
 20
0.16227
 30
0.0
 10
6.53613
 20
0.27784
 30
0.0
 10
6.3873
 20
0.39148
 30
0.0
 10
6.00492
 20
0.68343
 30
0.0
 10
5.76998
 20
0.96266
 30
0.0
 10
5.76998
 20
1.34271
 30
0.0
 10
5.76998
 20
1.41967
 30
0.0
 10
5.78331
 20
1.49017
 30
0.0
 10
5.80721
 20
1.55345
 30
0.0
  0
SPLINE
  5
67
330
1F
100
AcDbEntity
  8
Layer 1
370
     9
100
AcDbSpline
210
0.0
220
0.0
230
1.0
 70
    11
 71
     3
 72
    26
 73
    22
 74
     0
 42
0.0000000001
 43
0.0000000001
 40
0.0
 40
0.0
 40
0.0
 40
0.0
 40
0.1428571428571428
 40
0.1428571428571428
 40
0.1428571428571428
 40
0.2857142857142857
 40
0.2857142857142857
 40
0.2857142857142857
 40
0.4285714285714285
 40
0.4285714285714285
 40
0.4285714285714285
 40
0.5714285714285714
 40
0.5714285714285714
 40
0.5714285714285714
 40
0.7142857142857142
 40
0.7142857142857142
 40
0.7142857142857142
 40
0.8571428571428571
 40
0.8571428571428571
 40
0.8571428571428571
 40
1.0
 40
1.0
 40
1.0
 40
1.0
 10
18.11674
 20
1.12783
 30
0.0
 10
18.34801
 20
1.56669
 30
0.0
 10
19.13841
 20
1.58053
 30
0.0
 10
19.43442
 20
1.02864
 30
0.0
 10
19.79347
 20
1.69808
 30
0.0
 10
20.46376
 20
1.48118
 30
0.0
 10
20.6219
 20
0.95226
 30
0.0
 10
20.73011
 20
0.59034
 30
0.0
 10
20.59853
 20
0.08232
 30
0.0
 10
19.96338
 20
-0.38779
 30
0.0
 10
19.77859
 20
-0.52457
 30
0.0
 10
19.55115
 20
-0.65815
 30
0.0
 10
19.27458
 20
-0.78398
 30
0.0
 10
19.06861
 20
-0.59197
 30
0.0
 10
18.86842
 20
-0.41532
 30
0.0
 10
18.69171
 20
-0.24414
 30
0.0
 10
18.32017
 20
0.11575
 30
0.0
 10
18.05232
 20
0.45153
 30
0.0
 10
18.05232
 20
0.85521
 30
0.0
 10
18.05232
 20
0.95891
 30
0.0
 10
18.07575
 20
1.05005
 30
0.0
 10
18.11674
 20
1.12783
 30
0.0
  0
SPLINE
  5
68
330
1F
100
AcDbEntity
  8
Layer 1
370
     9
100
AcDbSpline
210
0.0
220
0.0
230
1.0
 70
    11
 71
     3
 72
    23
 73
    19
 74
     0
 42
0.0000000001
 43
0.0000000001
 40
0.0
 40
0.0
 40
0.0
 40
0.0
 40
0.1666666666666667
 40
0.1666666666666667
 40
0.1666666666666667
 40
0.3333333333333333
 40
0.3333333333333333
 40
0.3333333333333333
 40
0.5
 40
0.5
 40
0.5
 40
0.6666666666666666
 40
0.6666666666666666
 40
0.6666666666666666
 40
0.8333333333333333
 40
0.8333333333333333
 40
0.8333333333333333
 40
1.0
 40
1.0
 40
1.0
 40
1.0
 10
12.37689
 20
-0.81323
 30
0.0
 10
12.74933
 20
-0.66146
 30
0.0
 10
13.25491
 20
-0.76386
 30
0.0
 10
13.55812
 20
-1.29895
 30
0.0
 10
13.84896
 20
-0.7857
 30
0.0
 10
14.36605
 20
-0.66292
 30
0.0
 10
14.74476
 20
-0.80917
 30
0.0
 10
15.25284
 20
-1.00539
 30
0.0
 10
15.30792
 20
-1.53739
 30
0.0
 10
15.08695
 20
-1.99064
 30
0.0
 10
14.81661
 20
-2.54515
 30
0.0
 10
14.13753
 20
-3.03159
 30
0.0
 10
13.56609
 20
-3.39888
 30
0.0
 10
12.86525
 20
-2.96339
 30
0.0
 10
11.9046
 20
-2.3033
 30
0.0
 10
11.9046
 20
-1.48132
 30
0.0
 10
11.9046
 20
-1.16964
 30
0.0
 10
12.10537
 20
-0.92387
 30
0.0
 10
12.37689
 20
-0.81323
 30
0.0
  0
SPLINE
  5
69
330
1F
100
AcDbEntity
  8
Layer 1
370
     9
100
AcDbSpline
210
0.0
220
0.0
230
1.0
 70
    11
 71
     3
 72
    20
 73
    16
 74
     0
 42
0.0000000001
 43
0.0000000001
 40
0.0
 40
0.0
 40
0.0
 40
0.0
 40
0.2
 40
0.2
 40
0.2
 40
0.4
 40
0.4
 40
0.4
 40
0.6000000000000001
 40
0.6000000000000001
 40
0.6000000000000001
 40
0.8
 40
0.8
 40
0.8
 40
1.0
 40
1.0
 40
1.0
 40
1.0
 10
12.32728
 20
2.18731
 30
0.0
 10
12.32728
 20
2.70095
 30
0.0
 10
13.03273
 20
2.87238
 30
0.0
 10
13.29259
 20
2.3879
 30
0.0
 10
13.60747
 20
2.97497
 30
0.0
 10
14.31725
 20
2.68707
 30
0.0
 10
14.29678
 20
2.15378
 30
0.0
 10
14.29333
 20
2.06394
 30
0.0
 10
14.26913
 20
1.96711
 30
0.0
 10
14.21884
 20
1.86633
 30
0.0
 10
14.09114
 20
1.61045
 30
0.0
 10
13.68033
 20
1.5051
 30
0.0
 10
13.27436
 20
1.08968
 30
0.0
 10
12.72753
 20
1.45025
 30
0.0
 10
12.32728
 20
1.73577
 30
0.0
 10
12.32728
 20
2.18731
 30
0.0
  0
SPLINE
  5
6A
330
1F
100
AcDbEntity
  8
Layer 1
370
     9
100
AcDbSpline
210
0.0
220
0.0
230
1.0
 70
    11
 71
     3
 72
    20
 73
    16
 74
     0
 42
0.0000000001
 43
0.0000000001
 40
0.0
 40
0.0
 40
0.0
 40
0.0
 40
0.2
 40
0.2
 40
0.2
 40
0.4
 40
0.4
 40
0.4
 40
0.6000000000000001
 40
0.6000000000000001
 40
0.6000000000000001
 40
0.8
 40
0.8
 40
0.8
 40
1.0
 40
1.0
 40
1.0
 40
1.0
 10
7.34741
 20
-2.73875
 30
0.0
 10
7.78118
 20
-2.73255
 30
0.0
 10
8.25223
 20
-3.14766
 30
0.0
 10
8.19465
 20
-3.70154
 30
0.0
 10
9.57225
 20
-2.97978
 30
0.0
 10
10.02451
 20
-5.75975
 30
0.0
 10
6.94512
 20
-5.23467
 30
0.0
 10
6.82441
 20
-4.70625
 30
0.0
 10
6.69063
 20
-4.23224
 30
0.0
 10
6.66565
 20
-3.82304
 30
0.0
 10
6.64687
 20
-3.51543
 30
0.0
 10
6.68958
 20
-3.24442
 30
0.0
 10
6.84552
 20
-3.01444
 30
0.0
 10
6.97372
 20
-2.8254
 30
0.0
 10
7.15697
 20
-2.74148
 30
0.0
 10
7.34741
 20
-2.73875
 30
0.0
  0
SPLINE
  5
6B
330
1F
100
AcDbEntity
  8
Layer 1
370
     9
100
AcDbSpline
210
0.0
220
0.0
230
1.0
 70
    11
 71
     3
 72
    83
 73
    79
 74
     0
 42
0.0000000001
 43
0.0000000001
 40
0.0
 40
0.0
 40
0.0
 40
0.0
 40
0.0384615384615385
 40
0.0384615384615385
 40
0.0384615384615385
 40
0.0769230769230769
 40
0.0769230769230769
 40
0.0769230769230769
 40
0.1153846153846154
 40
0.1153846153846154
 40
0.1153846153846154
 40
0.1538461538461539
 40
0.1538461538461539
 40
0.1538461538461539
 40
0.1923076923076923
 40
0.1923076923076923
 40
0.1923076923076923
 40
0.2307692307692308
 40
0.2307692307692308
 40
0.2307692307692308
 40
0.2692307692307693
 40
0.2692307692307693
 40
0.2692307692307693
 40
0.3076923076923077
 40
0.3076923076923077
 40
0.3076923076923077
 40
0.3461538461538461
 40
0.3461538461538461
 40
0.3461538461538461
 40
0.3846153846153846
 40
0.3846153846153846
 40
0.3846153846153846
 40
0.4230769230769231
 40
0.4230769230769231
 40
0.4230769230769231
 40
0.4615384615384616
 40
0.4615384615384616
 40
0.4615384615384616
 40
0.5
 40
0.5
 40
0.5
 40
0.5384615384615385
 40
0.5384615384615385
 40
0.5384615384615385
 40
0.576923076923077
 40
0.576923076923077
 40
0.576923076923077
 40
0.6153846153846154
 40
0.6153846153846154
 40
0.6153846153846154
 40
0.6538461538461539
 40
0.6538461538461539
 40
0.6538461538461539
 40
0.6923076923076923
 40
0.6923076923076923
 40
0.6923076923076923
 40
0.7307692307692308
 40
0.7307692307692308
 40
0.7307692307692308
 40
0.7692307692307693
 40
0.7692307692307693
 40
0.7692307692307693
 40
0.8076923076923077
 40
0.8076923076923077
 40
0.8076923076923077
 40
0.8461538461538463
 40
0.8461538461538463
 40
0.8461538461538463
 40
0.8846153846153847
 40
0.8846153846153847
 40
0.8846153846153847
 40
0.9230769230769231
 40
0.9230769230769231
 40
0.9230769230769231
 40
0.9615384615384616
 40
0.9615384615384616
 40
0.9615384615384616
 40
1.0
 40
1.0
 40
1.0
 40
1.0
 10
23.23982
 20
3.81009
 30
0.0
 10
23.23982
 20
3.81009
 30
0.0
 10
23.23988
 20
4.73742
 30
0.0
 10
23.23988
 20
4.73742
 30
0.0
 10
23.23988
 20
4.73742
 30
0.0
 10
3.83254
 20
4.73742
 30
0.0
 10
3.83254
 20
4.73742
 30
0.0
 10
3.83254
 20
4.73742
 30
0.0
 10
3.8326
 20
3.81009
 30
0.0
 10
3.8326
 20
3.81009
 30
0.0
 10
3.8326
 20
3.81009
 30
0.0
 10
3.43621
 20
3.81009
 30
0.0
 10
3.43621
 20
3.81009
 30
0.0
 10
3.43621
 20
3.81009
 30
0.0
 10
3.43621
 20
3.51009
 30
0.0
 10
3.43621
 20
3.51009
 30
0.0
 10
3.43621
 20
3.51009
 30
0.0
 10
3.83263
 20
3.51009
 30
0.0
 10
3.83263
 20
3.51009
 30
0.0
 10
3.83263
 20
3.51009
 30
0.0
 10
3.83271
 20
3.0038
 30
0.0
 10
3.83271
 20
3.0038
 30
0.0
 10
3.83271
 20
3.0038
 30
0.0
 10
3.43621
 20
3.0038
 30
0.0
 10
3.43621
 20
3.0038
 30
0.0
 10
3.27121
 20
3.0038
 30
0.0
 10
3.13622
 20
2.86881
 30
0.0
 10
3.13622
 20
2.70381
 30
0.0
 10
3.13622
 20
2.70381
 30
0.0
 10
3.13622
 20
-8.58137
 30
0.0
 10
3.13622
 20
-8.58137
 30
0.0
 10
3.13622
 20
-8.74449
 30
0.0
 10
3.26936
 20
-8.88136
 30
0.0
 10
3.43621
 20
-8.88136
 30
0.0
 10
3.43621
 20
-8.88136
 30
0.0
 10
11.41523
 20
-8.88136
 30
0.0
 10
11.41523
 20
-8.88136
 30
0.0
 10
11.13617
 20
-9.15481
 30
0.0
 10
11.2868
 20
-9.56084
 30
0.0
 10
11.78685
 20
-9.54206
 30
0.0
 10
12.05134
 20
-9.53213
 30
0.0
 10
12.4164
 20
-9.48286
 30
0.0
 10
12.73954
 20
-9.4661
 30
0.0
 10
13.1566
 20
-9.44447
 30
0.0
 10
14.00711
 20
-9.43895
 30
0.0
 10
14.46328
 20
-9.47435
 30
0.0
 10
14.76511
 20
-9.49778
 30
0.0
 10
15.05633
 20
-9.53345
 30
0.0
 10
15.28557
 20
-9.54206
 30
0.0
 10
15.78287
 20
-9.56075
 30
0.0
 10
15.9382
 20
-9.15673
 30
0.0
 10
15.65719
 20
-8.88136
 30
0.0
 10
15.65719
 20
-8.88136
 30
0.0
 10
23.63621
 20
-8.88136
 30
0.0
 10
23.63621
 20
-8.88136
 30
0.0
 10
23.8025
 20
-8.88136
 30
0.0
 10
23.9362
 20
-8.74506
 30
0.0
 10
23.9362
 20
-8.58137
 30
0.0
 10
23.9362
 20
-8.58137
 30
0.0
 10
23.9362
 20
2.70381
 30
0.0
 10
23.9362
 20
2.70381
 30
0.0
 10
23.9362
 20
2.87045
 30
0.0
 10
23.79958
 20
3.0038
 30
0.0
 10
23.63621
 20
3.0038
 30
0.0
 10
23.63621
 20
3.0038
 30
0.0
 10
23.23971
 20
3.0038
 30
0.0
 10
23.23971
 20
3.0038
 30
0.0
 10
23.23971
 20
3.0038
 30
0.0
 10
23.23979
 20
3.51009
 30
0.0
 10
23.23979
 20
3.51009
 30
0.0
 10
23.23979
 20
3.51009
 30
0.0
 10
23.63621
 20
3.51009
 30
0.0
 10
23.63621
 20
3.51009
 30
0.0
 10
23.63621
 20
3.51009
 30
0.0
 10
23.63621
 20
3.81009
 30
0.0
 10
23.63621
 20
3.81009
 30
0.0
 10
23.63621
 20
3.81009
 30
0.0
 10
23.23982
 20
3.81009
 30
0.0
 10
23.23982
 20
3.81009
 30
0.0
  0
SPLINE
  5
6C
330
1F
100
AcDbEntity
  8
Layer 1
370
     9
100
AcDbSpline
210
0.0
220
0.0
230
1.0
 70
    11
 71
     3
 72
   341
 73
   337
 74
     0
 42
0.0000000001
 43
0.0000000001
 40
0.0
 40
0.0
 40
0.0
 40
0.0
 40
0.0089285714285714
 40
0.0089285714285714
 40
0.0089285714285714
 40
0.0178571428571429
 40
0.0178571428571429
 40
0.0178571428571429
 40
0.0267857142857143
 40
0.0267857142857143
 40
0.0267857142857143
 40
0.0357142857142857
 40
0.0357142857142857
 40
0.0357142857142857
 40
0.0446428571428571
 40
0.0446428571428571
 40
0.0446428571428571
 40
0.0535714285714286
 40
0.0535714285714286
 40
0.0535714285714286
 40
0.0625
 40
0.0625
 40
0.0625
 40
0.0714285714285714
 40
0.0714285714285714
 40
0.0714285714285714
 40
0.0803571428571428
 40
0.0803571428571428
 40
0.0803571428571428
 40
0.0892857142857143
 40
0.0892857142857143
 40
0.0892857142857143
 40
0.0982142857142857
 40
0.0982142857142857
 40
0.0982142857142857
 40
0.1071428571428571
 40
0.1071428571428571
 40
0.1071428571428571
 40
0.1160714285714286
 40
0.1160714285714286
 40
0.1160714285714286
 40
0.125
 40
0.125
 40
0.125
 40
0.1339285714285714
 40
0.1339285714285714
 40
0.1339285714285714
 40
0.1428571428571428
 40
0.1428571428571428
 40
0.1428571428571428
 40
0.1517857142857143
 40
0.1517857142857143
 40
0.1517857142857143
 40
0.1607142857142857
 40
0.1607142857142857
 40
0.1607142857142857
 40
0.1696428571428571
 40
0.1696428571428571
 40
0.1696428571428571
 40
0.1785714285714285
 40
0.1785714285714285
 40
0.1785714285714285
 40
0.1875
 40
0.1875
 40
0.1875
 40
0.1964285714285714
 40
0.1964285714285714
 40
0.1964285714285714
 40
0.2053571428571428
 40
0.2053571428571428
 40
0.2053571428571428
 40
0.2142857142857143
 40
0.2142857142857143
 40
0.2142857142857143
 40
0.2232142857142857
 40
0.2232142857142857
 40
0.2232142857142857
 40
0.2321428571428571
 40
0.2321428571428571
 40
0.2321428571428571
 40
0.2410714285714285
 40
0.2410714285714285
 40
0.2410714285714285
 40
0.25
 40
0.25
 40
0.25
 40
0.2589285714285714
 40
0.2589285714285714
 40
0.2589285714285714
 40
0.2678571428571428
 40
0.2678571428571428
 40
0.2678571428571428
 40
0.2767857142857142
 40
0.2767857142857142
 40
0.2767857142857142
 40
0.2857142857142857
 40
0.2857142857142857
 40
0.2857142857142857
 40
0.2946428571428572
 40
0.2946428571428572
 40
0.2946428571428572
 40
0.3035714285714285
 40
0.3035714285714285
 40
0.3035714285714285
 40
0.3125
 40
0.3125
 40
0.3125
 40
0.3214285714285714
 40
0.3214285714285714
 40
0.3214285714285714
 40
0.3303571428571428
 40
0.3303571428571428
 40
0.3303571428571428
 40
0.3392857142857142
 40
0.3392857142857142
 40
0.3392857142857142
 40
0.3482142857142857
 40
0.3482142857142857
 40
0.3482142857142857
 40
0.3571428571428571
 40
0.3571428571428571
 40
0.3571428571428571
 40
0.3660714285714285
 40
0.3660714285714285
 40
0.3660714285714285
 40
0.375
 40
0.375
 40
0.375
 40
0.3839285714285714
 40
0.3839285714285714
 40
0.3839285714285714
 40
0.3928571428571428
 40
0.3928571428571428
 40
0.3928571428571428
 40
0.4017857142857142
 40
0.4017857142857142
 40
0.4017857142857142
 40
0.4107142857142857
 40
0.4107142857142857
 40
0.4107142857142857
 40
0.4196428571428571
 40
0.4196428571428571
 40
0.4196428571428571
 40
0.4285714285714285
 40
0.4285714285714285
 40
0.4285714285714285
 40
0.4375
 40
0.4375
 40
0.4375
 40
0.4464285714285714
 40
0.4464285714285714
 40
0.4464285714285714
 40
0.4553571428571428
 40
0.4553571428571428
 40
0.4553571428571428
 40
0.4642857142857142
 40
0.4642857142857142
 40
0.4642857142857142
 40
0.4732142857142857
 40
0.4732142857142857
 40
0.4732142857142857
 40
0.4821428571428571
 40
0.4821428571428571
 40
0.4821428571428571
 40
0.4910714285714285
 40
0.4910714285714285
 40
0.4910714285714285
 40
0.5
 40
0.5
 40
0.5
 40
0.5089285714285714
 40
0.5089285714285714
 40
0.5089285714285714
 40
0.5178571428571428
 40
0.5178571428571428
 40
0.5178571428571428
 40
0.5267857142857143
 40
0.5267857142857143
 40
0.5267857142857143
 40
0.5357142857142857
 40
0.5357142857142857
 40
0.5357142857142857
 40
0.5446428571428571
 40
0.5446428571428571
 40
0.5446428571428571
 40
0.5535714285714285
 40
0.5535714285714285
 40
0.5535714285714285
 40
0.5625
 40
0.5625
 40
0.5625
 40
0.5714285714285714
 40
0.5714285714285714
 40
0.5714285714285714
 40
0.5803571428571428
 40
0.5803571428571428
 40
0.5803571428571428
 40
0.5892857142857143
 40
0.5892857142857143
 40
0.5892857142857143
 40
0.5982142857142857
 40
0.5982142857142857
 40
0.5982142857142857
 40
0.6071428571428571
 40
0.6071428571428571
 40
0.6071428571428571
 40
0.6160714285714285
 40
0.6160714285714285
 40
0.6160714285714285
 40
0.625
 40
0.625
 40
0.625
 40
0.6339285714285714
 40
0.6339285714285714
 40
0.6339285714285714
 40
0.6428571428571428
 40
0.6428571428571428
 40
0.6428571428571428
 40
0.6517857142857143
 40
0.6517857142857143
 40
0.6517857142857143
 40
0.6607142857142857
 40
0.6607142857142857
 40
0.6607142857142857
 40
0.6696428571428571
 40
0.6696428571428571
 40
0.6696428571428571
 40
0.6785714285714285
 40
0.6785714285714285
 40
0.6785714285714285
 40
0.6875
 40
0.6875
 40
0.6875
 40
0.6964285714285714
 40
0.6964285714285714
 40
0.6964285714285714
 40
0.7053571428571428
 40
0.7053571428571428
 40
0.7053571428571428
 40
0.7142857142857142
 40
0.7142857142857142
 40
0.7142857142857142
 40
0.7232142857142857
 40
0.7232142857142857
 40
0.7232142857142857
 40
0.7321428571428571
 40
0.7321428571428571
 40
0.7321428571428571
 40
0.7410714285714285
 40
0.7410714285714285
 40
0.7410714285714285
 40
0.75
 40
0.75
 40
0.75
 40
0.7589285714285714
 40
0.7589285714285714
 40
0.7589285714285714
 40
0.7678571428571428
 40
0.7678571428571428
 40
0.7678571428571428
 40
0.7767857142857142
 40
0.7767857142857142
 40
0.7767857142857142
 40
0.7857142857142857
 40
0.7857142857142857
 40
0.7857142857142857
 40
0.7946428571428571
 40
0.7946428571428571
 40
0.7946428571428571
 40
0.8035714285714285
 40
0.8035714285714285
 40
0.8035714285714285
 40
0.8125
 40
0.8125
 40
0.8125
 40
0.8214285714285714
 40
0.8214285714285714
 40
0.8214285714285714
 40
0.8303571428571428
 40
0.8303571428571428
 40
0.8303571428571428
 40
0.8392857142857142
 40
0.8392857142857142
 40
0.8392857142857142
 40
0.8482142857142857
 40
0.8482142857142857
 40
0.8482142857142857
 40
0.8571428571428571
 40
0.8571428571428571
 40
0.8571428571428571
 40
0.8660714285714285
 40
0.8660714285714285
 40
0.8660714285714285
 40
0.875
 40
0.875
 40
0.875
 40
0.8839285714285714
 40
0.8839285714285714
 40
0.8839285714285714
 40
0.8928571428571428
 40
0.8928571428571428
 40
0.8928571428571428
 40
0.9017857142857142
 40
0.9017857142857142
 40
0.9017857142857142
 40
0.9107142857142857
 40
0.9107142857142857
 40
0.9107142857142857
 40
0.9196428571428571
 40
0.9196428571428571
 40
0.9196428571428571
 40
0.9285714285714285
 40
0.9285714285714285
 40
0.9285714285714285
 40
0.9375
 40
0.9375
 40
0.9375
 40
0.9464285714285714
 40
0.9464285714285714
 40
0.9464285714285714
 40
0.9553571428571428
 40
0.9553571428571428
 40
0.9553571428571428
 40
0.9642857142857142
 40
0.9642857142857142
 40
0.9642857142857142
 40
0.9732142857142857
 40
0.9732142857142857
 40
0.9732142857142857
 40
0.9821428571428571
 40
0.9821428571428571
 40
0.9821428571428571
 40
0.9910714285714285
 40
0.9910714285714285
 40
0.9910714285714285
 40
1.0
 40
1.0
 40
1.0
 40
1.0
 10
-12.34312
 20
-7.26257
 30
0.0
 10
-12.34312
 20
-7.26257
 30
0.0
 10
-12.34312
 20
-6.96257
 30
0.0
 10
-12.34312
 20
-6.96257
 30
0.0
 10
-12.34312
 20
-6.96257
 30
0.0
 10
-11.74312
 20
-6.96257
 30
0.0
 10
-11.74312
 20
-6.96257
 30
0.0
 10
-11.74312
 20
-6.96257
 30
0.0
 10
-11.74312
 20
-7.26257
 30
0.0
 10
-11.74312
 20
-7.26257
 30
0.0
 10
-11.74312
 20
-7.26257
 30
0.0
 10
-11.14312
 20
-7.26257
 30
0.0
 10
-11.14312
 20
-7.26257
 30
0.0
 10
-11.14312
 20
-7.26257
 30
0.0
 10
-11.14312
 20
-6.96257
 30
0.0
 10
-11.14312
 20
-6.96257
 30
0.0
 10
-11.14312
 20
-6.96257
 30
0.0
 10
-10.54312
 20
-6.96257
 30
0.0
 10
-10.54312
 20
-6.96257
 30
0.0
 10
-10.54312
 20
-6.96257
 30
0.0
 10
-10.54312
 20
-7.26257
 30
0.0
 10
-10.54312
 20
-7.26257
 30
0.0
 10
-10.34312
 20
-7.26257
 30
0.0
 10
-10.14312
 20
-7.26257
 30
0.0
 10
-9.94312
 20
-7.26257
 30
0.0
 10
-9.94312
 20
-7.26257
 30
0.0
 10
-9.94312
 20
-6.96257
 30
0.0
 10
-9.94312
 20
-6.96257
 30
0.0
 10
-9.94312
 20
-6.96257
 30
0.0
 10
-9.34312
 20
-6.96257
 30
0.0
 10
-9.34312
 20
-6.96257
 30
0.0
 10
-9.34312
 20
-6.96257
 30
0.0
 10
-9.34312
 20
-7.26257
 30
0.0
 10
-9.34312
 20
-7.26257
 30
0.0
 10
-9.34312
 20
-7.26257
 30
0.0
 10
-8.74312
 20
-7.26257
 30
0.0
 10
-8.74312
 20
-7.26257
 30
0.0
 10
-8.74312
 20
-7.26257
 30
0.0
 10
-8.74312
 20
-6.96257
 30
0.0
 10
-8.74312
 20
-6.96257
 30
0.0
 10
-8.74312
 20
-6.96257
 30
0.0
 10
-8.14312
 20
-6.96257
 30
0.0
 10
-8.14312
 20
-6.96257
 30
0.0
 10
-8.14312
 20
-6.96257
 30
0.0
 10
-8.14312
 20
-7.26257
 30
0.0
 10
-8.14312
 20
-7.26257
 30
0.0
 10
-8.14312
 20
-7.26257
 30
0.0
 10
-7.54312
 20
-7.26257
 30
0.0
 10
-7.54312
 20
-7.26257
 30
0.0
 10
-7.54312
 20
-7.26257
 30
0.0
 10
-7.54312
 20
-6.96257
 30
0.0
 10
-7.54312
 20
-6.96257
 30
0.0
 10
-7.54312
 20
-6.96257
 30
0.0
 10
-6.94312
 20
-6.96257
 30
0.0
 10
-6.94312
 20
-6.96257
 30
0.0
 10
-6.94312
 20
-6.96257
 30
0.0
 10
-6.94312
 20
-7.26257
 30
0.0
 10
-6.94312
 20
-7.26257
 30
0.0
 10
-6.94312
 20
-7.26257
 30
0.0
 10
-6.34312
 20
-7.26257
 30
0.0
 10
-6.34312
 20
-7.26257
 30
0.0
 10
-6.34312
 20
-7.26257
 30
0.0
 10
-6.34312
 20
-6.96257
 30
0.0
 10
-6.34312
 20
-6.96257
 30
0.0
 10
-6.34312
 20
-6.96257
 30
0.0
 10
-5.74312
 20
-6.96257
 30
0.0
 10
-5.74312
 20
-6.96257
 30
0.0
 10
-5.74312
 20
-6.96257
 30
0.0
 10
-5.74312
 20
-7.26257
 30
0.0
 10
-5.74312
 20
-7.26257
 30
0.0
 10
-5.74312
 20
-7.26257
 30
0.0
 10
-5.14312
 20
-7.26257
 30
0.0
 10
-5.14312
 20
-7.26257
 30
0.0
 10
-5.14312
 20
-7.26257
 30
0.0
 10
-5.14312
 20
-6.96257
 30
0.0
 10
-5.14312
 20
-6.96257
 30
0.0
 10
-5.14312
 20
-6.96257
 30
0.0
 10
-4.54312
 20
-6.96257
 30
0.0
 10
-4.54312
 20
-6.96257
 30
0.0
 10
-4.54312
 20
-6.96257
 30
0.0
 10
-4.54312
 20
-7.26257
 30
0.0
 10
-4.54312
 20
-7.26257
 30
0.0
 10
-4.54312
 20
-7.26257
 30
0.0
 10
-3.94312
 20
-7.26257
 30
0.0
 10
-3.94312
 20
-7.26257
 30
0.0
 10
-3.94312
 20
-7.26257
 30
0.0
 10
-3.94312
 20
-6.96257
 30
0.0
 10
-3.94312
 20
-6.96257
 30
0.0
 10
-3.94312
 20
-6.96257
 30
0.0
 10
-3.44312
 20
-6.96257
 30
0.0
 10
-3.44312
 20
-6.96257
 30
0.0
 10
-3.44312
 20
-6.96257
 30
0.0
 10
-3.44312
 20
-6.36256
 30
0.0
 10
-3.44312
 20
-6.36256
 30
0.0
 10
-3.44312
 20
-6.36256
 30
0.0
 10
-3.14312
 20
-6.36256
 30
0.0
 10
-3.14312
 20
-6.36256
 30
0.0
 10
-3.14312
 20
-6.36256
 30
0.0
 10
-3.14312
 20
-5.76256
 30
0.0
 10
-3.14312
 20
-5.76256
 30
0.0
 10
-3.14312
 20
-5.76256
 30
0.0
 10
-3.44312
 20
-5.76256
 30
0.0
 10
-3.44312
 20
-5.76256
 30
0.0
 10
-3.44312
 20
-5.76256
 30
0.0
 10
-3.44312
 20
-1.56256
 30
0.0
 10
-3.44312
 20
-1.56256
 30
0.0
 10
-3.44312
 20
-1.56256
 30
0.0
 10
-3.14312
 20
-1.56256
 30
0.0
 10
-3.14312
 20
-1.56256
 30
0.0
 10
-3.14312
 20
-1.56256
 30
0.0
 10
-3.14312
 20
-0.96256
 30
0.0
 10
-3.14312
 20
-0.96256
 30
0.0
 10
-3.14312
 20
-0.96256
 30
0.0
 10
-3.44312
 20
-0.96256
 30
0.0
 10
-3.44312
 20
-0.96256
 30
0.0
 10
-3.44312
 20
-0.96256
 30
0.0
 10
-3.44312
 20
3.23743
 30
0.0
 10
-3.44312
 20
3.23743
 30
0.0
 10
-3.44312
 20
3.23743
 30
0.0
 10
-3.14312
 20
3.23743
 30
0.0
 10
-3.14312
 20
3.23743
 30
0.0
 10
-3.14312
 20
3.23743
 30
0.0
 10
-3.14312
 20
3.83743
 30
0.0
 10
-3.14312
 20
3.83743
 30
0.0
 10
-3.14312
 20
3.83743
 30
0.0
 10
-3.44312
 20
3.83743
 30
0.0
 10
-3.44312
 20
3.83743
 30
0.0
 10
-3.44312
 20
3.83743
 30
0.0
 10
-3.44312
 20
4.43742
 30
0.0
 10
-3.44312
 20
4.43742
 30
0.0
 10
-3.44312
 20
4.43742
 30
0.0
 10
-3.94312
 20
4.43742
 30
0.0
 10
-3.94312
 20
4.43742
 30
0.0
 10
-3.94312
 20
4.43742
 30
0.0
 10
-3.94312
 20
4.73742
 30
0.0
 10
-3.94312
 20
4.73742
 30
0.0
 10
-3.94312
 20
4.73742
 30
0.0
 10
-4.54312
 20
4.73742
 30
0.0
 10
-4.54312
 20
4.73742
 30
0.0
 10
-4.54312
 20
4.73742
 30
0.0
 10
-4.54312
 20
4.43742
 30
0.0
 10
-4.54312
 20
4.43742
 30
0.0
 10
-5.74312
 20
4.43742
 30
0.0
 10
-6.94312
 20
4.43742
 30
0.0
 10
-8.14312
 20
4.43742
 30
0.0
 10
-8.14312
 20
4.43742
 30
0.0
 10
-8.14312
 20
4.73742
 30
0.0
 10
-8.14312
 20
4.73742
 30
0.0
 10
-8.14312
 20
4.73742
 30
0.0
 10
-8.74312
 20
4.73742
 30
0.0
 10
-8.74312
 20
4.73742
 30
0.0
 10
-8.74312
 20
4.73742
 30
0.0
 10
-8.74312
 20
4.43742
 30
0.0
 10
-8.74312
 20
4.43742
 30
0.0
 10
-8.74312
 20
4.43742
 30
0.0
 10
-12.94312
 20
4.43742
 30
0.0
 10
-12.94312
 20
4.43742
 30
0.0
 10
-12.94312
 20
4.43742
 30
0.0
 10
-12.94312
 20
4.73742
 30
0.0
 10
-12.94312
 20
4.73742
 30
0.0
 10
-13.14312
 20
4.73742
 30
0.0
 10
-13.34312
 20
4.73742
 30
0.0
 10
-13.54312
 20
4.73742
 30
0.0
 10
-13.54312
 20
4.73742
 30
0.0
 10
-13.54312
 20
4.43742
 30
0.0
 10
-13.54312
 20
4.43742
 30
0.0
 10
-13.54312
 20
4.43742
 30
0.0
 10
-17.74312
 20
4.43742
 30
0.0
 10
-17.74312
 20
4.43742
 30
0.0
 10
-17.74312
 20
4.43742
 30
0.0
 10
-17.74312
 20
4.73742
 30
0.0
 10
-17.74312
 20
4.73742
 30
0.0
 10
-17.74312
 20
4.73742
 30
0.0
 10
-18.34312
 20
4.73742
 30
0.0
 10
-18.34312
 20
4.73742
 30
0.0
 10
-18.34312
 20
4.73742
 30
0.0
 10
-18.34312
 20
4.43742
 30
0.0
 10
-18.34312
 20
4.43742
 30
0.0
 10
-19.54312
 20
4.43742
 30
0.0
 10
-20.74312
 20
4.43742
 30
0.0
 10
-21.94312
 20
4.43742
 30
0.0
 10
-21.94312
 20
4.43742
 30
0.0
 10
-21.94312
 20
4.73742
 30
0.0
 10
-21.94312
 20
4.73742
 30
0.0
 10
-21.94312
 20
4.73742
 30
0.0
 10
-22.54312
 20
4.73742
 30
0.0
 10
-22.54312
 20
4.73742
 30
0.0
 10
-22.54312
 20
4.73742
 30
0.0
 10
-22.54312
 20
4.43742
 30
0.0
 10
-22.54312
 20
4.43742
 30
0.0
 10
-22.54312
 20
4.43742
 30
0.0
 10
-23.04312
 20
4.43742
 30
0.0
 10
-23.04312
 20
4.43742
 30
0.0
 10
-23.04312
 20
4.43742
 30
0.0
 10
-23.04312
 20
3.83743
 30
0.0
 10
-23.04312
 20
3.83743
 30
0.0
 10
-23.04312
 20
3.83743
 30
0.0
 10
-23.34312
 20
3.83743
 30
0.0
 10
-23.34312
 20
3.83743
 30
0.0
 10
-23.34312
 20
3.83743
 30
0.0
 10
-23.34312
 20
3.23743
 30
0.0
 10
-23.34312
 20
3.23743
 30
0.0
 10
-23.34312
 20
3.23743
 30
0.0
 10
-23.04312
 20
3.23743
 30
0.0
 10
-23.04312
 20
3.23743
 30
0.0
 10
-23.04312
 20
3.23743
 30
0.0
 10
-23.04312
 20
-0.96256
 30
0.0
 10
-23.04312
 20
-0.96256
 30
0.0
 10
-23.04312
 20
-0.96256
 30
0.0
 10
-23.34312
 20
-0.96256
 30
0.0
 10
-23.34312
 20
-0.96256
 30
0.0
 10
-23.34312
 20
-0.96256
 30
0.0
 10
-23.34312
 20
-1.56256
 30
0.0
 10
-23.34312
 20
-1.56256
 30
0.0
 10
-23.34312
 20
-1.56256
 30
0.0
 10
-23.04312
 20
-1.56256
 30
0.0
 10
-23.04312
 20
-1.56256
 30
0.0
 10
-23.04312
 20
-1.56256
 30
0.0
 10
-23.04312
 20
-5.76256
 30
0.0
 10
-23.04312
 20
-5.76256
 30
0.0
 10
-23.04312
 20
-5.76256
 30
0.0
 10
-23.34312
 20
-5.76256
 30
0.0
 10
-23.34312
 20
-5.76256
 30
0.0
 10
-23.34312
 20
-5.76256
 30
0.0
 10
-23.34312
 20
-6.36256
 30
0.0
 10
-23.34312
 20
-6.36256
 30
0.0
 10
-23.34312
 20
-6.36256
 30
0.0
 10
-23.04312
 20
-6.36256
 30
0.0
 10
-23.04312
 20
-6.36256
 30
0.0
 10
-23.04312
 20
-6.36256
 30
0.0
 10
-23.04312
 20
-6.96257
 30
0.0
 10
-23.04312
 20
-6.96257
 30
0.0
 10
-23.04312
 20
-6.96257
 30
0.0
 10
-22.54312
 20
-6.96257
 30
0.0
 10
-22.54312
 20
-6.96257
 30
0.0
 10
-22.54312
 20
-6.96257
 30
0.0
 10
-22.54312
 20
-7.26257
 30
0.0
 10
-22.54312
 20
-7.26257
 30
0.0
 10
-22.54312
 20
-7.26257
 30
0.0
 10
-21.94312
 20
-7.26257
 30
0.0
 10
-21.94312
 20
-7.26257
 30
0.0
 10
-21.94312
 20
-7.26257
 30
0.0
 10
-21.94312
 20
-6.96257
 30
0.0
 10
-21.94312
 20
-6.96257
 30
0.0
 10
-21.94312
 20
-6.96257
 30
0.0
 10
-21.34312
 20
-6.96257
 30
0.0
 10
-21.34312
 20
-6.96257
 30
0.0
 10
-21.34312
 20
-6.96257
 30
0.0
 10
-21.34312
 20
-7.26257
 30
0.0
 10
-21.34312
 20
-7.26257
 30
0.0
 10
-21.34312
 20
-7.26257
 30
0.0
 10
-20.74312
 20
-7.26257
 30
0.0
 10
-20.74312
 20
-7.26257
 30
0.0
 10
-20.74312
 20
-7.26257
 30
0.0
 10
-20.74312
 20
-6.96257
 30
0.0
 10
-20.74312
 20
-6.96257
 30
0.0
 10
-20.74312
 20
-6.96257
 30
0.0
 10
-20.14312
 20
-6.96257
 30
0.0
 10
-20.14312
 20
-6.96257
 30
0.0
 10
-20.14312
 20
-6.96257
 30
0.0
 10
-20.14312
 20
-7.26257
 30
0.0
 10
-20.14312
 20
-7.26257
 30
0.0
 10
-20.14312
 20
-7.26257
 30
0.0
 10
-19.54312
 20
-7.26257
 30
0.0
 10
-19.54312
 20
-7.26257
 30
0.0
 10
-19.54312
 20
-7.26257
 30
0.0
 10
-19.54312
 20
-6.96257
 30
0.0
 10
-19.54312
 20
-6.96257
 30
0.0
 10
-19.54312
 20
-6.96257
 30
0.0
 10
-18.94312
 20
-6.96257
 30
0.0
 10
-18.94312
 20
-6.96257
 30
0.0
 10
-18.94312
 20
-6.96257
 30
0.0
 10
-18.94312
 20
-7.26257
 30
0.0
 10
-18.94312
 20
-7.26257
 30
0.0
 10
-18.94312
 20
-7.26257
 30
0.0
 10
-18.34312
 20
-7.26257
 30
0.0
 10
-18.34312
 20
-7.26257
 30
0.0
 10
-18.34312
 20
-7.26257
 30
0.0
 10
-18.34312
 20
-6.96257
 30
0.0
 10
-18.34312
 20
-6.96257
 30
0.0
 10
-18.34312
 20
-6.96257
 30
0.0
 10
-17.74312
 20
-6.96257
 30
0.0
 10
-17.74312
 20
-6.96257
 30
0.0
 10
-17.74312
 20
-6.96257
 30
0.0
 10
-17.74312
 20
-7.26257
 30
0.0
 10
-17.74312
 20
-7.26257
 30
0.0
 10
-17.74312
 20
-7.26257
 30
0.0
 10
-17.14312
 20
-7.26257
 30
0.0
 10
-17.14312
 20
-7.26257
 30
0.0
 10
-17.14312
 20
-7.26257
 30
0.0
 10
-17.14312
 20
-6.96257
 30
0.0
 10
-17.14312
 20
-6.96257
 30
0.0
 10
-17.14312
 20
-6.96257
 30
0.0
 10
-16.54312
 20
-6.96257
 30
0.0
 10
-16.54312
 20
-6.96257
 30
0.0
 10
-16.54312
 20
-6.96257
 30
0.0
 10
-16.54312
 20
-7.26257
 30
0.0
 10
-16.54312
 20
-7.26257
 30
0.0
 10
-16.34312
 20
-7.26257
 30
0.0
 10
-16.14312
 20
-7.26257
 30
0.0
 10
-15.94312
 20
-7.26257
 30
0.0
 10
-15.94312
 20
-7.26257
 30
0.0
 10
-15.94312
 20
-6.96257
 30
0.0
 10
-15.94312
 20
-6.96257
 30
0.0
 10
-15.94312
 20
-6.96257
 30
0.0
 10
-15.34312
 20
-6.96257
 30
0.0
 10
-15.34312
 20
-6.96257
 30
0.0
 10
-15.34312
 20
-6.96257
 30
0.0
 10
-15.34312
 20
-7.26257
 30
0.0
 10
-15.34312
 20
-7.26257
 30
0.0
 10
-15.34312
 20
-7.26257
 30
0.0
 10
-14.74312
 20
-7.26257
 30
0.0
 10
-14.74312
 20
-7.26257
 30
0.0
 10
-14.74312
 20
-7.26257
 30
0.0
 10
-14.74312
 20
-6.96257
 30
0.0
 10
-14.74312
 20
-6.96257
 30
0.0
 10
-14.74312
 20
-6.96257
 30
0.0
 10
-14.14312
 20
-6.96257
 30
0.0
 10
-14.14312
 20
-6.96257
 30
0.0
 10
-14.14312
 20
-6.96257
 30
0.0
 10
-14.14312
 20
-7.26257
 30
0.0
 10
-14.14312
 20
-7.26257
 30
0.0
 10
-14.14312
 20
-7.26257
 30
0.0
 10
-13.54312
 20
-7.26257
 30
0.0
 10
-13.54312
 20
-7.26257
 30
0.0
 10
-13.54312
 20
-7.26257
 30
0.0
 10
-13.54312
 20
-6.96257
 30
0.0
 10
-13.54312
 20
-6.96257
 30
0.0
 10
-13.54312
 20
-6.96257
 30
0.0
 10
-12.94312
 20
-6.96257
 30
0.0
 10
-12.94312
 20
-6.96257
 30
0.0
 10
-12.94312
 20
-6.96257
 30
0.0
 10
-12.94312
 20
-7.26257
 30
0.0
 10
-12.94312
 20
-7.26257
 30
0.0
 10
-12.94312
 20
-7.26257
 30
0.0
 10
-12.34312
 20
-7.26257
 30
0.0
 10
-12.34312
 20
-7.26257
 30
0.0
  0
SPLINE
  5
6D
330
1F
100
AcDbEntity
  8
Layer 1
370
     9
100
AcDbSpline
210
0.0
220
0.0
230
1.0
 70
    11
 71
     3
 72
    32
 73
    28
 74
     0
 42
0.0000000001
 43
0.0000000001
 40
0.0
 40
0.0
 40
0.0
 40
0.0
 40
0.1111111111111111
 40
0.1111111111111111
 40
0.1111111111111111
 40
0.2222222222222222
 40
0.2222222222222222
 40
0.2222222222222222
 40
0.3333333333333333
 40
0.3333333333333333
 40
0.3333333333333333
 40
0.4444444444444444
 40
0.4444444444444444
 40
0.4444444444444444
 40
0.5555555555555556
 40
0.5555555555555556
 40
0.5555555555555556
 40
0.6666666666666666
 40
0.6666666666666666
 40
0.6666666666666666
 40
0.7777777777777777
 40
0.7777777777777777
 40
0.7777777777777777
 40
0.8888888888888888
 40
0.8888888888888888
 40
0.8888888888888888
 40
1.0
 40
1.0
 40
1.0
 40
1.0
 10
-2.54312
 20
-16.98268
 30
0.0
 10
-2.54312
 20
-16.98268
 30
0.0
 10
-2.54312
 20
-18.4731
 30
0.0
 10
-2.54312
 20
-18.4731
 30
0.0
 10
-2.54312
 20
-18.63833
 30
0.0
 10
-2.67789
 20
-18.7731
 30
0.0
 10
-2.84312
 20
-18.7731
 30
0.0
 10
-2.84312
 20
-18.7731
 30
0.0
 10
-23.04312
 20
-18.7731
 30
0.0
 10
-23.04312
 20
-18.7731
 30
0.0
 10
-23.2075
 20
-18.7731
 30
0.0
 10
-23.34312
 20
-18.63917
 30
0.0
 10
-23.34312
 20
-18.4731
 30
0.0
 10
-23.34312
 20
-18.4731
 30
0.0
 10
-23.34312
 20
-9.06257
 30
0.0
 10
-23.34312
 20
-9.06257
 30
0.0
 10
-23.34312
 20
-8.89734
 30
0.0
 10
-23.20835
 20
-8.76257
 30
0.0
 10
-23.04312
 20
-8.76257
 30
0.0
 10
-23.04312
 20
-8.76257
 30
0.0
 10
-2.84312
 20
-8.76257
 30
0.0
 10
-2.84312
 20
-8.76257
 30
0.0
 10
-2.67789
 20
-8.76257
 30
0.0
 10
-2.54312
 20
-8.89734
 30
0.0
 10
-2.54312
 20
-9.06257
 30
0.0
 10
-2.54312
 20
-9.06257
 30
0.0
 10
-2.54312
 20
-16.98268
 30
0.0
 10
-2.54312
 20
-16.98268
 30
0.0
  0
SPLINE
  5
6E
330
1F
100
AcDbEntity
  8
Layer 1
370
     9
100
AcDbSpline
210
0.0
220
0.0
230
1.0
 70
    11
 71
     3
 72
    17
 73
    13
 74
     0
 42
0.0000000001
 43
0.0000000001
 40
0.0
 40
0.0
 40
0.0
 40
0.0
 40
0.25
 40
0.25
 40
0.25
 40
0.5
 40
0.5
 40
0.5
 40
0.75
 40
0.75
 40
0.75
 40
1.0
 40
1.0
 40
1.0
 40
1.0
 10
-22.74312
 20
-18.1731
 30
0.0
 10
-22.74312
 20
-18.1731
 30
0.0
 10
-23.04312
 20
-18.1731
 30
0.0
 10
-23.04312
 20
-18.1731
 30
0.0
 10
-23.04312
 20
-18.1731
 30
0.0
 10
-23.04312
 20
-17.5731
 30
0.0
 10
-23.04312
 20
-17.5731
 30
0.0
 10
-23.04312
 20
-17.5731
 30
0.0
 10
-22.74312
 20
-17.5731
 30
0.0
 10
-22.74312
 20
-17.5731
 30
0.0
 10
-22.74312
 20
-17.5731
 30
0.0
 10
-22.74312
 20
-18.1731
 30
0.0
 10
-22.74312
 20
-18.1731
 30
0.0
  0
SPLINE
  5
6F
330
1F
100
AcDbEntity
  8
Layer 1
370
     9
100
AcDbSpline
210
0.0
220
0.0
230
1.0
 70
    11
 71
     3
 72
    17
 73
    13
 74
     0
 42
0.0000000001
 43
0.0000000001
 40
0.0
 40
0.0
 40
0.0
 40
0.0
 40
0.25
 40
0.25
 40
0.25
 40
0.5
 40
0.5
 40
0.5
 40
0.75
 40
0.75
 40
0.75
 40
1.0
 40
1.0
 40
1.0
 40
1.0
 10
-22.74312
 20
-16.9731
 30
0.0
 10
-22.74312
 20
-16.9731
 30
0.0
 10
-23.04312
 20
-16.9731
 30
0.0
 10
-23.04312
 20
-16.9731
 30
0.0
 10
-23.04312
 20
-16.9731
 30
0.0
 10
-23.04312
 20
-16.3731
 30
0.0
 10
-23.04312
 20
-16.3731
 30
0.0
 10
-23.04312
 20
-16.3731
 30
0.0
 10
-22.74312
 20
-16.3731
 30
0.0
 10
-22.74312
 20
-16.3731
 30
0.0
 10
-22.74312
 20
-16.3731
 30
0.0
 10
-22.74312
 20
-16.9731
 30
0.0
 10
-22.74312
 20
-16.9731
 30
0.0
  0
SPLINE
  5
70
330
1F
100
AcDbEntity
  8
Layer 1
370
     9
100
AcDbSpline
210
0.0
220
0.0
230
1.0
 70
    11
 71
     3
 72
    17
 73
    13
 74
     0
 42
0.0000000001
 43
0.0000000001
 40
0.0
 40
0.0
 40
0.0
 40
0.0
 40
0.25
 40
0.25
 40
0.25
 40
0.5
 40
0.5
 40
0.5
 40
0.75
 40
0.75
 40
0.75
 40
1.0
 40
1.0
 40
1.0
 40
1.0
 10
-22.74312
 20
-15.7731
 30
0.0
 10
-22.74312
 20
-15.7731
 30
0.0
 10
-23.04312
 20
-15.7731
 30
0.0
 10
-23.04312
 20
-15.7731
 30
0.0
 10
-23.04312
 20
-15.7731
 30
0.0
 10
-23.04312
 20
-15.1731
 30
0.0
 10
-23.04312
 20
-15.1731
 30
0.0
 10
-23.04312
 20
-15.1731
 30
0.0
 10
-22.74312
 20
-15.1731
 30
0.0
 10
-22.74312
 20
-15.1731
 30
0.0
 10
-22.74312
 20
-15.1731
 30
0.0
 10
-22.74312
 20
-15.7731
 30
0.0
 10
-22.74312
 20
-15.7731
 30
0.0
  0
SPLINE
  5
71
330
1F
100
AcDbEntity
  8
Layer 1
370
     9
100
AcDbSpline
210
0.0
220
0.0
230
1.0
 70
    11
 71
     3
 72
    17
 73
    13
 74
     0
 42
0.0000000001
 43
0.0000000001
 40
0.0
 40
0.0
 40
0.0
 40
0.0
 40
0.25
 40
0.25
 40
0.25
 40
0.5
 40
0.5
 40
0.5
 40
0.75
 40
0.75
 40
0.75
 40
1.0
 40
1.0
 40
1.0
 40
1.0
 10
-22.74312
 20
-14.5731
 30
0.0
 10
-22.74312
 20
-14.5731
 30
0.0
 10
-23.04312
 20
-14.5731
 30
0.0
 10
-23.04312
 20
-14.5731
 30
0.0
 10
-23.04312
 20
-14.5731
 30
0.0
 10
-23.04312
 20
-13.9731
 30
0.0
 10
-23.04312
 20
-13.9731
 30
0.0
 10
-23.04312
 20
-13.9731
 30
0.0
 10
-22.74312
 20
-13.9731
 30
0.0
 10
-22.74312
 20
-13.9731
 30
0.0
 10
-22.74312
 20
-13.9731
 30
0.0
 10
-22.74312
 20
-14.5731
 30
0.0
 10
-22.74312
 20
-14.5731
 30
0.0
  0
SPLINE
  5
72
330
1F
100
AcDbEntity
  8
Layer 1
370
     9
100
AcDbSpline
210
0.0
220
0.0
230
1.0
 70
    11
 71
     3
 72
    17
 73
    13
 74
     0
 42
0.0000000001
 43
0.0000000001
 40
0.0
 40
0.0
 40
0.0
 40
0.0
 40
0.25
 40
0.25
 40
0.25
 40
0.5
 40
0.5
 40
0.5
 40
0.75
 40
0.75
 40
0.75
 40
1.0
 40
1.0
 40
1.0
 40
1.0
 10
-22.74312
 20
-13.3731
 30
0.0
 10
-22.74312
 20
-13.3731
 30
0.0
 10
-23.04312
 20
-13.3731
 30
0.0
 10
-23.04312
 20
-13.3731
 30
0.0
 10
-23.04312
 20
-13.3731
 30
0.0
 10
-23.04312
 20
-12.7731
 30
0.0
 10
-23.04312
 20
-12.7731
 30
0.0
 10
-23.04312
 20
-12.7731
 30
0.0
 10
-22.74312
 20
-12.7731
 30
0.0
 10
-22.74312
 20
-12.7731
 30
0.0
 10
-22.74312
 20
-12.7731
 30
0.0
 10
-22.74312
 20
-13.3731
 30
0.0
 10
-22.74312
 20
-13.3731
 30
0.0
  0
SPLINE
  5
73
330
1F
100
AcDbEntity
  8
Layer 1
370
     9
100
AcDbSpline
210
0.0
220
0.0
230
1.0
 70
    11
 71
     3
 72
    17
 73
    13
 74
     0
 42
0.0000000001
 43
0.0000000001
 40
0.0
 40
0.0
 40
0.0
 40
0.0
 40
0.25
 40
0.25
 40
0.25
 40
0.5
 40
0.5
 40
0.5
 40
0.75
 40
0.75
 40
0.75
 40
1.0
 40
1.0
 40
1.0
 40
1.0
 10
-22.74312
 20
-12.1731
 30
0.0
 10
-22.74312
 20
-12.1731
 30
0.0
 10
-23.04312
 20
-12.1731
 30
0.0
 10
-23.04312
 20
-12.1731
 30
0.0
 10
-23.04312
 20
-12.1731
 30
0.0
 10
-23.04312
 20
-11.5731
 30
0.0
 10
-23.04312
 20
-11.5731
 30
0.0
 10
-23.04312
 20
-11.5731
 30
0.0
 10
-22.74312
 20
-11.5731
 30
0.0
 10
-22.74312
 20
-11.5731
 30
0.0
 10
-22.74312
 20
-11.5731
 30
0.0
 10
-22.74312
 20
-12.1731
 30
0.0
 10
-22.74312
 20
-12.1731
 30
0.0
  0
SPLINE
  5
74
330
1F
100
AcDbEntity
  8
Layer 1
370
     9
100
AcDbSpline
210
0.0
220
0.0
230
1.0
 70
    11
 71
     3
 72
    17
 73
    13
 74
     0
 42
0.0000000001
 43
0.0000000001
 40
0.0
 40
0.0
 40
0.0
 40
0.0
 40
0.25
 40
0.25
 40
0.25
 40
0.5
 40
0.5
 40
0.5
 40
0.75
 40
0.75
 40
0.75
 40
1.0
 40
1.0
 40
1.0
 40
1.0
 10
-22.74312
 20
-10.9731
 30
0.0
 10
-22.74312
 20
-10.9731
 30
0.0
 10
-23.04312
 20
-10.9731
 30
0.0
 10
-23.04312
 20
-10.9731
 30
0.0
 10
-23.04312
 20
-10.9731
 30
0.0
 10
-23.04312
 20
-10.3731
 30
0.0
 10
-23.04312
 20
-10.3731
 30
0.0
 10
-23.04312
 20
-10.3731
 30
0.0
 10
-22.74312
 20
-10.3731
 30
0.0
 10
-22.74312
 20
-10.3731
 30
0.0
 10
-22.74312
 20
-10.3731
 30
0.0
 10
-22.74312
 20
-10.9731
 30
0.0
 10
-22.74312
 20
-10.9731
 30
0.0
  0
SPLINE
  5
75
330
1F
100
AcDbEntity
  8
Layer 1
370
     9
100
AcDbSpline
210
0.0
220
0.0
230
1.0
 70
    11
 71
     3
 72
    17
 73
    13
 74
     0
 42
0.0000000001
 43
0.0000000001
 40
0.0
 40
0.0
 40
0.0
 40
0.0
 40
0.25
 40
0.25
 40
0.25
 40
0.5
 40
0.5
 40
0.5
 40
0.75
 40
0.75
 40
0.75
 40
1.0
 40
1.0
 40
1.0
 40
1.0
 10
-22.74312
 20
-9.7731
 30
0.0
 10
-22.74312
 20
-9.7731
 30
0.0
 10
-23.04312
 20
-9.7731
 30
0.0
 10
-23.04312
 20
-9.7731
 30
0.0
 10
-23.04312
 20
-9.7731
 30
0.0
 10
-23.04312
 20
-9.1731
 30
0.0
 10
-23.04312
 20
-9.1731
 30
0.0
 10
-23.04312
 20
-9.1731
 30
0.0
 10
-22.74312
 20
-9.1731
 30
0.0
 10
-22.74312
 20
-9.1731
 30
0.0
 10
-22.74312
 20
-9.1731
 30
0.0
 10
-22.74312
 20
-9.7731
 30
0.0
 10
-22.74312
 20
-9.7731
 30
0.0
  0
SPLINE
  5
76
330
1F
100
AcDbEntity
  8
Layer 1
370
     9
100
AcDbSpline
210
0.0
220
0.0
230
1.0
 70
    11
 71
     3
 72
    17
 73
    13
 74
     0
 42
0.0000000001
 43
0.0000000001
 40
0.0
 40
0.0
 40
0.0
 40
0.0
 40
0.25
 40
0.25
 40
0.25
 40
0.5
 40
0.5
 40
0.5
 40
0.75
 40
0.75
 40
0.75
 40
1.0
 40
1.0
 40
1.0
 40
1.0
 10
-21.64312
 20
-18.1731
 30
0.0
 10
-21.64312
 20
-18.1731
 30
0.0
 10
-21.64312
 20
-18.4731
 30
0.0
 10
-21.64312
 20
-18.4731
 30
0.0
 10
-21.64312
 20
-18.4731
 30
0.0
 10
-22.24312
 20
-18.4731
 30
0.0
 10
-22.24312
 20
-18.4731
 30
0.0
 10
-22.24312
 20
-18.4731
 30
0.0
 10
-22.24312
 20
-18.1731
 30
0.0
 10
-22.24312
 20
-18.1731
 30
0.0
 10
-22.24312
 20
-18.1731
 30
0.0
 10
-21.64312
 20
-18.1731
 30
0.0
 10
-21.64312
 20
-18.1731
 30
0.0
  0
SPLINE
  5
77
330
1F
100
AcDbEntity
  8
Layer 1
370
     9
100
AcDbSpline
210
0.0
220
0.0
230
1.0
 70
    11
 71
     3
 72
    17
 73
    13
 74
     0
 42
0.0000000001
 43
0.0000000001
 40
0.0
 40
0.0
 40
0.0
 40
0.0
 40
0.25
 40
0.25
 40
0.25
 40
0.5
 40
0.5
 40
0.5
 40
0.75
 40
0.75
 40
0.75
 40
1.0
 40
1.0
 40
1.0
 40
1.0
 10
-20.44312
 20
-18.1731
 30
0.0
 10
-20.44312
 20
-18.1731
 30
0.0
 10
-20.44312
 20
-18.4731
 30
0.0
 10
-20.44312
 20
-18.4731
 30
0.0
 10
-20.44312
 20
-18.4731
 30
0.0
 10
-21.04312
 20
-18.4731
 30
0.0
 10
-21.04312
 20
-18.4731
 30
0.0
 10
-21.04312
 20
-18.4731
 30
0.0
 10
-21.04312
 20
-18.1731
 30
0.0
 10
-21.04312
 20
-18.1731
 30
0.0
 10
-21.04312
 20
-18.1731
 30
0.0
 10
-20.44312
 20
-18.1731
 30
0.0
 10
-20.44312
 20
-18.1731
 30
0.0
  0
SPLINE
  5
78
330
1F
100
AcDbEntity
  8
Layer 1
370
     9
100
AcDbSpline
210
0.0
220
0.0
230
1.0
 70
    11
 71
     3
 72
    17
 73
    13
 74
     0
 42
0.0000000001
 43
0.0000000001
 40
0.0
 40
0.0
 40
0.0
 40
0.0
 40
0.25
 40
0.25
 40
0.25
 40
0.5
 40
0.5
 40
0.5
 40
0.75
 40
0.75
 40
0.75
 40
1.0
 40
1.0
 40
1.0
 40
1.0
 10
-19.24312
 20
-18.1731
 30
0.0
 10
-19.24312
 20
-18.1731
 30
0.0
 10
-19.24312
 20
-18.4731
 30
0.0
 10
-19.24312
 20
-18.4731
 30
0.0
 10
-19.24312
 20
-18.4731
 30
0.0
 10
-19.84312
 20
-18.4731
 30
0.0
 10
-19.84312
 20
-18.4731
 30
0.0
 10
-19.84312
 20
-18.4731
 30
0.0
 10
-19.84312
 20
-18.1731
 30
0.0
 10
-19.84312
 20
-18.1731
 30
0.0
 10
-19.84312
 20
-18.1731
 30
0.0
 10
-19.24312
 20
-18.1731
 30
0.0
 10
-19.24312
 20
-18.1731
 30
0.0
  0
SPLINE
  5
79
330
1F
100
AcDbEntity
  8
Layer 1
370
     9
100
AcDbSpline
210
0.0
220
0.0
230
1.0
 70
    11
 71
     3
 72
    17
 73
    13
 74
     0
 42
0.0000000001
 43
0.0000000001
 40
0.0
 40
0.0
 40
0.0
 40
0.0
 40
0.25
 40
0.25
 40
0.25
 40
0.5
 40
0.5
 40
0.5
 40
0.75
 40
0.75
 40
0.75
 40
1.0
 40
1.0
 40
1.0
 40
1.0
 10
-18.04312
 20
-18.1731
 30
0.0
 10
-18.04312
 20
-18.1731
 30
0.0
 10
-18.04312
 20
-18.4731
 30
0.0
 10
-18.04312
 20
-18.4731
 30
0.0
 10
-18.04312
 20
-18.4731
 30
0.0
 10
-18.64312
 20
-18.4731
 30
0.0
 10
-18.64312
 20
-18.4731
 30
0.0
 10
-18.64312
 20
-18.4731
 30
0.0
 10
-18.64312
 20
-18.1731
 30
0.0
 10
-18.64312
 20
-18.1731
 30
0.0
 10
-18.64312
 20
-18.1731
 30
0.0
 10
-18.04312
 20
-18.1731
 30
0.0
 10
-18.04312
 20
-18.1731
 30
0.0
  0
SPLINE
  5
7A
330
1F
100
AcDbEntity
  8
Layer 1
370
     9
100
AcDbSpline
210
0.0
220
0.0
230
1.0
 70
    11
 71
     3
 72
    17
 73
    13
 74
     0
 42
0.0000000001
 43
0.0000000001
 40
0.0
 40
0.0
 40
0.0
 40
0.0
 40
0.25
 40
0.25
 40
0.25
 40
0.5
 40
0.5
 40
0.5
 40
0.75
 40
0.75
 40
0.75
 40
1.0
 40
1.0
 40
1.0
 40
1.0
 10
-16.84312
 20
-18.1731
 30
0.0
 10
-16.84312
 20
-18.1731
 30
0.0
 10
-16.84312
 20
-18.4731
 30
0.0
 10
-16.84312
 20
-18.4731
 30
0.0
 10
-16.84312
 20
-18.4731
 30
0.0
 10
-17.44312
 20
-18.4731
 30
0.0
 10
-17.44312
 20
-18.4731
 30
0.0
 10
-17.44312
 20
-18.4731
 30
0.0
 10
-17.44312
 20
-18.1731
 30
0.0
 10
-17.44312
 20
-18.1731
 30
0.0
 10
-17.44312
 20
-18.1731
 30
0.0
 10
-16.84312
 20
-18.1731
 30
0.0
 10
-16.84312
 20
-18.1731
 30
0.0
  0
SPLINE
  5
7B
330
1F
100
AcDbEntity
  8
Layer 1
370
     9
100
AcDbSpline
210
0.0
220
0.0
230
1.0
 70
    11
 71
     3
 72
    17
 73
    13
 74
     0
 42
0.0000000001
 43
0.0000000001
 40
0.0
 40
0.0
 40
0.0
 40
0.0
 40
0.25
 40
0.25
 40
0.25
 40
0.5
 40
0.5
 40
0.5
 40
0.75
 40
0.75
 40
0.75
 40
1.0
 40
1.0
 40
1.0
 40
1.0
 10
-15.64312
 20
-18.1731
 30
0.0
 10
-15.64312
 20
-18.1731
 30
0.0
 10
-15.64312
 20
-18.4731
 30
0.0
 10
-15.64312
 20
-18.4731
 30
0.0
 10
-15.64312
 20
-18.4731
 30
0.0
 10
-16.24312
 20
-18.4731
 30
0.0
 10
-16.24312
 20
-18.4731
 30
0.0
 10
-16.24312
 20
-18.4731
 30
0.0
 10
-16.24312
 20
-18.1731
 30
0.0
 10
-16.24312
 20
-18.1731
 30
0.0
 10
-16.24312
 20
-18.1731
 30
0.0
 10
-15.64312
 20
-18.1731
 30
0.0
 10
-15.64312
 20
-18.1731
 30
0.0
  0
SPLINE
  5
7C
330
1F
100
AcDbEntity
  8
Layer 1
370
     9
100
AcDbSpline
210
0.0
220
0.0
230
1.0
 70
    11
 71
     3
 72
    17
 73
    13
 74
     0
 42
0.0000000001
 43
0.0000000001
 40
0.0
 40
0.0
 40
0.0
 40
0.0
 40
0.25
 40
0.25
 40
0.25
 40
0.5
 40
0.5
 40
0.5
 40
0.75
 40
0.75
 40
0.75
 40
1.0
 40
1.0
 40
1.0
 40
1.0
 10
-14.44312
 20
-18.1731
 30
0.0
 10
-14.44312
 20
-18.1731
 30
0.0
 10
-14.44312
 20
-18.4731
 30
0.0
 10
-14.44312
 20
-18.4731
 30
0.0
 10
-14.44312
 20
-18.4731
 30
0.0
 10
-15.04312
 20
-18.4731
 30
0.0
 10
-15.04312
 20
-18.4731
 30
0.0
 10
-15.04312
 20
-18.4731
 30
0.0
 10
-15.04312
 20
-18.1731
 30
0.0
 10
-15.04312
 20
-18.1731
 30
0.0
 10
-15.04312
 20
-18.1731
 30
0.0
 10
-14.44312
 20
-18.1731
 30
0.0
 10
-14.44312
 20
-18.1731
 30
0.0
  0
SPLINE
  5
7D
330
1F
100
AcDbEntity
  8
Layer 1
370
     9
100
AcDbSpline
210
0.0
220
0.0
230
1.0
 70
    11
 71
     3
 72
    17
 73
    13
 74
     0
 42
0.0000000001
 43
0.0000000001
 40
0.0
 40
0.0
 40
0.0
 40
0.0
 40
0.25
 40
0.25
 40
0.25
 40
0.5
 40
0.5
 40
0.5
 40
0.75
 40
0.75
 40
0.75
 40
1.0
 40
1.0
 40
1.0
 40
1.0
 10
-13.24312
 20
-18.1731
 30
0.0
 10
-13.24312
 20
-18.1731
 30
0.0
 10
-13.24312
 20
-18.4731
 30
0.0
 10
-13.24312
 20
-18.4731
 30
0.0
 10
-13.24312
 20
-18.4731
 30
0.0
 10
-13.84312
 20
-18.4731
 30
0.0
 10
-13.84312
 20
-18.4731
 30
0.0
 10
-13.84312
 20
-18.4731
 30
0.0
 10
-13.84312
 20
-18.1731
 30
0.0
 10
-13.84312
 20
-18.1731
 30
0.0
 10
-13.84312
 20
-18.1731
 30
0.0
 10
-13.24312
 20
-18.1731
 30
0.0
 10
-13.24312
 20
-18.1731
 30
0.0
  0
SPLINE
  5
7E
330
1F
100
AcDbEntity
  8
Layer 1
370
     9
100
AcDbSpline
210
0.0
220
0.0
230
1.0
 70
    11
 71
     3
 72
    17
 73
    13
 74
     0
 42
0.0000000001
 43
0.0000000001
 40
0.0
 40
0.0
 40
0.0
 40
0.0
 40
0.25
 40
0.25
 40
0.25
 40
0.5
 40
0.5
 40
0.5
 40
0.75
 40
0.75
 40
0.75
 40
1.0
 40
1.0
 40
1.0
 40
1.0
 10
-3.14312
 20
-18.1731
 30
0.0
 10
-3.14312
 20
-18.1731
 30
0.0
 10
-2.84312
 20
-18.1731
 30
0.0
 10
-2.84312
 20
-18.1731
 30
0.0
 10
-2.84312
 20
-18.1731
 30
0.0
 10
-2.84312
 20
-17.5731
 30
0.0
 10
-2.84312
 20
-17.5731
 30
0.0
 10
-2.84312
 20
-17.5731
 30
0.0
 10
-3.14312
 20
-17.5731
 30
0.0
 10
-3.14312
 20
-17.5731
 30
0.0
 10
-3.14312
 20
-17.5731
 30
0.0
 10
-3.14312
 20
-18.1731
 30
0.0
 10
-3.14312
 20
-18.1731
 30
0.0
  0
SPLINE
  5
7F
330
1F
100
AcDbEntity
  8
Layer 1
370
     9
100
AcDbSpline
210
0.0
220
0.0
230
1.0
 70
    11
 71
     3
 72
    17
 73
    13
 74
     0
 42
0.0000000001
 43
0.0000000001
 40
0.0
 40
0.0
 40
0.0
 40
0.0
 40
0.25
 40
0.25
 40
0.25
 40
0.5
 40
0.5
 40
0.5
 40
0.75
 40
0.75
 40
0.75
 40
1.0
 40
1.0
 40
1.0
 40
1.0
 10
-3.14312
 20
-16.9731
 30
0.0
 10
-3.14312
 20
-16.9731
 30
0.0
 10
-2.84312
 20
-16.9731
 30
0.0
 10
-2.84312
 20
-16.9731
 30
0.0
 10
-2.84312
 20
-16.9731
 30
0.0
 10
-2.84312
 20
-16.3731
 30
0.0
 10
-2.84312
 20
-16.3731
 30
0.0
 10
-2.84312
 20
-16.3731
 30
0.0
 10
-3.14312
 20
-16.3731
 30
0.0
 10
-3.14312
 20
-16.3731
 30
0.0
 10
-3.14312
 20
-16.3731
 30
0.0
 10
-3.14312
 20
-16.9731
 30
0.0
 10
-3.14312
 20
-16.9731
 30
0.0
  0
SPLINE
  5
80
330
1F
100
AcDbEntity
  8
Layer 1
370
     9
100
AcDbSpline
210
0.0
220
0.0
230
1.0
 70
    11
 71
     3
 72
    17
 73
    13
 74
     0
 42
0.0000000001
 43
0.0000000001
 40
0.0
 40
0.0
 40
0.0
 40
0.0
 40
0.25
 40
0.25
 40
0.25
 40
0.5
 40
0.5
 40
0.5
 40
0.75
 40
0.75
 40
0.75
 40
1.0
 40
1.0
 40
1.0
 40
1.0
 10
-3.14312
 20
-15.7731
 30
0.0
 10
-3.14312
 20
-15.7731
 30
0.0
 10
-2.84312
 20
-15.7731
 30
0.0
 10
-2.84312
 20
-15.7731
 30
0.0
 10
-2.84312
 20
-15.7731
 30
0.0
 10
-2.84312
 20
-15.1731
 30
0.0
 10
-2.84312
 20
-15.1731
 30
0.0
 10
-2.84312
 20
-15.1731
 30
0.0
 10
-3.14312
 20
-15.1731
 30
0.0
 10
-3.14312
 20
-15.1731
 30
0.0
 10
-3.14312
 20
-15.1731
 30
0.0
 10
-3.14312
 20
-15.7731
 30
0.0
 10
-3.14312
 20
-15.7731
 30
0.0
  0
SPLINE
  5
81
330
1F
100
AcDbEntity
  8
Layer 1
370
     9
100
AcDbSpline
210
0.0
220
0.0
230
1.0
 70
    11
 71
     3
 72
    17
 73
    13
 74
     0
 42
0.0000000001
 43
0.0000000001
 40
0.0
 40
0.0
 40
0.0
 40
0.0
 40
0.25
 40
0.25
 40
0.25
 40
0.5
 40
0.5
 40
0.5
 40
0.75
 40
0.75
 40
0.75
 40
1.0
 40
1.0
 40
1.0
 40
1.0
 10
-3.14312
 20
-14.5731
 30
0.0
 10
-3.14312
 20
-14.5731
 30
0.0
 10
-2.84312
 20
-14.5731
 30
0.0
 10
-2.84312
 20
-14.5731
 30
0.0
 10
-2.84312
 20
-14.5731
 30
0.0
 10
-2.84312
 20
-13.9731
 30
0.0
 10
-2.84312
 20
-13.9731
 30
0.0
 10
-2.84312
 20
-13.9731
 30
0.0
 10
-3.14312
 20
-13.9731
 30
0.0
 10
-3.14312
 20
-13.9731
 30
0.0
 10
-3.14312
 20
-13.9731
 30
0.0
 10
-3.14312
 20
-14.5731
 30
0.0
 10
-3.14312
 20
-14.5731
 30
0.0
  0
SPLINE
  5
82
330
1F
100
AcDbEntity
  8
Layer 1
370
     9
100
AcDbSpline
210
0.0
220
0.0
230
1.0
 70
    11
 71
     3
 72
    17
 73
    13
 74
     0
 42
0.0000000001
 43
0.0000000001
 40
0.0
 40
0.0
 40
0.0
 40
0.0
 40
0.25
 40
0.25
 40
0.25
 40
0.5
 40
0.5
 40
0.5
 40
0.75
 40
0.75
 40
0.75
 40
1.0
 40
1.0
 40
1.0
 40
1.0
 10
-3.14312
 20
-13.3731
 30
0.0
 10
-3.14312
 20
-13.3731
 30
0.0
 10
-2.84312
 20
-13.3731
 30
0.0
 10
-2.84312
 20
-13.3731
 30
0.0
 10
-2.84312
 20
-13.3731
 30
0.0
 10
-2.84312
 20
-12.7731
 30
0.0
 10
-2.84312
 20
-12.7731
 30
0.0
 10
-2.84312
 20
-12.7731
 30
0.0
 10
-3.14312
 20
-12.7731
 30
0.0
 10
-3.14312
 20
-12.7731
 30
0.0
 10
-3.14312
 20
-12.7731
 30
0.0
 10
-3.14312
 20
-13.3731
 30
0.0
 10
-3.14312
 20
-13.3731
 30
0.0
  0
SPLINE
  5
83
330
1F
100
AcDbEntity
  8
Layer 1
370
     9
100
AcDbSpline
210
0.0
220
0.0
230
1.0
 70
    11
 71
     3
 72
    17
 73
    13
 74
     0
 42
0.0000000001
 43
0.0000000001
 40
0.0
 40
0.0
 40
0.0
 40
0.0
 40
0.25
 40
0.25
 40
0.25
 40
0.5
 40
0.5
 40
0.5
 40
0.75
 40
0.75
 40
0.75
 40
1.0
 40
1.0
 40
1.0
 40
1.0
 10
-3.14312
 20
-12.1731
 30
0.0
 10
-3.14312
 20
-12.1731
 30
0.0
 10
-2.84312
 20
-12.1731
 30
0.0
 10
-2.84312
 20
-12.1731
 30
0.0
 10
-2.84312
 20
-12.1731
 30
0.0
 10
-2.84312
 20
-11.5731
 30
0.0
 10
-2.84312
 20
-11.5731
 30
0.0
 10
-2.84312
 20
-11.5731
 30
0.0
 10
-3.14312
 20
-11.5731
 30
0.0
 10
-3.14312
 20
-11.5731
 30
0.0
 10
-3.14312
 20
-11.5731
 30
0.0
 10
-3.14312
 20
-12.1731
 30
0.0
 10
-3.14312
 20
-12.1731
 30
0.0
  0
SPLINE
  5
84
330
1F
100
AcDbEntity
  8
Layer 1
370
     9
100
AcDbSpline
210
0.0
220
0.0
230
1.0
 70
    11
 71
     3
 72
    17
 73
    13
 74
     0
 42
0.0000000001
 43
0.0000000001
 40
0.0
 40
0.0
 40
0.0
 40
0.0
 40
0.25
 40
0.25
 40
0.25
 40
0.5
 40
0.5
 40
0.5
 40
0.75
 40
0.75
 40
0.75
 40
1.0
 40
1.0
 40
1.0
 40
1.0
 10
-3.14312
 20
-10.9731
 30
0.0
 10
-3.14312
 20
-10.9731
 30
0.0
 10
-2.84312
 20
-10.9731
 30
0.0
 10
-2.84312
 20
-10.9731
 30
0.0
 10
-2.84312
 20
-10.9731
 30
0.0
 10
-2.84312
 20
-10.3731
 30
0.0
 10
-2.84312
 20
-10.3731
 30
0.0
 10
-2.84312
 20
-10.3731
 30
0.0
 10
-3.14312
 20
-10.3731
 30
0.0
 10
-3.14312
 20
-10.3731
 30
0.0
 10
-3.14312
 20
-10.3731
 30
0.0
 10
-3.14312
 20
-10.9731
 30
0.0
 10
-3.14312
 20
-10.9731
 30
0.0
  0
SPLINE
  5
85
330
1F
100
AcDbEntity
  8
Layer 1
370
     9
100
AcDbSpline
210
0.0
220
0.0
230
1.0
 70
    11
 71
     3
 72
    17
 73
    13
 74
     0
 42
0.0000000001
 43
0.0000000001
 40
0.0
 40
0.0
 40
0.0
 40
0.0
 40
0.25
 40
0.25
 40
0.25
 40
0.5
 40
0.5
 40
0.5
 40
0.75
 40
0.75
 40
0.75
 40
1.0
 40
1.0
 40
1.0
 40
1.0
 10
-3.14312
 20
-9.7731
 30
0.0
 10
-3.14312
 20
-9.7731
 30
0.0
 10
-2.84312
 20
-9.7731
 30
0.0
 10
-2.84312
 20
-9.7731
 30
0.0
 10
-2.84312
 20
-9.7731
 30
0.0
 10
-2.84312
 20
-9.1731
 30
0.0
 10
-2.84312
 20
-9.1731
 30
0.0
 10
-2.84312
 20
-9.1731
 30
0.0
 10
-3.14312
 20
-9.1731
 30
0.0
 10
-3.14312
 20
-9.1731
 30
0.0
 10
-3.14312
 20
-9.1731
 30
0.0
 10
-3.14312
 20
-9.7731
 30
0.0
 10
-3.14312
 20
-9.7731
 30
0.0
  0
SPLINE
  5
86
330
1F
100
AcDbEntity
  8
Layer 1
370
     9
100
AcDbSpline
210
0.0
220
0.0
230
1.0
 70
    11
 71
     3
 72
    17
 73
    13
 74
     0
 42
0.0000000001
 43
0.0000000001
 40
0.0
 40
0.0
 40
0.0
 40
0.0
 40
0.25
 40
0.25
 40
0.25
 40
0.5
 40
0.5
 40
0.5
 40
0.75
 40
0.75
 40
0.75
 40
1.0
 40
1.0
 40
1.0
 40
1.0
 10
-4.24312
 20
-18.1731
 30
0.0
 10
-4.24312
 20
-18.1731
 30
0.0
 10
-4.24312
 20
-18.4731
 30
0.0
 10
-4.24312
 20
-18.4731
 30
0.0
 10
-4.24312
 20
-18.4731
 30
0.0
 10
-3.64312
 20
-18.4731
 30
0.0
 10
-3.64312
 20
-18.4731
 30
0.0
 10
-3.64312
 20
-18.4731
 30
0.0
 10
-3.64312
 20
-18.1731
 30
0.0
 10
-3.64312
 20
-18.1731
 30
0.0
 10
-3.64312
 20
-18.1731
 30
0.0
 10
-4.24312
 20
-18.1731
 30
0.0
 10
-4.24312
 20
-18.1731
 30
0.0
  0
SPLINE
  5
87
330
1F
100
AcDbEntity
  8
Layer 1
370
     9
100
AcDbSpline
210
0.0
220
0.0
230
1.0
 70
    11
 71
     3
 72
    17
 73
    13
 74
     0
 42
0.0000000001
 43
0.0000000001
 40
0.0
 40
0.0
 40
0.0
 40
0.0
 40
0.25
 40
0.25
 40
0.25
 40
0.5
 40
0.5
 40
0.5
 40
0.75
 40
0.75
 40
0.75
 40
1.0
 40
1.0
 40
1.0
 40
1.0
 10
-5.44312
 20
-18.1731
 30
0.0
 10
-5.44312
 20
-18.1731
 30
0.0
 10
-5.44312
 20
-18.4731
 30
0.0
 10
-5.44312
 20
-18.4731
 30
0.0
 10
-5.44312
 20
-18.4731
 30
0.0
 10
-4.84312
 20
-18.4731
 30
0.0
 10
-4.84312
 20
-18.4731
 30
0.0
 10
-4.84312
 20
-18.4731
 30
0.0
 10
-4.84312
 20
-18.1731
 30
0.0
 10
-4.84312
 20
-18.1731
 30
0.0
 10
-4.84312
 20
-18.1731
 30
0.0
 10
-5.44312
 20
-18.1731
 30
0.0
 10
-5.44312
 20
-18.1731
 30
0.0
  0
SPLINE
  5
88
330
1F
100
AcDbEntity
  8
Layer 1
370
     9
100
AcDbSpline
210
0.0
220
0.0
230
1.0
 70
    11
 71
     3
 72
    17
 73
    13
 74
     0
 42
0.0000000001
 43
0.0000000001
 40
0.0
 40
0.0
 40
0.0
 40
0.0
 40
0.25
 40
0.25
 40
0.25
 40
0.5
 40
0.5
 40
0.5
 40
0.75
 40
0.75
 40
0.75
 40
1.0
 40
1.0
 40
1.0
 40
1.0
 10
-6.64312
 20
-18.1731
 30
0.0
 10
-6.64312
 20
-18.1731
 30
0.0
 10
-6.64312
 20
-18.4731
 30
0.0
 10
-6.64312
 20
-18.4731
 30
0.0
 10
-6.64312
 20
-18.4731
 30
0.0
 10
-6.04312
 20
-18.4731
 30
0.0
 10
-6.04312
 20
-18.4731
 30
0.0
 10
-6.04312
 20
-18.4731
 30
0.0
 10
-6.04312
 20
-18.1731
 30
0.0
 10
-6.04312
 20
-18.1731
 30
0.0
 10
-6.04312
 20
-18.1731
 30
0.0
 10
-6.64312
 20
-18.1731
 30
0.0
 10
-6.64312
 20
-18.1731
 30
0.0
  0
SPLINE
  5
89
330
1F
100
AcDbEntity
  8
Layer 1
370
     9
100
AcDbSpline
210
0.0
220
0.0
230
1.0
 70
    11
 71
     3
 72
    17
 73
    13
 74
     0
 42
0.0000000001
 43
0.0000000001
 40
0.0
 40
0.0
 40
0.0
 40
0.0
 40
0.25
 40
0.25
 40
0.25
 40
0.5
 40
0.5
 40
0.5
 40
0.75
 40
0.75
 40
0.75
 40
1.0
 40
1.0
 40
1.0
 40
1.0
 10
-7.84312
 20
-18.1731
 30
0.0
 10
-7.84312
 20
-18.1731
 30
0.0
 10
-7.84312
 20
-18.4731
 30
0.0
 10
-7.84312
 20
-18.4731
 30
0.0
 10
-7.84312
 20
-18.4731
 30
0.0
 10
-7.24312
 20
-18.4731
 30
0.0
 10
-7.24312
 20
-18.4731
 30
0.0
 10
-7.24312
 20
-18.4731
 30
0.0
 10
-7.24312
 20
-18.1731
 30
0.0
 10
-7.24312
 20
-18.1731
 30
0.0
 10
-7.24312
 20
-18.1731
 30
0.0
 10
-7.84312
 20
-18.1731
 30
0.0
 10
-7.84312
 20
-18.1731
 30
0.0
  0
SPLINE
  5
8A
330
1F
100
AcDbEntity
  8
Layer 1
370
     9
100
AcDbSpline
210
0.0
220
0.0
230
1.0
 70
    11
 71
     3
 72
    17
 73
    13
 74
     0
 42
0.0000000001
 43
0.0000000001
 40
0.0
 40
0.0
 40
0.0
 40
0.0
 40
0.25
 40
0.25
 40
0.25
 40
0.5
 40
0.5
 40
0.5
 40
0.75
 40
0.75
 40
0.75
 40
1.0
 40
1.0
 40
1.0
 40
1.0
 10
-9.04312
 20
-18.1731
 30
0.0
 10
-9.04312
 20
-18.1731
 30
0.0
 10
-9.04312
 20
-18.4731
 30
0.0
 10
-9.04312
 20
-18.4731
 30
0.0
 10
-9.04312
 20
-18.4731
 30
0.0
 10
-8.44312
 20
-18.4731
 30
0.0
 10
-8.44312
 20
-18.4731
 30
0.0
 10
-8.44312
 20
-18.4731
 30
0.0
 10
-8.44312
 20
-18.1731
 30
0.0
 10
-8.44312
 20
-18.1731
 30
0.0
 10
-8.44312
 20
-18.1731
 30
0.0
 10
-9.04312
 20
-18.1731
 30
0.0
 10
-9.04312
 20
-18.1731
 30
0.0
  0
SPLINE
  5
8B
330
1F
100
AcDbEntity
  8
Layer 1
370
     9
100
AcDbSpline
210
0.0
220
0.0
230
1.0
 70
    11
 71
     3
 72
    17
 73
    13
 74
     0
 42
0.0000000001
 43
0.0000000001
 40
0.0
 40
0.0
 40
0.0
 40
0.0
 40
0.25
 40
0.25
 40
0.25
 40
0.5
 40
0.5
 40
0.5
 40
0.75
 40
0.75
 40
0.75
 40
1.0
 40
1.0
 40
1.0
 40
1.0
 10
-10.24312
 20
-18.1731
 30
0.0
 10
-10.24312
 20
-18.1731
 30
0.0
 10
-10.24312
 20
-18.4731
 30
0.0
 10
-10.24312
 20
-18.4731
 30
0.0
 10
-10.24312
 20
-18.4731
 30
0.0
 10
-9.64312
 20
-18.4731
 30
0.0
 10
-9.64312
 20
-18.4731
 30
0.0
 10
-9.64312
 20
-18.4731
 30
0.0
 10
-9.64312
 20
-18.1731
 30
0.0
 10
-9.64312
 20
-18.1731
 30
0.0
 10
-9.64312
 20
-18.1731
 30
0.0
 10
-10.24312
 20
-18.1731
 30
0.0
 10
-10.24312
 20
-18.1731
 30
0.0
  0
SPLINE
  5
8C
330
1F
100
AcDbEntity
  8
Layer 1
370
     9
100
AcDbSpline
210
0.0
220
0.0
230
1.0
 70
    11
 71
     3
 72
    17
 73
    13
 74
     0
 42
0.0000000001
 43
0.0000000001
 40
0.0
 40
0.0
 40
0.0
 40
0.0
 40
0.25
 40
0.25
 40
0.25
 40
0.5
 40
0.5
 40
0.5
 40
0.75
 40
0.75
 40
0.75
 40
1.0
 40
1.0
 40
1.0
 40
1.0
 10
-11.44312
 20
-18.1731
 30
0.0
 10
-11.44312
 20
-18.1731
 30
0.0
 10
-11.44312
 20
-18.4731
 30
0.0
 10
-11.44312
 20
-18.4731
 30
0.0
 10
-11.44312
 20
-18.4731
 30
0.0
 10
-10.84312
 20
-18.4731
 30
0.0
 10
-10.84312
 20
-18.4731
 30
0.0
 10
-10.84312
 20
-18.4731
 30
0.0
 10
-10.84312
 20
-18.1731
 30
0.0
 10
-10.84312
 20
-18.1731
 30
0.0
 10
-10.84312
 20
-18.1731
 30
0.0
 10
-11.44312
 20
-18.1731
 30
0.0
 10
-11.44312
 20
-18.1731
 30
0.0
  0
SPLINE
  5
8D
330
1F
100
AcDbEntity
  8
Layer 1
370
     9
100
AcDbSpline
210
0.0
220
0.0
230
1.0
 70
    11
 71
     3
 72
    17
 73
    13
 74
     0
 42
0.0000000001
 43
0.0000000001
 40
0.0
 40
0.0
 40
0.0
 40
0.0
 40
0.25
 40
0.25
 40
0.25
 40
0.5
 40
0.5
 40
0.5
 40
0.75
 40
0.75
 40
0.75
 40
1.0
 40
1.0
 40
1.0
 40
1.0
 10
-12.64312
 20
-18.1731
 30
0.0
 10
-12.64312
 20
-18.1731
 30
0.0
 10
-12.64312
 20
-18.4731
 30
0.0
 10
-12.64312
 20
-18.4731
 30
0.0
 10
-12.64312
 20
-18.4731
 30
0.0
 10
-12.04312
 20
-18.4731
 30
0.0
 10
-12.04312
 20
-18.4731
 30
0.0
 10
-12.04312
 20
-18.4731
 30
0.0
 10
-12.04312
 20
-18.1731
 30
0.0
 10
-12.04312
 20
-18.1731
 30
0.0
 10
-12.04312
 20
-18.1731
 30
0.0
 10
-12.64312
 20
-18.1731
 30
0.0
 10
-12.64312
 20
-18.1731
 30
0.0
  0
SPLINE
  5
8E
330
1F
100
AcDbEntity
  8
Layer 1
370
     9
100
AcDbSpline
210
0.0
220
0.0
230
1.0
 70
    11
 71
     3
 72
    65
 73
    61
 74
     0
 42
0.0000000001
 43
0.0000000001
 40
0.0
 40
0.0
 40
0.0
 40
0.0
 40
0.05
 40
0.05
 40
0.05
 40
0.1
 40
0.1
 40
0.1
 40
0.15
 40
0.15
 40
0.15
 40
0.2
 40
0.2
 40
0.2
 40
0.25
 40
0.25
 40
0.25
 40
0.3
 40
0.3
 40
0.3
 40
0.35
 40
0.35
 40
0.35
 40
0.4
 40
0.4
 40
0.4
 40
0.45
 40
0.45
 40
0.45
 40
0.5
 40
0.5
 40
0.5
 40
0.55
 40
0.55
 40
0.55
 40
0.6000000000000001
 40
0.6000000000000001
 40
0.6000000000000001
 40
0.65
 40
0.65
 40
0.65
 40
0.7000000000000001
 40
0.7000000000000001
 40
0.7000000000000001
 40
0.75
 40
0.75
 40
0.75
 40
0.8
 40
0.8
 40
0.8
 40
0.8500000000000001
 40
0.8500000000000001
 40
0.8500000000000001
 40
0.9
 40
0.9
 40
0.9
 40
0.9500000000000001
 40
0.9500000000000001
 40
0.9500000000000001
 40
1.0
 40
1.0
 40
1.0
 40
1.0
 10
-19.21877
 20
-13.73301
 30
0.0
 10
-19.21877
 20
-13.73301
 30
0.0
 10
-19.21877
 20
-15.21432
 30
0.0
 10
-19.21877
 20
-15.21432
 30
0.0
 10
-19.21877
 20
-15.21432
 30
0.0
 10
-18.31411
 20
-15.21432
 30
0.0
 10
-18.31411
 20
-15.21432
 30
0.0
 10
-18.07572
 20
-15.21432
 30
0.0
 10
-18.01679
 20
-15.11304
 30
0.0
 10
-17.89963
 20
-14.87796
 30
0.0
 10
-17.78546
 20
-14.64888
 30
0.0
 10
-17.81263
 20
-14.60776
 30
0.0
 10
-17.51842
 20
-14.60776
 30
0.0
 10
-17.23704
 20
-14.60776
 30
0.0
 10
-17.22795
 20
-14.62778
 30
0.0
 10
-17.27018
 20
-14.78911
 30
0.0
 10
-17.27018
 20
-14.78911
 30
0.0
 10
-17.40344
 20
-15.33085
 30
0.0
 10
-17.40344
 20
-15.33085
 30
0.0
 10
-17.43542
 20
-15.45199
 30
0.0
 10
-17.47991
 20
-15.46898
 30
0.0
 10
-17.61118
 20
-15.46898
 30
0.0
 10
-17.61118
 20
-15.46898
 30
0.0
 10
-20.13152
 20
-15.46898
 30
0.0
 10
-20.13152
 20
-15.46898
 30
0.0
 10
-20.22675
 20
-15.46898
 30
0.0
 10
-20.29223
 20
-15.43789
 30
0.0
 10
-20.29223
 20
-15.35168
 30
0.0
 10
-20.29223
 20
-15.24365
 30
0.0
 10
-20.28159
 20
-15.21532
 30
0.0
 10
-20.18116
 20
-15.1958
 30
0.0
 10
-20.03613
 20
-15.16879
 30
0.0
 10
-19.96298
 20
-15.0893
 30
0.0
 10
-19.96298
 20
-14.95811
 30
0.0
 10
-19.96298
 20
-14.95811
 30
0.0
 10
-19.96298
 20
-12.27336
 30
0.0
 10
-19.96298
 20
-12.27336
 30
0.0
 10
-19.96298
 20
-12.14286
 30
0.0
 10
-20.19415
 20
-12.1612
 30
0.0
 10
-20.24911
 20
-12.08815
 30
0.0
 10
-20.28938
 20
-12.03462
 30
0.0
 10
-20.28205
 20
-11.87486
 30
0.0
 10
-20.25303
 20
-11.84429
 30
0.0
 10
-20.23812
 20
-11.82859
 30
0.0
 10
-20.19684
 20
-11.82037
 30
0.0
 10
-20.13152
 20
-11.82037
 30
0.0
 10
-20.13152
 20
-11.82037
 30
0.0
 10
-19.0463
 20
-11.82037
 30
0.0
 10
-19.0463
 20
-11.82037
 30
0.0
 10
-18.90057
 20
-11.82037
 30
0.0
 10
-18.87385
 20
-11.85208
 30
0.0
 10
-18.87385
 20
-12.00172
 30
0.0
 10
-18.87385
 20
-12.10822
 30
0.0
 10
-18.90012
 20
-12.12369
 30
0.0
 10
-19.02671
 20
-12.14911
 30
0.0
 10
-19.13773
 20
-12.1714
 30
0.0
 10
-19.21877
 20
-12.21558
 30
0.0
 10
-19.21877
 20
-12.29805
 30
0.0
 10
-19.21877
 20
-12.29805
 30
0.0
 10
-19.21877
 20
-13.73301
 30
0.0
 10
-19.21877
 20
-13.73301
 30
0.0
  0
SPLINE
  5
8F
330
1F
100
AcDbEntity
  8
Layer 1
370
     9
100
AcDbSpline
210
0.0
220
0.0
230
1.0
 70
    11
 71
     3
 72
    71
 73
    67
 74
     0
 42
0.0000000001
 43
0.0000000001
 40
0.0
 40
0.0
 40
0.0
 40
0.0
 40
0.0454545454545455
 40
0.0454545454545455
 40
0.0454545454545455
 40
0.0909090909090909
 40
0.0909090909090909
 40
0.0909090909090909
 40
0.1363636363636364
 40
0.1363636363636364
 40
0.1363636363636364
 40
0.1818181818181818
 40
0.1818181818181818
 40
0.1818181818181818
 40
0.2272727272727273
 40
0.2272727272727273
 40
0.2272727272727273
 40
0.2727272727272727
 40
0.2727272727272727
 40
0.2727272727272727
 40
0.3181818181818182
 40
0.3181818181818182
 40
0.3181818181818182
 40
0.3636363636363636
 40
0.3636363636363636
 40
0.3636363636363636
 40
0.4090909090909091
 40
0.4090909090909091
 40
0.4090909090909091
 40
0.4545454545454546
 40
0.4545454545454546
 40
0.4545454545454546
 40
0.5
 40
0.5
 40
0.5
 40
0.5454545454545454
 40
0.5454545454545454
 40
0.5454545454545454
 40
0.5909090909090909
 40
0.5909090909090909
 40
0.5909090909090909
 40
0.6363636363636364
 40
0.6363636363636364
 40
0.6363636363636364
 40
0.6818181818181819
 40
0.6818181818181819
 40
0.6818181818181819
 40
0.7272727272727273
 40
0.7272727272727273
 40
0.7272727272727273
 40
0.7727272727272727
 40
0.7727272727272727
 40
0.7727272727272727
 40
0.8181818181818182
 40
0.8181818181818182
 40
0.8181818181818182
 40
0.8636363636363636
 40
0.8636363636363636
 40
0.8636363636363636
 40
0.9090909090909092
 40
0.9090909090909092
 40
0.9090909090909092
 40
0.9545454545454546
 40
0.9545454545454546
 40
0.9545454545454546
 40
1.0
 40
1.0
 40
1.0
 40
1.0
 10
-11.5087
 20
-13.65867
 30
0.0
 10
-11.5087
 20
-13.65867
 30
0.0
 10
-11.0441
 20
-15.11379
 30
0.0
 10
-11.0441
 20
-15.11379
 30
0.0
 10
-11.0441
 20
-15.11379
 30
0.0
 10
-10.07763
 20
-12.30114
 30
0.0
 10
-10.07763
 20
-12.30114
 30
0.0
 10
-10.01127
 20
-12.10805
 30
0.0
 10
-10.38953
 20
-12.1162
 30
0.0
 10
-10.38728
 20
-12.03876
 30
0.0
 10
-10.38728
 20
-12.03876
 30
0.0
 10
-10.38337
 20
-11.97162
 30
0.0
 10
-10.38337
 20
-11.97162
 30
0.0
 10
-10.38337
 20
-11.84496
 30
0.0
 10
-10.37705
 20
-11.82037
 30
0.0
 10
-10.27361
 20
-11.82037
 30
0.0
 10
-10.27361
 20
-11.82037
 30
0.0
 10
-9.33158
 20
-11.82037
 30
0.0
 10
-9.33158
 20
-11.82037
 30
0.0
 10
-9.24281
 20
-11.82037
 30
0.0
 10
-9.24014
 20
-11.83841
 30
0.0
 10
-9.24014
 20
-11.95233
 30
0.0
 10
-9.24014
 20
-12.07984
 30
0.0
 10
-9.23672
 20
-12.09812
 30
0.0
 10
-9.30155
 20
-12.12133
 30
0.0
 10
-9.45441
 20
-12.17605
 30
0.0
 10
-9.46967
 20
-12.2104
 30
0.0
 10
-9.52234
 20
-12.36596
 30
0.0
 10
-9.52234
 20
-12.36596
 30
0.0
 10
-10.51793
 20
-15.30692
 30
0.0
 10
-10.51793
 20
-15.30692
 30
0.0
 10
-10.51793
 20
-15.30692
 30
0.0
 10
-10.57934
 20
-15.48596
 30
0.0
 10
-10.57934
 20
-15.48596
 30
0.0
 10
-10.58457
 20
-15.50216
 30
0.0
 10
-10.6107
 20
-15.51065
 30
0.0
 10
-10.65905
 20
-15.51065
 30
0.0
 10
-10.65905
 20
-15.51065
 30
0.0
 10
-11.4286
 20
-15.51065
 30
0.0
 10
-11.4286
 20
-15.51065
 30
0.0
 10
-11.51568
 20
-15.51065
 30
0.0
 10
-11.53291
 20
-15.45116
 30
0.0
 10
-11.58147
 20
-15.30692
 30
0.0
 10
-11.58147
 20
-15.30692
 30
0.0
 10
-12.57967
 20
-12.30037
 30
0.0
 10
-12.57967
 20
-12.30037
 30
0.0
 10
-12.63064
 20
-12.14181
 30
0.0
 10
-12.81242
 20
-12.13543
 30
0.0
 10
-12.86059
 20
-12.09355
 30
0.0
 10
-12.89516
 20
-12.06349
 30
0.0
 10
-12.86345
 20
-11.99902
 30
0.0
 10
-12.87364
 20
-11.92532
 30
0.0
 10
-12.88834
 20
-11.819
 30
0.0
 10
-12.80965
 20
-11.82037
 30
0.0
 10
-12.74065
 20
-11.82037
 30
0.0
 10
-12.74065
 20
-11.82037
 30
0.0
 10
-11.78796
 20
-11.82037
 30
0.0
 10
-11.78796
 20
-11.82037
 30
0.0
 10
-11.68174
 20
-11.82037
 30
0.0
 10
-11.69399
 20
-11.9139
 30
0.0
 10
-11.70696
 20
-12.04339
 30
0.0
 10
-11.71376
 20
-12.11127
 30
0.0
 10
-12.01098
 20
-12.08552
 30
0.0
 10
-11.94213
 20
-12.30114
 30
0.0
 10
-11.94213
 20
-12.30114
 30
0.0
 10
-11.5087
 20
-13.65867
 30
0.0
 10
-11.5087
 20
-13.65867
 30
0.0
  0
SPLINE
  5
90
330
1F
100
AcDbEntity
  8
Layer 1
370
     9
100
AcDbSpline
210
0.0
220
0.0
230
1.0
 70
    11
 71
     3
 72
   101
 73
    97
 74
     0
 42
0.0000000001
 43
0.0000000001
 40
0.0
 40
0.0
 40
0.0
 40
0.0
 40
0.03125
 40
0.03125
 40
0.03125
 40
0.0625
 40
0.0625
 40
0.0625
 40
0.09375
 40
0.09375
 40
0.09375
 40
0.125
 40
0.125
 40
0.125
 40
0.15625
 40
0.15625
 40
0.15625
 40
0.1875
 40
0.1875
 40
0.1875
 40
0.21875
 40
0.21875
 40
0.21875
 40
0.25
 40
0.25
 40
0.25
 40
0.28125
 40
0.28125
 40
0.28125
 40
0.3125
 40
0.3125
 40
0.3125
 40
0.34375
 40
0.34375
 40
0.34375
 40
0.375
 40
0.375
 40
0.375
 40
0.40625
 40
0.40625
 40
0.40625
 40
0.4375
 40
0.4375
 40
0.4375
 40
0.46875
 40
0.46875
 40
0.46875
 40
0.5
 40
0.5
 40
0.5
 40
0.53125
 40
0.53125
 40
0.53125
 40
0.5625
 40
0.5625
 40
0.5625
 40
0.59375
 40
0.59375
 40
0.59375
 40
0.625
 40
0.625
 40
0.625
 40
0.65625
 40
0.65625
 40
0.65625
 40
0.6875
 40
0.6875
 40
0.6875
 40
0.71875
 40
0.71875
 40
0.71875
 40
0.75
 40
0.75
 40
0.75
 40
0.78125
 40
0.78125
 40
0.78125
 40
0.8125
 40
0.8125
 40
0.8125
 40
0.84375
 40
0.84375
 40
0.84375
 40
0.875
 40
0.875
 40
0.875
 40
0.90625
 40
0.90625
 40
0.90625
 40
0.9375
 40
0.9375
 40
0.9375
 40
0.96875
 40
0.96875
 40
0.96875
 40
1.0
 40
1.0
 40
1.0
 40
1.0
 10
-6.63924
 20
-12.09818
 30
0.0
 10
-6.63924
 20
-12.09818
 30
0.0
 10
-7.76475
 20
-12.09818
 30
0.0
 10
-7.76475
 20
-12.09818
 30
0.0
 10
-7.76475
 20
-12.09818
 30
0.0
 10
-7.76475
 20
-13.39001
 30
0.0
 10
-7.76475
 20
-13.39001
 30
0.0
 10
-7.38784
 20
-13.39001
 30
0.0
 10
-7.01094
 20
-13.39001
 30
0.0
 10
-6.63403
 20
-13.39001
 30
0.0
 10
-6.49701
 20
-13.39001
 30
0.0
 10
-6.43028
 20
-13.37093
 30
0.0
 10
-6.39361
 20
-13.24493
 30
0.0
 10
-6.34704
 20
-13.08493
 30
0.0
 10
-6.33644
 20
-13.01959
 30
0.0
 10
-6.2303
 20
-13.01959
 30
0.0
 10
-6.0317
 20
-13.01959
 30
0.0
 10
-5.91935
 20
-13.02422
 30
0.0
 10
-5.89191
 20
-13.03426
 30
0.0
 10
-5.86578
 20
-13.04429
 30
0.0
 10
-5.85271
 20
-13.08212
 30
0.0
 10
-5.85271
 20
-13.14847
 30
0.0
 10
-5.85271
 20
-13.14847
 30
0.0
 10
-5.85271
 20
-13.90165
 30
0.0
 10
-5.85271
 20
-13.90165
 30
0.0
 10
-5.85271
 20
-14.03196
 30
0.0
 10
-5.96699
 20
-14.01509
 30
0.0
 10
-6.12709
 20
-14.01509
 30
0.0
 10
-6.30943
 20
-14.01509
 30
0.0
 10
-6.33071
 20
-13.99054
 30
0.0
 10
-6.38577
 20
-13.82757
 30
0.0
 10
-6.43371
 20
-13.68566
 30
0.0
 10
-6.47153
 20
-13.65393
 30
0.0
 10
-6.59744
 20
-13.65393
 30
0.0
 10
-6.59744
 20
-13.65393
 30
0.0
 10
-7.76475
 20
-13.65393
 30
0.0
 10
-7.76475
 20
-13.65393
 30
0.0
 10
-7.76475
 20
-13.65393
 30
0.0
 10
-7.76475
 20
-15.20969
 30
0.0
 10
-7.76475
 20
-15.20969
 30
0.0
 10
-7.76475
 20
-15.20969
 30
0.0
 10
-6.69805
 20
-15.20969
 30
0.0
 10
-6.69805
 20
-15.20969
 30
0.0
 10
-6.57132
 20
-15.20969
 30
0.0
 10
-6.48329
 20
-15.18938
 30
0.0
 10
-6.43543
 20
-15.14795
 30
0.0
 10
-6.30402
 20
-15.0342
 30
0.0
 10
-6.20054
 20
-14.69829
 30
0.0
 10
-6.0722
 20
-14.62782
 30
0.0
 10
-5.98411
 20
-14.57945
 30
0.0
 10
-5.59401
 20
-14.55336
 30
0.0
 10
-5.59401
 20
-14.67953
 30
0.0
 10
-5.59401
 20
-14.72673
 30
0.0
 10
-5.74471
 20
-15.24496
 30
0.0
 10
-5.75211
 20
-15.2722
 30
0.0
 10
-5.80246
 20
-15.45759
 30
0.0
 10
-5.80118
 20
-15.46898
 30
0.0
 10
-5.96899
 20
-15.46898
 30
0.0
 10
-5.96899
 20
-15.46898
 30
0.0
 10
-8.5259
 20
-15.46898
 30
0.0
 10
-8.5259
 20
-15.46898
 30
0.0
 10
-8.6593
 20
-15.46898
 30
0.0
 10
-8.67486
 20
-15.44556
 30
0.0
 10
-8.67486
 20
-15.29226
 30
0.0
 10
-8.67486
 20
-15.23978
 30
0.0
 10
-8.62913
 20
-15.2012
 30
0.0
 10
-8.53897
 20
-15.17728
 30
0.0
 10
-8.39918
 20
-15.14255
 30
0.0
 10
-8.32993
 20
-15.0947
 30
0.0
 10
-8.32993
 20
-15.03451
 30
0.0
 10
-8.32993
 20
-15.03451
 30
0.0
 10
-8.32993
 20
-12.21394
 30
0.0
 10
-8.32993
 20
-12.21394
 30
0.0
 10
-8.33288
 20
-12.1492
 30
0.0
 10
-8.59802
 20
-12.12271
 30
0.0
 10
-8.63827
 20
-12.07194
 30
0.0
 10
-8.66345
 20
-12.04018
 30
0.0
 10
-8.67159
 20
-11.86516
 30
0.0
 10
-8.63567
 20
-11.83734
 30
0.0
 10
-8.62129
 20
-11.82577
 30
0.0
 10
-8.57556
 20
-11.82037
 30
0.0
 10
-8.50239
 20
-11.82037
 30
0.0
 10
-8.50239
 20
-11.82037
 30
0.0
 10
-6.05131
 20
-11.82037
 30
0.0
 10
-6.05131
 20
-11.82037
 30
0.0
 10
-5.88464
 20
-11.82037
 30
0.0
 10
-5.87751
 20
-11.85201
 30
0.0
 10
-5.83609
 20
-11.97404
 30
0.0
 10
-5.78342
 20
-12.12926
 30
0.0
 10
-5.64104
 20
-12.54234
 30
0.0
 10
-5.64104
 20
-12.56969
 30
0.0
 10
-5.64104
 20
-12.66767
 30
0.0
 10
-6.04085
 20
-12.62748
 30
0.0
 10
-6.10225
 20
-12.6021
 30
0.0
 10
-6.26759
 20
-12.53376
 30
0.0
 10
-6.34902
 20
-12.09818
 30
0.0
 10
-6.63924
 20
-12.09818
 30
0.0
  0
SPLINE
  5
91
330
1F
100
AcDbEntity
  8
Layer 1
370
     9
100
AcDbSpline
210
0.0
220
0.0
230
1.0
 70
    11
 71
     3
 72
    29
 73
    25
 74
     0
 42
0.0000000001
 43
0.0000000001
 40
0.0
 40
0.0
 40
0.0
 40
0.0
 40
0.125
 40
0.125
 40
0.125
 40
0.25
 40
0.25
 40
0.25
 40
0.375
 40
0.375
 40
0.375
 40
0.5
 40
0.5
 40
0.5
 40
0.625
 40
0.625
 40
0.625
 40
0.75
 40
0.75
 40
0.75
 40
0.875
 40
0.875
 40
0.875
 40
1.0
 40
1.0
 40
1.0
 40
1.0
 10
-16.31195
 20
-11.82035
 30
0.0
 10
-15.83873
 20
-11.82035
 30
0.0
 10
-15.60212
 20
-12.05099
 30
0.0
 10
-15.36551
 20
-12.51228
 30
0.0
 10
-15.1289
 20
-12.05099
 30
0.0
 10
-14.89229
 20
-11.82035
 30
0.0
 10
-14.41907
 20
-11.82035
 30
0.0
 10
-13.90756
 20
-11.82035
 30
0.0
 10
-13.47263
 20
-12.223
 30
0.0
 10
-13.47263
 20
-12.74292
 30
0.0
 10
-13.47263
 20
-13.32861
 30
0.0
 10
-13.85726
 20
-13.90173
 30
0.0
 10
-14.29413
 20
-14.40794
 30
0.0
 10
-14.61135
 20
-14.7755
 30
0.0
 10
-14.98843
 20
-15.14308
 30
0.0
 10
-15.36551
 20
-15.51065
 30
0.0
 10
-16.03455
 20
-14.85848
 30
0.0
 10
-17.00442
 20
-13.95059
 30
0.0
 10
-17.21399
 20
-13.09662
 30
0.0
 10
-17.24292
 20
-12.97872
 30
0.0
 10
-17.25839
 20
-12.86082
 30
0.0
 10
-17.25839
 20
-12.74292
 30
0.0
 10
-17.25839
 20
-12.22299
 30
0.0
 10
-16.82346
 20
-11.82035
 30
0.0
 10
-16.31195
 20
-11.82035
 30
0.0
  0
SPLINE
  5
92
330
1F
100
AcDbEntity
  8
Layer 1
370
     9
100
AcDbSpline
210
0.0
220
0.0
230
1.0
 70
    11
 71
     3
 72
    17
 73
    13
 74
     0
 42
0.0000000001
 43
0.0000000001
 40
0.0
 40
0.0
 40
0.0
 40
0.0
 40
0.25
 40
0.25
 40
0.25
 40
0.5
 40
0.5
 40
0.5
 40
0.75
 40
0.75
 40
0.75
 40
1.0
 40
1.0
 40
1.0
 40
1.0
 10
3.43621
 20
22.43742
 30
0.0
 10
3.43621
 20
22.43742
 30
0.0
 10
3.73621
 20
22.43742
 30
0.0
 10
3.73621
 20
22.43742
 30
0.0
 10
3.73621
 20
22.43742
 30
0.0
 10
3.73621
 20
23.03742
 30
0.0
 10
3.73621
 20
23.03742
 30
0.0
 10
3.73621
 20
23.03742
 30
0.0
 10
3.43621
 20
23.03742
 30
0.0
 10
3.43621
 20
23.03742
 30
0.0
 10
3.43621
 20
23.03742
 30
0.0
 10
3.43621
 20
22.43742
 30
0.0
 10
3.43621
 20
22.43742
 30
0.0
  0
SPLINE
  5
93
330
1F
100
AcDbEntity
  8
Layer 1
370
     9
100
AcDbSpline
210
0.0
220
0.0
230
1.0
 70
    11
 71
     3
 72
    17
 73
    13
 74
     0
 42
0.0000000001
 43
0.0000000001
 40
0.0
 40
0.0
 40
0.0
 40
0.0
 40
0.25
 40
0.25
 40
0.25
 40
0.5
 40
0.5
 40
0.5
 40
0.75
 40
0.75
 40
0.75
 40
1.0
 40
1.0
 40
1.0
 40
1.0
 10
3.43621
 20
18.83742
 30
0.0
 10
3.43621
 20
18.83742
 30
0.0
 10
3.73621
 20
18.83742
 30
0.0
 10
3.73621
 20
18.83742
 30
0.0
 10
3.73621
 20
18.83742
 30
0.0
 10
3.73621
 20
19.43742
 30
0.0
 10
3.73621
 20
19.43742
 30
0.0
 10
3.73621
 20
19.43742
 30
0.0
 10
3.43621
 20
19.43742
 30
0.0
 10
3.43621
 20
19.43742
 30
0.0
 10
3.43621
 20
19.43742
 30
0.0
 10
3.43621
 20
18.83742
 30
0.0
 10
3.43621
 20
18.83742
 30
0.0
  0
SPLINE
  5
94
330
1F
100
AcDbEntity
  8
Layer 1
370
     9
100
AcDbSpline
210
0.0
220
0.0
230
1.0
 70
    11
 71
     3
 72
    17
 73
    13
 74
     0
 42
0.0000000001
 43
0.0000000001
 40
0.0
 40
0.0
 40
0.0
 40
0.0
 40
0.25
 40
0.25
 40
0.25
 40
0.5
 40
0.5
 40
0.5
 40
0.75
 40
0.75
 40
0.75
 40
1.0
 40
1.0
 40
1.0
 40
1.0
 10
3.43621
 20
8.03742
 30
0.0
 10
3.43621
 20
8.03742
 30
0.0
 10
3.43621
 20
8.63742
 30
0.0
 10
3.43621
 20
8.63742
 30
0.0
 10
3.43621
 20
8.63742
 30
0.0
 10
3.73621
 20
8.63742
 30
0.0
 10
3.73621
 20
8.63742
 30
0.0
 10
3.73621
 20
8.63742
 30
0.0
 10
3.73621
 20
8.03742
 30
0.0
 10
3.73621
 20
8.03742
 30
0.0
 10
3.73621
 20
8.03742
 30
0.0
 10
3.43621
 20
8.03742
 30
0.0
 10
3.43621
 20
8.03742
 30
0.0
  0
SPLINE
  5
95
330
1F
100
AcDbEntity
  8
Layer 1
370
     9
100
AcDbSpline
210
0.0
220
0.0
230
1.0
 70
    11
 71
     3
 72
    17
 73
    13
 74
     0
 42
0.0000000001
 43
0.0000000001
 40
0.0
 40
0.0
 40
0.0
 40
0.0
 40
0.25
 40
0.25
 40
0.25
 40
0.5
 40
0.5
 40
0.5
 40
0.75
 40
0.75
 40
0.75
 40
1.0
 40
1.0
 40
1.0
 40
1.0
 10
3.73621
 20
11.63742
 30
0.0
 10
3.73621
 20
11.63742
 30
0.0
 10
3.43621
 20
11.63742
 30
0.0
 10
3.43621
 20
11.63742
 30
0.0
 10
3.43621
 20
11.63742
 30
0.0
 10
3.43621
 20
12.23742
 30
0.0
 10
3.43621
 20
12.23742
 30
0.0
 10
3.43621
 20
12.23742
 30
0.0
 10
3.73621
 20
12.23742
 30
0.0
 10
3.73621
 20
12.23742
 30
0.0
 10
3.73621
 20
12.23742
 30
0.0
 10
3.73621
 20
11.63742
 30
0.0
 10
3.73621
 20
11.63742
 30
0.0
  0
SPLINE
  5
96
330
1F
100
AcDbEntity
  8
Layer 1
370
     9
100
AcDbSpline
210
0.0
220
0.0
230
1.0
 70
    11
 71
     3
 72
    17
 73
    13
 74
     0
 42
0.0000000001
 43
0.0000000001
 40
0.0
 40
0.0
 40
0.0
 40
0.0
 40
0.25
 40
0.25
 40
0.25
 40
0.5
 40
0.5
 40
0.5
 40
0.75
 40
0.75
 40
0.75
 40
1.0
 40
1.0
 40
1.0
 40
1.0
 10
3.73621
 20
15.23742
 30
0.0
 10
3.73621
 20
15.23742
 30
0.0
 10
3.43621
 20
15.23742
 30
0.0
 10
3.43621
 20
15.23742
 30
0.0
 10
3.43621
 20
15.23742
 30
0.0
 10
3.43621
 20
15.83742
 30
0.0
 10
3.43621
 20
15.83742
 30
0.0
 10
3.43621
 20
15.83742
 30
0.0
 10
3.73621
 20
15.83742
 30
0.0
 10
3.73621
 20
15.83742
 30
0.0
 10
3.73621
 20
15.83742
 30
0.0
 10
3.73621
 20
15.23742
 30
0.0
 10
3.73621
 20
15.23742
 30
0.0
  0
SPLINE
  5
97
330
1F
100
AcDbEntity
  8
Layer 1
370
     9
100
AcDbSpline
210
0.0
220
0.0
230
1.0
 70
    11
 71
     3
 72
    17
 73
    13
 74
     0
 42
0.0000000001
 43
0.0000000001
 40
0.0
 40
0.0
 40
0.0
 40
0.0
 40
0.25
 40
0.25
 40
0.25
 40
0.5
 40
0.5
 40
0.5
 40
0.75
 40
0.75
 40
0.75
 40
1.0
 40
1.0
 40
1.0
 40
1.0
 10
4.83621
 20
6.83742
 30
0.0
 10
4.83621
 20
6.83742
 30
0.0
 10
4.83621
 20
6.53742
 30
0.0
 10
4.83621
 20
6.53742
 30
0.0
 10
4.83621
 20
6.53742
 30
0.0
 10
4.23621
 20
6.53742
 30
0.0
 10
4.23621
 20
6.53742
 30
0.0
 10
4.23621
 20
6.53742
 30
0.0
 10
4.23621
 20
6.83742
 30
0.0
 10
4.23621
 20
6.83742
 30
0.0
 10
4.23621
 20
6.83742
 30
0.0
 10
4.83621
 20
6.83742
 30
0.0
 10
4.83621
 20
6.83742
 30
0.0
  0
SPLINE
  5
98
330
1F
100
AcDbEntity
  8
Layer 1
370
     9
100
AcDbSpline
210
0.0
220
0.0
230
1.0
 70
    11
 71
     3
 72
    32
 73
    28
 74
     0
 42
0.0000000001
 43
0.0000000001
 40
0.0
 40
0.0
 40
0.0
 40
0.0
 40
0.1111111111111111
 40
0.1111111111111111
 40
0.1111111111111111
 40
0.2222222222222222
 40
0.2222222222222222
 40
0.2222222222222222
 40
0.3333333333333333
 40
0.3333333333333333
 40
0.3333333333333333
 40
0.4444444444444444
 40
0.4444444444444444
 40
0.4444444444444444
 40
0.5555555555555556
 40
0.5555555555555556
 40
0.5555555555555556
 40
0.6666666666666666
 40
0.6666666666666666
 40
0.6666666666666666
 40
0.7777777777777777
 40
0.7777777777777777
 40
0.7777777777777777
 40
0.8888888888888888
 40
0.8888888888888888
 40
0.8888888888888888
 40
1.0
 40
1.0
 40
1.0
 40
1.0
 10
3.22425
 20
6.32545
 30
0.0
 10
3.27859
 20
6.27111
 30
0.0
 10
3.3536
 20
6.23742
 30
0.0
 10
3.43621
 20
6.23742
 30
0.0
 10
10.16954
 20
6.23742
 30
0.0
 10
16.90288
 20
6.23742
 30
0.0
 10
23.63621
 20
6.23742
 30
0.0
 10
23.80144
 20
6.23742
 30
0.0
 10
23.93621
 20
6.37219
 30
0.0
 10
23.93621
 20
6.53742
 30
0.0
 10
23.93621
 20
6.53742
 30
0.0
 10
23.93621
 20
23.33742
 30
0.0
 10
23.93621
 20
23.33742
 30
0.0
 10
23.93621
 20
23.50265
 30
0.0
 10
23.80143
 20
23.63742
 30
0.0
 10
23.63621
 20
23.63742
 30
0.0
 10
23.63621
 20
23.63742
 30
0.0
 10
3.43621
 20
23.63742
 30
0.0
 10
3.43621
 20
23.63742
 30
0.0
 10
3.27098
 20
23.63742
 30
0.0
 10
3.13621
 20
23.50265
 30
0.0
 10
3.13621
 20
23.33742
 30
0.0
 10
3.13621
 20
23.33742
 30
0.0
 10
3.13621
 20
6.53742
 30
0.0
 10
3.13621
 20
6.53742
 30
0.0
 10
3.13621
 20
6.4548
 30
0.0
 10
3.1699
 20
6.37979
 30
0.0
 10
3.22425
 20
6.32545
 30
0.0
  0
SPLINE
  5
99
330
1F
100
AcDbEntity
  8
Layer 1
370
     9
100
AcDbSpline
210
0.0
220
0.0
230
1.0
 70
    11
 71
     3
 72
    17
 73
    13
 74
     0
 42
0.0000000001
 43
0.0000000001
 40
0.0
 40
0.0
 40
0.0
 40
0.0
 40
0.25
 40
0.25
 40
0.25
 40
0.5
 40
0.5
 40
0.5
 40
0.75
 40
0.75
 40
0.75
 40
1.0
 40
1.0
 40
1.0
 40
1.0
 10
9.03621
 20
6.83742
 30
0.0
 10
9.03621
 20
6.83742
 30
0.0
 10
9.03621
 20
6.53742
 30
0.0
 10
9.03621
 20
6.53742
 30
0.0
 10
9.03621
 20
6.53742
 30
0.0
 10
8.43621
 20
6.53742
 30
0.0
 10
8.43621
 20
6.53742
 30
0.0
 10
8.43621
 20
6.53742
 30
0.0
 10
8.43621
 20
6.83742
 30
0.0
 10
8.43621
 20
6.83742
 30
0.0
 10
8.43621
 20
6.83742
 30
0.0
 10
9.03621
 20
6.83742
 30
0.0
 10
9.03621
 20
6.83742
 30
0.0
  0
SPLINE
  5
9A
330
1F
100
AcDbEntity
  8
Layer 1
370
     9
100
AcDbSpline
210
0.0
220
0.0
230
1.0
 70
    11
 71
     3
 72
    17
 73
    13
 74
     0
 42
0.0000000001
 43
0.0000000001
 40
0.0
 40
0.0
 40
0.0
 40
0.0
 40
0.25
 40
0.25
 40
0.25
 40
0.5
 40
0.5
 40
0.5
 40
0.75
 40
0.75
 40
0.75
 40
1.0
 40
1.0
 40
1.0
 40
1.0
 10
13.83621
 20
6.83742
 30
0.0
 10
13.83621
 20
6.83742
 30
0.0
 10
13.23621
 20
6.83742
 30
0.0
 10
13.23621
 20
6.83742
 30
0.0
 10
13.23621
 20
6.83742
 30
0.0
 10
13.23621
 20
6.53742
 30
0.0
 10
13.23621
 20
6.53742
 30
0.0
 10
13.23621
 20
6.53742
 30
0.0
 10
13.83621
 20
6.53742
 30
0.0
 10
13.83621
 20
6.53742
 30
0.0
 10
13.83621
 20
6.53742
 30
0.0
 10
13.83621
 20
6.83742
 30
0.0
 10
13.83621
 20
6.83742
 30
0.0
  0
SPLINE
  5
9B
330
1F
100
AcDbEntity
  8
Layer 1
370
     9
100
AcDbSpline
210
0.0
220
0.0
230
1.0
 70
    11
 71
     3
 72
    17
 73
    13
 74
     0
 42
0.0000000001
 43
0.0000000001
 40
0.0
 40
0.0
 40
0.0
 40
0.0
 40
0.25
 40
0.25
 40
0.25
 40
0.5
 40
0.5
 40
0.5
 40
0.75
 40
0.75
 40
0.75
 40
1.0
 40
1.0
 40
1.0
 40
1.0
 10
23.63621
 20
22.43742
 30
0.0
 10
23.63621
 20
22.43742
 30
0.0
 10
23.33621
 20
22.43742
 30
0.0
 10
23.33621
 20
22.43742
 30
0.0
 10
23.33621
 20
22.43742
 30
0.0
 10
23.33621
 20
23.03742
 30
0.0
 10
23.33621
 20
23.03742
 30
0.0
 10
23.33621
 20
23.03742
 30
0.0
 10
23.63621
 20
23.03742
 30
0.0
 10
23.63621
 20
23.03742
 30
0.0
 10
23.63621
 20
23.03742
 30
0.0
 10
23.63621
 20
22.43742
 30
0.0
 10
23.63621
 20
22.43742
 30
0.0
  0
SPLINE
  5
9C
330
1F
100
AcDbEntity
  8
Layer 1
370
     9
100
AcDbSpline
210
0.0
220
0.0
230
1.0
 70
    11
 71
     3
 72
    17
 73
    13
 74
     0
 42
0.0000000001
 43
0.0000000001
 40
0.0
 40
0.0
 40
0.0
 40
0.0
 40
0.25
 40
0.25
 40
0.25
 40
0.5
 40
0.5
 40
0.5
 40
0.75
 40
0.75
 40
0.75
 40
1.0
 40
1.0
 40
1.0
 40
1.0
 10
23.63621
 20
18.83742
 30
0.0
 10
23.63621
 20
18.83742
 30
0.0
 10
23.33621
 20
18.83742
 30
0.0
 10
23.33621
 20
18.83742
 30
0.0
 10
23.33621
 20
18.83742
 30
0.0
 10
23.33621
 20
19.43742
 30
0.0
 10
23.33621
 20
19.43742
 30
0.0
 10
23.33621
 20
19.43742
 30
0.0
 10
23.63621
 20
19.43742
 30
0.0
 10
23.63621
 20
19.43742
 30
0.0
 10
23.63621
 20
19.43742
 30
0.0
 10
23.63621
 20
18.83742
 30
0.0
 10
23.63621
 20
18.83742
 30
0.0
  0
SPLINE
  5
9D
330
1F
100
AcDbEntity
  8
Layer 1
370
     9
100
AcDbSpline
210
0.0
220
0.0
230
1.0
 70
    11
 71
     3
 72
    17
 73
    13
 74
     0
 42
0.0000000001
 43
0.0000000001
 40
0.0
 40
0.0
 40
0.0
 40
0.0
 40
0.25
 40
0.25
 40
0.25
 40
0.5
 40
0.5
 40
0.5
 40
0.75
 40
0.75
 40
0.75
 40
1.0
 40
1.0
 40
1.0
 40
1.0
 10
23.63621
 20
8.03742
 30
0.0
 10
23.63621
 20
8.03742
 30
0.0
 10
23.63621
 20
8.63742
 30
0.0
 10
23.63621
 20
8.63742
 30
0.0
 10
23.63621
 20
8.63742
 30
0.0
 10
23.33621
 20
8.63742
 30
0.0
 10
23.33621
 20
8.63742
 30
0.0
 10
23.33621
 20
8.63742
 30
0.0
 10
23.33621
 20
8.03742
 30
0.0
 10
23.33621
 20
8.03742
 30
0.0
 10
23.33621
 20
8.03742
 30
0.0
 10
23.63621
 20
8.03742
 30
0.0
 10
23.63621
 20
8.03742
 30
0.0
  0
SPLINE
  5
9E
330
1F
100
AcDbEntity
  8
Layer 1
370
     9
100
AcDbSpline
210
0.0
220
0.0
230
1.0
 70
    11
 71
     3
 72
    17
 73
    13
 74
     0
 42
0.0000000001
 43
0.0000000001
 40
0.0
 40
0.0
 40
0.0
 40
0.0
 40
0.25
 40
0.25
 40
0.25
 40
0.5
 40
0.5
 40
0.5
 40
0.75
 40
0.75
 40
0.75
 40
1.0
 40
1.0
 40
1.0
 40
1.0
 10
23.33621
 20
11.63742
 30
0.0
 10
23.33621
 20
11.63742
 30
0.0
 10
23.63621
 20
11.63742
 30
0.0
 10
23.63621
 20
11.63742
 30
0.0
 10
23.63621
 20
11.63742
 30
0.0
 10
23.63621
 20
12.23742
 30
0.0
 10
23.63621
 20
12.23742
 30
0.0
 10
23.63621
 20
12.23742
 30
0.0
 10
23.33621
 20
12.23742
 30
0.0
 10
23.33621
 20
12.23742
 30
0.0
 10
23.33621
 20
12.23742
 30
0.0
 10
23.33621
 20
11.63742
 30
0.0
 10
23.33621
 20
11.63742
 30
0.0
  0
SPLINE
  5
9F
330
1F
100
AcDbEntity
  8
Layer 1
370
     9
100
AcDbSpline
210
0.0
220
0.0
230
1.0
 70
    11
 71
     3
 72
    17
 73
    13
 74
     0
 42
0.0000000001
 43
0.0000000001
 40
0.0
 40
0.0
 40
0.0
 40
0.0
 40
0.25
 40
0.25
 40
0.25
 40
0.5
 40
0.5
 40
0.5
 40
0.75
 40
0.75
 40
0.75
 40
1.0
 40
1.0
 40
1.0
 40
1.0
 10
23.33621
 20
15.23742
 30
0.0
 10
23.33621
 20
15.23742
 30
0.0
 10
23.63621
 20
15.23742
 30
0.0
 10
23.63621
 20
15.23742
 30
0.0
 10
23.63621
 20
15.23742
 30
0.0
 10
23.63621
 20
15.83742
 30
0.0
 10
23.63621
 20
15.83742
 30
0.0
 10
23.63621
 20
15.83742
 30
0.0
 10
23.33621
 20
15.83742
 30
0.0
 10
23.33621
 20
15.83742
 30
0.0
 10
23.33621
 20
15.83742
 30
0.0
 10
23.33621
 20
15.23742
 30
0.0
 10
23.33621
 20
15.23742
 30
0.0
  0
SPLINE
  5
A0
330
1F
100
AcDbEntity
  8
Layer 1
370
     9
100
AcDbSpline
210
0.0
220
0.0
230
1.0
 70
    11
 71
     3
 72
    17
 73
    13
 74
     0
 42
0.0000000001
 43
0.0000000001
 40
0.0
 40
0.0
 40
0.0
 40
0.0
 40
0.25
 40
0.25
 40
0.25
 40
0.5
 40
0.5
 40
0.5
 40
0.75
 40
0.75
 40
0.75
 40
1.0
 40
1.0
 40
1.0
 40
1.0
 10
22.23621
 20
6.83742
 30
0.0
 10
22.23621
 20
6.83742
 30
0.0
 10
22.23621
 20
6.53742
 30
0.0
 10
22.23621
 20
6.53742
 30
0.0
 10
22.23621
 20
6.53742
 30
0.0
 10
22.83621
 20
6.53742
 30
0.0
 10
22.83621
 20
6.53742
 30
0.0
 10
22.83621
 20
6.53742
 30
0.0
 10
22.83621
 20
6.83742
 30
0.0
 10
22.83621
 20
6.83742
 30
0.0
 10
22.83621
 20
6.83742
 30
0.0
 10
22.23621
 20
6.83742
 30
0.0
 10
22.23621
 20
6.83742
 30
0.0
  0
SPLINE
  5
A1
330
1F
100
AcDbEntity
  8
Layer 1
370
     9
100
AcDbSpline
210
0.0
220
0.0
230
1.0
 70
    11
 71
     3
 72
    17
 73
    13
 74
     0
 42
0.0000000001
 43
0.0000000001
 40
0.0
 40
0.0
 40
0.0
 40
0.0
 40
0.25
 40
0.25
 40
0.25
 40
0.5
 40
0.5
 40
0.5
 40
0.75
 40
0.75
 40
0.75
 40
1.0
 40
1.0
 40
1.0
 40
1.0
 10
18.03621
 20
6.83742
 30
0.0
 10
18.03621
 20
6.83742
 30
0.0
 10
18.03621
 20
6.53742
 30
0.0
 10
18.03621
 20
6.53742
 30
0.0
 10
18.03621
 20
6.53742
 30
0.0
 10
18.63621
 20
6.53742
 30
0.0
 10
18.63621
 20
6.53742
 30
0.0
 10
18.63621
 20
6.53742
 30
0.0
 10
18.63621
 20
6.83742
 30
0.0
 10
18.63621
 20
6.83742
 30
0.0
 10
18.63621
 20
6.83742
 30
0.0
 10
18.03621
 20
6.83742
 30
0.0
 10
18.03621
 20
6.83742
 30
0.0
  0
SPLINE
  5
A2
330
1F
100
AcDbEntity
  8
Layer 1
370
     9
100
AcDbSpline
210
0.0
220
0.0
230
1.0
 70
    11
 71
     3
 72
    14
 73
    10
 74
     0
 42
0.0000000001
 43
0.0000000001
 40
0.0
 40
0.0
 40
0.0
 40
0.0
 40
0.3333333333333333
 40
0.3333333333333333
 40
0.3333333333333333
 40
0.6666666666666666
 40
0.6666666666666666
 40
0.6666666666666666
 40
1.0
 40
1.0
 40
1.0
 40
1.0
 10
-12.60741
 20
23.07182
 30
0.0
 10
-12.60741
 20
23.14075
 30
0.0
 10
-12.64028
 20
23.20202
 30
0.0
 10
-12.69121
 20
23.24076
 30
0.0
 10
-12.87576
 20
23.38118
 30
0.0
 10
-13.12032
 20
23.16195
 30
0.0
 10
-13.00192
 20
22.96334
 30
0.0
 10
-12.89388
 20
22.7821
 30
0.0
 10
-12.60741
 20
22.854
 30
0.0
 10
-12.60741
 20
23.07182
 30
0.0
  0
SPLINE
  5
A3
330
1F
100
AcDbEntity
  8
Layer 1
370
     9
100
AcDbSpline
210
0.0
220
0.0
230
1.0
 70
    11
 71
     3
 72
   182
 73
   178
 74
     0
 42
0.0000000001
 43
0.0000000001
 40
0.0
 40
0.0
 40
0.0
 40
0.0
 40
0.0169491525423729
 40
0.0169491525423729
 40
0.0169491525423729
 40
0.0338983050847458
 40
0.0338983050847458
 40
0.0338983050847458
 40
0.0508474576271186
 40
0.0508474576271186
 40
0.0508474576271186
 40
0.0677966101694915
 40
0.0677966101694915
 40
0.0677966101694915
 40
0.0847457627118644
 40
0.0847457627118644
 40
0.0847457627118644
 40
0.1016949152542373
 40
0.1016949152542373
 40
0.1016949152542373
 40
0.1186440677966102
 40
0.1186440677966102
 40
0.1186440677966102
 40
0.1355932203389831
 40
0.1355932203389831
 40
0.1355932203389831
 40
0.1525423728813559
 40
0.1525423728813559
 40
0.1525423728813559
 40
0.1694915254237288
 40
0.1694915254237288
 40
0.1694915254237288
 40
0.1864406779661017
 40
0.1864406779661017
 40
0.1864406779661017
 40
0.2033898305084746
 40
0.2033898305084746
 40
0.2033898305084746
 40
0.2203389830508475
 40
0.2203389830508475
 40
0.2203389830508475
 40
0.2372881355932203
 40
0.2372881355932203
 40
0.2372881355932203
 40
0.2542372881355932
 40
0.2542372881355932
 40
0.2542372881355932
 40
0.2711864406779661
 40
0.2711864406779661
 40
0.2711864406779661
 40
0.288135593220339
 40
0.288135593220339
 40
0.288135593220339
 40
0.3050847457627119
 40
0.3050847457627119
 40
0.3050847457627119
 40
0.3220338983050847
 40
0.3220338983050847
 40
0.3220338983050847
 40
0.3389830508474576
 40
0.3389830508474576
 40
0.3389830508474576
 40
0.3559322033898305
 40
0.3559322033898305
 40
0.3559322033898305
 40
0.3728813559322034
 40
0.3728813559322034
 40
0.3728813559322034
 40
0.3898305084745763
 40
0.3898305084745763
 40
0.3898305084745763
 40
0.4067796610169492
 40
0.4067796610169492
 40
0.4067796610169492
 40
0.423728813559322
 40
0.423728813559322
 40
0.423728813559322
 40
0.4406779661016949
 40
0.4406779661016949
 40
0.4406779661016949
 40
0.4576271186440678
 40
0.4576271186440678
 40
0.4576271186440678
 40
0.4745762711864407
 40
0.4745762711864407
 40
0.4745762711864407
 40
0.4915254237288136
 40
0.4915254237288136
 40
0.4915254237288136
 40
0.5084745762711864
 40
0.5084745762711864
 40
0.5084745762711864
 40
0.5254237288135594
 40
0.5254237288135594
 40
0.5254237288135594
 40
0.5423728813559322
 40
0.5423728813559322
 40
0.5423728813559322
 40
0.559322033898305
 40
0.559322033898305
 40
0.559322033898305
 40
0.576271186440678
 40
0.576271186440678
 40
0.576271186440678
 40
0.5932203389830508
 40
0.5932203389830508
 40
0.5932203389830508
 40
0.6101694915254238
 40
0.6101694915254238
 40
0.6101694915254238
 40
0.6271186440677966
 40
0.6271186440677966
 40
0.6271186440677966
 40
0.6440677966101694
 40
0.6440677966101694
 40
0.6440677966101694
 40
0.6610169491525424
 40
0.6610169491525424
 40
0.6610169491525424
 40
0.6779661016949152
 40
0.6779661016949152
 40
0.6779661016949152
 40
0.6949152542372882
 40
0.6949152542372882
 40
0.6949152542372882
 40
0.711864406779661
 40
0.711864406779661
 40
0.711864406779661
 40
0.7288135593220338
 40
0.7288135593220338
 40
0.7288135593220338
 40
0.7457627118644068
 40
0.7457627118644068
 40
0.7457627118644068
 40
0.7627118644067796
 40
0.7627118644067796
 40
0.7627118644067796
 40
0.7796610169491526
 40
0.7796610169491526
 40
0.7796610169491526
 40
0.7966101694915254
 40
0.7966101694915254
 40
0.7966101694915254
 40
0.8135593220338984
 40
0.8135593220338984
 40
0.8135593220338984
 40
0.8305084745762712
 40
0.8305084745762712
 40
0.8305084745762712
 40
0.847457627118644
 40
0.847457627118644
 40
0.847457627118644
 40
0.864406779661017
 40
0.864406779661017
 40
0.864406779661017
 40
0.8813559322033898
 40
0.8813559322033898
 40
0.8813559322033898
 40
0.8983050847457628
 40
0.8983050847457628
 40
0.8983050847457628
 40
0.9152542372881356
 40
0.9152542372881356
 40
0.9152542372881356
 40
0.9322033898305084
 40
0.9322033898305084
 40
0.9322033898305084
 40
0.9491525423728814
 40
0.9491525423728814
 40
0.9491525423728814
 40
0.9661016949152542
 40
0.9661016949152542
 40
0.9661016949152542
 40
0.9830508474576272
 40
0.9830508474576272
 40
0.9830508474576272
 40
1.0
 40
1.0
 40
1.0
 40
1.0
 10
-23.04311
 20
16.24795
 30
0.0
 10
-23.04312
 20
16.3679
 30
0.0
 10
-22.97183
 20
16.48127
 30
0.0
 10
-22.86551
 20
16.54959
 30
0.0
 10
-22.86551
 20
16.54959
 30
0.0
 10
-13.20055
 20
22.65378
 30
0.0
 10
-13.20055
 20
22.65378
 30
0.0
 10
-13.58053
 20
23.0003
 30
0.0
 10
-13.33558
 20
23.63742
 30
0.0
 10
-12.81956
 20
23.63742
 30
0.0
 10
-12.81956
 20
23.63742
 30
0.0
 10
-11.64312
 20
23.63742
 30
0.0
 10
-11.64312
 20
23.63742
 30
0.0
 10
-11.64312
 20
23.63742
 30
0.0
 10
-11.64312
 20
23.03742
 30
0.0
 10
-11.64312
 20
23.03742
 30
0.0
 10
-11.64312
 20
23.03742
 30
0.0
 10
-11.34312
 20
23.03742
 30
0.0
 10
-11.34312
 20
23.03742
 30
0.0
 10
-11.34312
 20
23.03742
 30
0.0
 10
-11.34312
 20
22.43742
 30
0.0
 10
-11.34312
 20
22.43742
 30
0.0
 10
-11.34312
 20
22.43742
 30
0.0
 10
-11.64312
 20
22.43742
 30
0.0
 10
-11.64312
 20
22.43742
 30
0.0
 10
-11.64312
 20
22.43742
 30
0.0
 10
-11.64311
 20
19.43742
 30
0.0
 10
-11.64311
 20
19.43742
 30
0.0
 10
-11.64311
 20
19.43742
 30
0.0
 10
-11.34312
 20
19.43742
 30
0.0
 10
-11.34312
 20
19.43742
 30
0.0
 10
-11.34312
 20
19.43742
 30
0.0
 10
-11.34312
 20
18.83742
 30
0.0
 10
-11.34312
 20
18.83742
 30
0.0
 10
-11.34312
 20
18.83742
 30
0.0
 10
-11.64311
 20
18.83742
 30
0.0
 10
-11.64311
 20
18.83742
 30
0.0
 10
-11.64311
 20
18.83742
 30
0.0
 10
-11.64311
 20
15.83742
 30
0.0
 10
-11.64311
 20
15.83742
 30
0.0
 10
-11.64311
 20
15.83742
 30
0.0
 10
-11.34312
 20
15.83742
 30
0.0
 10
-11.34312
 20
15.83742
 30
0.0
 10
-11.34312
 20
15.83742
 30
0.0
 10
-11.34312
 20
15.23742
 30
0.0
 10
-11.34312
 20
15.23742
 30
0.0
 10
-11.34312
 20
15.23742
 30
0.0
 10
-11.64311
 20
15.23742
 30
0.0
 10
-11.64311
 20
15.23742
 30
0.0
 10
-11.64311
 20
15.23742
 30
0.0
 10
-11.64311
 20
12.23742
 30
0.0
 10
-11.64311
 20
12.23742
 30
0.0
 10
-11.64311
 20
12.23742
 30
0.0
 10
-11.34312
 20
12.23742
 30
0.0
 10
-11.34312
 20
12.23742
 30
0.0
 10
-11.34312
 20
12.23742
 30
0.0
 10
-11.34312
 20
11.63742
 30
0.0
 10
-11.34312
 20
11.63742
 30
0.0
 10
-11.34312
 20
11.63742
 30
0.0
 10
-11.64311
 20
11.63742
 30
0.0
 10
-11.64311
 20
11.63742
 30
0.0
 10
-11.64311
 20
11.63742
 30
0.0
 10
-11.64311
 20
8.63742
 30
0.0
 10
-11.64311
 20
8.63742
 30
0.0
 10
-11.64311
 20
8.63742
 30
0.0
 10
-11.34312
 20
8.63742
 30
0.0
 10
-11.34312
 20
8.63742
 30
0.0
 10
-11.34312
 20
8.63742
 30
0.0
 10
-11.34312
 20
8.03742
 30
0.0
 10
-11.34312
 20
8.03742
 30
0.0
 10
-11.34312
 20
8.03742
 30
0.0
 10
-11.64311
 20
8.03742
 30
0.0
 10
-11.64311
 20
8.03742
 30
0.0
 10
-11.64311
 20
8.03742
 30
0.0
 10
-11.64311
 20
6.23742
 30
0.0
 10
-11.64311
 20
6.23742
 30
0.0
 10
-15.44311
 20
6.23742
 30
0.0
 10
-19.24311
 20
6.23742
 30
0.0
 10
-23.04311
 20
6.23742
 30
0.0
 10
-23.04311
 20
6.23742
 30
0.0
 10
-23.04312
 20
6.83742
 30
0.0
 10
-23.04312
 20
6.83742
 30
0.0
 10
-23.04312
 20
6.83742
 30
0.0
 10
-23.34312
 20
6.83742
 30
0.0
 10
-23.34312
 20
6.83742
 30
0.0
 10
-23.34312
 20
6.83742
 30
0.0
 10
-23.34312
 20
7.43742
 30
0.0
 10
-23.34312
 20
7.43742
 30
0.0
 10
-23.34312
 20
7.43742
 30
0.0
 10
-23.04312
 20
7.43742
 30
0.0
 10
-23.04312
 20
7.43742
 30
0.0
 10
-23.04312
 20
7.43742
 30
0.0
 10
-23.04312
 20
8.03742
 30
0.0
 10
-23.04312
 20
8.03742
 30
0.0
 10
-23.04312
 20
8.03742
 30
0.0
 10
-23.34312
 20
8.03742
 30
0.0
 10
-23.34312
 20
8.03742
 30
0.0
 10
-23.34312
 20
8.03742
 30
0.0
 10
-23.34312
 20
8.63742
 30
0.0
 10
-23.34312
 20
8.63742
 30
0.0
 10
-23.34312
 20
8.63742
 30
0.0
 10
-23.04312
 20
8.63742
 30
0.0
 10
-23.04312
 20
8.63742
 30
0.0
 10
-23.04312
 20
8.63742
 30
0.0
 10
-23.04312
 20
9.23742
 30
0.0
 10
-23.04312
 20
9.23742
 30
0.0
 10
-23.04312
 20
9.23742
 30
0.0
 10
-23.34312
 20
9.23742
 30
0.0
 10
-23.34312
 20
9.23742
 30
0.0
 10
-23.34312
 20
9.23742
 30
0.0
 10
-23.34312
 20
9.83742
 30
0.0
 10
-23.34312
 20
9.83742
 30
0.0
 10
-23.34312
 20
9.83742
 30
0.0
 10
-23.04312
 20
9.83742
 30
0.0
 10
-23.04312
 20
9.83742
 30
0.0
 10
-23.04312
 20
9.83742
 30
0.0
 10
-23.04312
 20
10.43742
 30
0.0
 10
-23.04312
 20
10.43742
 30
0.0
 10
-23.04312
 20
10.43742
 30
0.0
 10
-23.34312
 20
10.43742
 30
0.0
 10
-23.34312
 20
10.43742
 30
0.0
 10
-23.34312
 20
10.43742
 30
0.0
 10
-23.34312
 20
11.03742
 30
0.0
 10
-23.34312
 20
11.03742
 30
0.0
 10
-23.34312
 20
11.03742
 30
0.0
 10
-23.04312
 20
11.03742
 30
0.0
 10
-23.04312
 20
11.03742
 30
0.0
 10
-23.04312
 20
11.03742
 30
0.0
 10
-23.04312
 20
11.63742
 30
0.0
 10
-23.04312
 20
11.63742
 30
0.0
 10
-23.04312
 20
11.63742
 30
0.0
 10
-23.34312
 20
11.63742
 30
0.0
 10
-23.34312
 20
11.63742
 30
0.0
 10
-23.34312
 20
11.63742
 30
0.0
 10
-23.34312
 20
12.23742
 30
0.0
 10
-23.34312
 20
12.23742
 30
0.0
 10
-23.34312
 20
12.23742
 30
0.0
 10
-23.04312
 20
12.23742
 30
0.0
 10
-23.04312
 20
12.23742
 30
0.0
 10
-23.04312
 20
12.23742
 30
0.0
 10
-23.04312
 20
12.83742
 30
0.0
 10
-23.04312
 20
12.83742
 30
0.0
 10
-23.04312
 20
12.83742
 30
0.0
 10
-23.34312
 20
12.83742
 30
0.0
 10
-23.34312
 20
12.83742
 30
0.0
 10
-23.34312
 20
12.83742
 30
0.0
 10
-23.34312
 20
13.43742
 30
0.0
 10
-23.34312
 20
13.43742
 30
0.0
 10
-23.34312
 20
13.43742
 30
0.0
 10
-23.04312
 20
13.43742
 30
0.0
 10
-23.04312
 20
13.43742
 30
0.0
 10
-23.04312
 20
13.43742
 30
0.0
 10
-23.04312
 20
14.03742
 30
0.0
 10
-23.04312
 20
14.03742
 30
0.0
 10
-23.04312
 20
14.03742
 30
0.0
 10
-23.34312
 20
14.03742
 30
0.0
 10
-23.34312
 20
14.03742
 30
0.0
 10
-23.34312
 20
14.03742
 30
0.0
 10
-23.34312
 20
14.63742
 30
0.0
 10
-23.34312
 20
14.63742
 30
0.0
 10
-23.34312
 20
14.63742
 30
0.0
 10
-23.04312
 20
14.63742
 30
0.0
 10
-23.04312
 20
14.63742
 30
0.0
 10
-23.04312
 20
14.63742
 30
0.0
 10
-23.04312
 20
15.23742
 30
0.0
 10
-23.04312
 20
15.23742
 30
0.0
 10
-23.04312
 20
15.23742
 30
0.0
 10
-23.34312
 20
15.23742
 30
0.0
 10
-23.34312
 20
15.23742
 30
0.0
 10
-23.34312
 20
15.23742
 30
0.0
 10
-23.34312
 20
15.83742
 30
0.0
 10
-23.34312
 20
15.83742
 30
0.0
 10
-23.34312
 20
15.83742
 30
0.0
 10
-23.04312
 20
15.83742
 30
0.0
 10
-23.04312
 20
15.83742
 30
0.0
 10
-23.04312
 20
15.83742
 30
0.0
 10
-23.04311
 20
16.24795
 30
0.0
 10
-23.04311
 20
16.24795
 30
0.0
  0
SPLINE
  5
A4
330
1F
100
AcDbEntity
  8
Layer 1
370
     9
100
AcDbSpline
210
0.0
220
0.0
230
1.0
 70
    11
 71
     3
 72
    17
 73
    13
 74
     0
 42
0.0000000001
 43
0.0000000001
 40
0.0
 40
0.0
 40
0.0
 40
0.0
 40
0.25
 40
0.25
 40
0.25
 40
0.5
 40
0.5
 40
0.5
 40
0.75
 40
0.75
 40
0.75
 40
1.0
 40
1.0
 40
1.0
 40
1.0
 10
-12.24311
 20
6.53742
 30
0.0
 10
-12.24311
 20
6.53742
 30
0.0
 10
-12.24311
 20
6.83742
 30
0.0
 10
-12.24311
 20
6.83742
 30
0.0
 10
-12.24311
 20
6.83742
 30
0.0
 10
-12.84311
 20
6.83742
 30
0.0
 10
-12.84311
 20
6.83742
 30
0.0
 10
-12.84311
 20
6.83742
 30
0.0
 10
-12.84311
 20
6.53742
 30
0.0
 10
-12.84311
 20
6.53742
 30
0.0
 10
-12.84311
 20
6.53742
 30
0.0
 10
-12.24311
 20
6.53742
 30
0.0
 10
-12.24311
 20
6.53742
 30
0.0
  0
SPLINE
  5
A5
330
1F
100
AcDbEntity
  8
Layer 1
370
     9
100
AcDbSpline
210
0.0
220
0.0
230
1.0
 70
    11
 71
     3
 72
    17
 73
    13
 74
     0
 42
0.0000000001
 43
0.0000000001
 40
0.0
 40
0.0
 40
0.0
 40
0.0
 40
0.25
 40
0.25
 40
0.25
 40
0.5
 40
0.5
 40
0.5
 40
0.75
 40
0.75
 40
0.75
 40
1.0
 40
1.0
 40
1.0
 40
1.0
 10
-21.84311
 20
6.83742
 30
0.0
 10
-21.84311
 20
6.83742
 30
0.0
 10
-21.84311
 20
6.53742
 30
0.0
 10
-21.84311
 20
6.53742
 30
0.0
 10
-21.84311
 20
6.53742
 30
0.0
 10
-22.44311
 20
6.53742
 30
0.0
 10
-22.44311
 20
6.53742
 30
0.0
 10
-22.44311
 20
6.53742
 30
0.0
 10
-22.44311
 20
6.83742
 30
0.0
 10
-22.44311
 20
6.83742
 30
0.0
 10
-22.44311
 20
6.83742
 30
0.0
 10
-21.84311
 20
6.83742
 30
0.0
 10
-21.84311
 20
6.83742
 30
0.0
  0
SPLINE
  5
A6
330
1F
100
AcDbEntity
  8
Layer 1
370
     9
100
AcDbSpline
210
0.0
220
0.0
230
1.0
 70
    11
 71
     3
 72
    17
 73
    13
 74
     0
 42
0.0000000001
 43
0.0000000001
 40
0.0
 40
0.0
 40
0.0
 40
0.0
 40
0.25
 40
0.25
 40
0.25
 40
0.5
 40
0.5
 40
0.5
 40
0.75
 40
0.75
 40
0.75
 40
1.0
 40
1.0
 40
1.0
 40
1.0
 10
-17.04311
 20
6.83742
 30
0.0
 10
-17.04311
 20
6.83742
 30
0.0
 10
-17.04311
 20
6.53742
 30
0.0
 10
-17.04311
 20
6.53742
 30
0.0
 10
-17.04311
 20
6.53742
 30
0.0
 10
-17.64311
 20
6.53742
 30
0.0
 10
-17.64311
 20
6.53742
 30
0.0
 10
-17.64311
 20
6.53742
 30
0.0
 10
-17.64311
 20
6.83742
 30
0.0
 10
-17.64311
 20
6.83742
 30
0.0
 10
-17.64311
 20
6.83742
 30
0.0
 10
-17.04311
 20
6.83742
 30
0.0
 10
-17.04311
 20
6.83742
 30
0.0
  0
SPLINE
  5
A7
330
1F
100
AcDbEntity
  8
Layer 1
370
     9
100
AcDbSpline
210
0.0
220
0.0
230
1.0
 70
    11
 71
     3
 72
    20
 73
    16
 74
     0
 42
0.0000000001
 43
0.0000000001
 40
0.0
 40
0.0
 40
0.0
 40
0.0
 40
0.2
 40
0.2
 40
0.2
 40
0.4
 40
0.4
 40
0.4
 40
0.6000000000000001
 40
0.6000000000000001
 40
0.6000000000000001
 40
0.8
 40
0.8
 40
0.8
 40
1.0
 40
1.0
 40
1.0
 40
1.0
 10
12.19114
 20
-6.06303
 30
0.0
 10
12.19114
 20
-5.54939
 30
0.0
 10
12.89659
 20
-5.37796
 30
0.0
 10
13.15645
 20
-5.86244
 30
0.0
 10
13.47133
 20
-5.27537
 30
0.0
 10
14.18111
 20
-5.56327
 30
0.0
 10
14.16064
 20
-6.09656
 30
0.0
 10
14.15719
 20
-6.1864
 30
0.0
 10
14.13299
 20
-6.28323
 30
0.0
 10
14.0827
 20
-6.38401
 30
0.0
 10
13.955
 20
-6.63989
 30
0.0
 10
13.54419
 20
-6.74524
 30
0.0
 10
13.13822
 20
-7.16066
 30
0.0
 10
12.59139
 20
-6.80009
 30
0.0
 10
12.19114
 20
-6.51457
 30
0.0
 10
12.19114
 20
-6.06303
 30
0.0
  0
ENDSEC
  0
SECTION
  2
OBJECTS
  0
DICTIONARY
  5
C
330
0
100
AcDbDictionary
281
     1
  3
ACAD_DETAILVIEWSTYLE
350
AF
  3
ACAD_GROUP
350
D
  3
ACAD_LAYOUT
350
1A
  3
ACAD_MATERIAL
350
43
  3
ACAD_MLEADERSTYLE
350
5B
  3
ACAD_MLINESTYLE
350
17
  3
ACAD_PLOTSETTINGS
350
19
  3
ACAD_PLOTSTYLENAME
350
E
  3
ACAD_SCALELIST
350
47
  3
ACAD_SECTIONVIEWSTYLE
350
B0
  3
ACAD_TABLESTYLE
350
59
  3
ACAD_VISUALSTYLE
350
2A
  3
ACDB_RECOMPOSE_DATA
350
AC
  3
AcDbVariableDictionary
350
A8
  0
SUN
  5
5D
330
29
100
AcDbSun
 90
        1
290
     0
 63
     7
421
 16777215
 40
1.0
291
     1
 91
  2455826
 92
 54000000
292
     0
 70
     2
 71
   256
280
     1
  0
DICTIONARY
  5
AF
102
{ACAD_REACTORS
330
C
102
}
330
C
100
AcDbDictionary
281
     1
  0
DICTIONARY
  5
D
102
{ACAD_REACTORS
330
C
102
}
330
C
100
AcDbDictionary
281
     1
  0
DICTIONARY
  5
1A
102
{ACAD_REACTORS
330
C
102
}
330
C
100
AcDbDictionary
281
     1
  3
Layout1
350
1E
  3
Layout2
350
26
  3
Model
350
22
  0
DICTIONARY
  5
43
102
{ACAD_REACTORS
330
C
102
}
330
C
100
AcDbDictionary
281
     1
  3
ByBlock
350
45
  3
ByLayer
350
44
  3
Global
350
46
  0
DICTIONARY
  5
5B
102
{ACAD_REACTORS
330
C
102
}
330
C
100
AcDbDictionary
281
     1
  3
Standard
350
5C
  0
DICTIONARY
  5
17
102
{ACAD_REACTORS
330
C
102
}
330
C
100
AcDbDictionary
281
     1
  3
Standard
350
18
  0
DICTIONARY
  5
19
102
{ACAD_REACTORS
330
C
102
}
330
C
100
AcDbDictionary
281
     1
  0
ACDBDICTIONARYWDFLT
  5
E
102
{ACAD_REACTORS
330
C
102
}
330
C
100
AcDbDictionary
281
     1
  3
Normal
350
F
100
AcDbDictionaryWithDefault
340
F
  0
DICTIONARY
  5
47
102
{ACAD_REACTORS
330
C
102
}
330
C
100
AcDbDictionary
281
     1
  3
A0
350
48
  3
A1
350
49
  3
A2
350
4A
  3
A3
350
4B
  3
A4
350
4C
  3
A5
350
4D
  3
A6
350
4E
  3
A7
350
4F
  3
A8
350
50
  3
A9
350
51
  3
B1
350
52
  3
B2
350
53
  3
B3
350
54
  3
B4
350
55
  3
B5
350
56
  3
B6
350
57
  3
B7
350
58
  0
DICTIONARY
  5
B0
102
{ACAD_REACTORS
330
C
102
}
330
C
100
AcDbDictionary
281
     1
  0
DICTIONARY
  5
59
102
{ACAD_REACTORS
330
C
102
}
330
C
100
AcDbDictionary
281
     1
  3
Standard
350
5A
  0
DICTIONARY
  5
2A
102
{ACAD_REACTORS
330
C
102
}
330
C
100
AcDbDictionary
281
     1
  3
2dWireframe
350
2F
  3
Basic
350
32
  3
Brighten
350
36
  3
ColorChange
350
3A
  3
Conceptual
350
34
  3
Dim
350
35
  3
EdgeColorOff
350
3D
  3
Facepattern
350
39
  3
Flat
350
2B
  3
FlatWithEdges
350
2C
  3
Gouraud
350
2D
  3
GouraudWithEdges
350
2E
  3
Hidden
350
31
  3
JitterOff
350
3B
  3
Linepattern
350
38
  3
OverhangOff
350
3C
  3
Realistic
350
33
  3
Shaded
350
42
  3
Shaded with edges
350
41
  3
Shades of Gray
350
3E
  3
Sketchy
350
3F
  3
Thicken
350
37
  3
Wireframe
350
30
  3
X-Ray
350
40
  0
XRECORD
  5
AC
102
{ACAD_REACTORS
330
C
102
}
330
C
100
AcDbXrecord
280
     1
 90
        1
330
5A
  0
DICTIONARY
  5
A8
102
{ACAD_REACTORS
330
C
102
}
330
C
100
AcDbDictionary
281
     1
  3
CANNOSCALE
350
A9
  3
CMLEADERSTYLE
350
AE
  3
CTABLESTYLE
350
AD
  0
LAYOUT
  5
1E
102
{ACAD_REACTORS
330
1A
102
}
330
1A
100
AcDbPlotSettings
  1

  2
none_device
  4

  6

 40
0.0
 41
0.0
 42
0.0
 43
0.0
 44
0.0
 45
0.0
 46
0.0
 47
0.0
 48
0.0
 49
0.0
140
0.0
141
0.0
142
1.0
143
1.0
 70
   688
 72
     0
 73
     0
 74
     5
  7

 75
    16
 76
     0
 77
     2
 78
   300
147
1.0
148
0.0
149
0.0
100
AcDbLayout
  1
Layout1
 70
     1
 71
     1
 10
0.0
 20
0.0
 11
12.0
 21
9.0
 12
0.0
 22
0.0
 32
0.0
 14
1.000000000000000E+20
 24
1.000000000000000E+20
 34
1.000000000000000E+20
 15
-1.000000000000000E+20
 25
-1.000000000000000E+20
 35
-1.000000000000000E+20
146
0.0
 13
0.0
 23
0.0
 33
0.0
 16
1.0
 26
0.0
 36
0.0
 17
0.0
 27
1.0
 37
0.0
 76
     0
330
1B
  0
LAYOUT
  5
26
102
{ACAD_REACTORS
330
1A
102
}
330
1A
100
AcDbPlotSettings
  1

  2
none_device
  4

  6

 40
0.0
 41
0.0
 42
0.0
 43
0.0
 44
0.0
 45
0.0
 46
0.0
 47
0.0
 48
0.0
 49
0.0
140
0.0
141
0.0
142
1.0
143
1.0
 70
   688
 72
     0
 73
     0
 74
     5
  7

 75
    16
 76
     0
 77
     2
 78
   300
147
1.0
148
0.0
149
0.0
100
AcDbLayout
  1
Layout2
 70
     1
 71
     2
 10
0.0
 20
0.0
 11
0.0
 21
0.0
 12
0.0
 22
0.0
 32
0.0
 14
0.0
 24
0.0
 34
0.0
 15
0.0
 25
0.0
 35
0.0
146
0.0
 13
0.0
 23
0.0
 33
0.0
 16
1.0
 26
0.0
 36
0.0
 17
0.0
 27
1.0
 37
0.0
 76
     0
330
23
  0
LAYOUT
  5
22
102
{ACAD_REACTORS
330
1A
102
}
330
1A
100
AcDbPlotSettings
  1

  2
none_device
  4
Letter_(8.50_x_11.00_Inches)
  6

 40
6.35
 41
6.35
 42
6.35000508
 43
6.35000508
 44
215.9
 45
279.4
 46
0.0
 47
0.0
 48
0.0
 49
0.0
140
0.0
141
0.0
142
1.0
143
1.0
 70
  1712
 72
     0
 73
     0
 74
     0
  7

 75
     0
 76
     0
 77
     2
 78
   300
147
1.0
148
0.0
149
0.0
100
AcDbLayout
  1
Model
 70
     1
 71
     0
 10
0.0
 20
0.0
 11
12.0
 21
9.0
 12
0.0
 22
0.0
 32
0.0
 14
-23.34693
 24
-18.77691
 34
0.0
 15
23.94002
 25
23.64123
 35
0.0
146
0.0
 13
0.0
 23
0.0
 33
0.0
 16
1.0
 26
0.0
 36
0.0
 17
0.0
 27
1.0
 37
0.0
 76
     0
330
1F
331
29
  0
MATERIAL
  5
45
102
{ACAD_REACTORS
330
43
102
}
330
43
100
AcDbMaterial
  1
ByBlock
 72
     1
 94
      127
  0
MATERIAL
  5
44
102
{ACAD_REACTORS
330
43
102
}
330
43
100
AcDbMaterial
  1
ByLayer
 72
     1
 94
      127
  0
MATERIAL
  5
46
102
{ACAD_REACTORS
330
43
102
}
330
43
100
AcDbMaterial
  1
Global
 72
     1
 94
      127
  0
MLEADERSTYLE
  5
5C
102
{ACAD_REACTORS
330
5B
102
}
330
5B
100
AcDbMLeaderStyle
179
     2
170
     2
171
     1
172
     0
 90
        2
 40
0.0
 41
0.0
173
     1
 91
-1056964608
340
14
 92
       -2
290
     1
 42
0.09
291
     1
 43
0.36
  3
Standard
341
0
 44
0.18
300

342
11
174
     1
178
     6
175
     1
176
     0
 93
-1056964608
 45
0.18
292
     0
297
     0
 46
0.18
343
0
 94
-1056964608
 47
1.0
 49
1.0
140
1.0
293
     1
141
0.0
294
     1
177
     0
142
1.0
295
     0
296
     0
143
0.125
271
     0
272
     9
273
     9
298
     0
  0
MLINESTYLE
  5
18
102
{ACAD_REACTORS
330
17
102
}
330
17
100
AcDbMlineStyle
  2
Standard
 70
     0
  3

 62
   256
 51
90.0
 52
90.0
 71
     2
 49
0.5
 62
   256
  6
BYLAYER
 49
-0.5
 62
   256
  6
BYLAYER
  0
ACDBPLACEHOLDER
  5
F
102
{ACAD_REACTORS
330
E
102
}
330
E
  0
SCALE
  5
48
102
{ACAD_REACTORS
330
47
102
}
330
47
100
AcDbScale
 70
     0
300
1:1
140
1.0
141
1.0
290
     1
  0
SCALE
  5
49
102
{ACAD_REACTORS
330
47
102
}
330
47
100
AcDbScale
 70
     0
300
1/128" = 1'-0"
140
0.0078125
141
12.0
290
     0
  0
SCALE
  5
4A
102
{ACAD_REACTORS
330
47
102
}
330
47
100
AcDbScale
 70
     0
300
1/64" = 1'-0"
140
0.015625
141
12.0
290
     0
  0
SCALE
  5
4B
102
{ACAD_REACTORS
330
47
102
}
330
47
100
AcDbScale
 70
     0
300
1/32" = 1'-0"
140
0.03125
141
12.0
290
     0
  0
SCALE
  5
4C
102
{ACAD_REACTORS
330
47
102
}
330
47
100
AcDbScale
 70
     0
300
1/16" = 1'-0"
140
0.0625
141
12.0
290
     0
  0
SCALE
  5
4D
102
{ACAD_REACTORS
330
47
102
}
330
47
100
AcDbScale
 70
     0
300
3/32" = 1'-0"
140
0.09375
141
12.0
290
     0
  0
SCALE
  5
4E
102
{ACAD_REACTORS
330
47
102
}
330
47
100
AcDbScale
 70
     0
300
1/8" = 1'-0"
140
0.125
141
12.0
290
     0
  0
SCALE
  5
4F
102
{ACAD_REACTORS
330
47
102
}
330
47
100
AcDbScale
 70
     0
300
3/16" = 1'-0"
140
0.1875
141
12.0
290
     0
  0
SCALE
  5
50
102
{ACAD_REACTORS
330
47
102
}
330
47
100
AcDbScale
 70
     0
300
1/4" = 1'-0"
140
0.25
141
12.0
290
     0
  0
SCALE
  5
51
102
{ACAD_REACTORS
330
47
102
}
330
47
100
AcDbScale
 70
     0
300
3/8" = 1'-0"
140
0.375
141
12.0
290
     0
  0
SCALE
  5
52
102
{ACAD_REACTORS
330
47
102
}
330
47
100
AcDbScale
 70
     0
300
1/2" = 1'-0"
140
0.5
141
12.0
290
     0
  0
SCALE
  5
53
102
{ACAD_REACTORS
330
47
102
}
330
47
100
AcDbScale
 70
     0
300
3/4" = 1'-0"
140
0.75
141
12.0
290
     0
  0
SCALE
  5
54
102
{ACAD_REACTORS
330
47
102
}
330
47
100
AcDbScale
 70
     0
300
1" = 1'-0"
140
1.0
141
12.0
290
     0
  0
SCALE
  5
55
102
{ACAD_REACTORS
330
47
102
}
330
47
100
AcDbScale
 70
     0
300
1-1/2" = 1'-0"
140
1.5
141
12.0
290
     0
  0
SCALE
  5
56
102
{ACAD_REACTORS
330
47
102
}
330
47
100
AcDbScale
 70
     0
300
3" = 1'-0"
140
3.0
141
12.0
290
     0
  0
SCALE
  5
57
102
{ACAD_REACTORS
330
47
102
}
330
47
100
AcDbScale
 70
     0
300
6" = 1'-0"
140
6.0
141
12.0
290
     0
  0
SCALE
  5
58
102
{ACAD_REACTORS
330
47
102
}
330
47
100
AcDbScale
 70
     0
300
1'-0" = 1'-0"
140
12.0
141
12.0
290
     0
  0
TABLESTYLE
  5
5A
102
{ACAD_REACTORS
330
59
102
}
102
{ACAD_XDICTIONARY
360
AA
102
}
330
59
100
AcDbTableStyle
  3
Standard
 70
     0
 71
     0
 40
0.06
 41
0.06
280
     0
281
     0
  7
Standard
140
0.18
170
     2
 62
     0
 63
   257
283
     0
 90
        4
 91
        0
  1

274
    -2
284
     1
 64
     0
275
    -2
285
     1
 65
     0
276
    -2
286
     1
 66
     0
277
    -2
287
     1
 67
     0
278
    -2
288
     1
 68
     0
279
    -2
289
     1
 69
     0
  7
Standard
140
0.25
170
     5
 62
     0
 63
   257
283
     0
 90
        4
 91
        0
  1

274
    -2
284
     1
 64
     0
275
    -2
285
     1
 65
     0
276
    -2
286
     1
 66
     0
277
    -2
287
     1
 67
     0
278
    -2
288
     1
 68
     0
279
    -2
289
     1
 69
     0
  7
Standard
140
0.18
170
     5
 62
     0
 63
   257
283
     0
 90
        4
 91
        0
  1

274
    -2
284
     1
 64
     0
275
    -2
285
     1
 65
     0
276
    -2
286
     1
 66
     0
277
    -2
287
     1
 67
     0
278
    -2
288
     1
 68
     0
279
    -2
289
     1
 69
     0
  0
VISUALSTYLE
  5
2F
102
{ACAD_REACTORS
330
2A
102
}
330
2A
100
AcDbVisualStyle
  2
2dWireframe
 70
     4
177
     3
291
     0
 70
    58
 90
        0
176
     1
 90
        2
176
     1
 90
        0
176
     1
 90
        0
176
     1
 40
0.6
176
     1
 40
30.0
176
     1
 62
     7
420
 16777215
176
     1
 90
        1
176
     1
 90
        4
176
     1
 62
     7
176
     1
 62
   257
176
     1
 90
        1
176
     1
 90
        1
176
     1
 40
1.0
176
     1
 90
        0
176
     1
 62
   257
176
     1
 40
1.0
176
     1
 90
        1
176
     1
 90
        6
176
     1
 90
        2
176
     1
 62
     7
176
     1
 90
        5
176
     1
 90
        0
176
     1
 90
        0
176
     1
290
     0
176
     1
 90
        1
176
     1
 40
0.0
176
     1
 90
        0
176
     1
290
     1
176
     1
290
     1
176
     1
290
     0
176
     1
290
     0
176
     1
290
     0
176
     1
290
     0
176
     1
290
     0
176
     1
290
     0
176
     1
290
     0
176
     1
 90
       50
176
     1
 40
0.0
176
     1
 40
1.0
176
     1
 90
        0
176
     1
 62
    18
420
        0
176
     1
 90
       50
176
     1
 90
        3
176
     1
 62
     5
420
      255
176
     1
290
     0
176
     1
 90
       50
176
     1
 90
       50
176
     1
 90
       50
176
     1
290
     0
176
     1
 90
       50
176
     1
 62
   256
176
     0
 40
1.0
176
     0
 90
        2
176
     1
  1
strokes_ogs.tif
176
     1
290
     0
176
     1
 40
1.0
176
     1
 40
1.0
176
     1
  0
VISUALSTYLE
  5
32
102
{ACAD_REACTORS
330
2A
102
}
330
2A
100
AcDbVisualStyle
  2
Basic
 70
     7
177
     3
291
     1
 70
    58
 90
        1
176
     1
 90
        0
176
     1
 90
        1
176
     1
 90
        0
176
     1
 40
0.6
176
     1
 40
30.0
176
     1
 62
     7
420
 16777215
176
     1
 90
        0
176
     1
 90
        4
176
     1
 62
     7
176
     1
 62
   257
176
     1
 90
        1
176
     1
 90
        1
176
     1
 40
1.0
176
     1
 90
        8
176
     1
 62
     7
176
     1
 40
1.0
176
     1
 90
        1
176
     1
 90
        6
176
     1
 90
        2
176
     1
 62
     7
176
     1
 90
        5
176
     1
 90
        0
176
     1
 90
        0
176
     1
290
     0
176
     1
 90
        1
176
     1
 40
0.0
176
     1
 90
        0
176
     1
290
     0
176
     1
290
     1
176
     1
290
     1
176
     1
290
     0
176
     1
290
     0
176
     1
290
     0
176
     1
290
     0
176
     1
290
     0
176
     1
290
     0
176
     1
 90
       50
176
     1
 40
0.0
176
     1
 40
1.0
176
     1
 90
        0
176
     1
 62
    18
420
        0
176
     1
 90
       50
176
     1
 90
        3
176
     1
 62
     5
420
      255
176
     1
290
     0
176
     1
 90
       50
176
     1
 90
       50
176
     1
 90
       50
176
     1
290
     0
176
     1
 90
       50
176
     1
 62
   256
176
     0
 40
1.0
176
     0
 90
        2
176
     1
  1
strokes_ogs.tif
176
     1
290
     0
176
     1
 40
1.0
176
     1
 40
1.0
176
     1
  0
VISUALSTYLE
  5
36
102
{ACAD_REACTORS
330
2A
102
}
330
2A
100
AcDbVisualStyle
  2
Brighten
 70
    12
177
     3
291
     1
 70
    58
 90
        2
176
     1
 90
        2
176
     1
 90
        0
176
     1
 90
        0
176
     1
 40
0.6
176
     1
 40
30.0
176
     1
 62
     7
420
 16777215
176
     1
 90
        1
176
     1
 90
        4
176
     1
 62
     7
176
     1
 62
   257
176
     1
 90
        1
176
     1
 90
        1
176
     1
 40
1.0
176
     1
 90
        8
176
     1
 62
     7
176
     1
 40
1.0
176
     1
 90
        1
176
     1
 90
        6
176
     1
 90
        2
176
     1
 62
     7
176
     1
 90
        5
176
     1
 90
        0
176
     1
 90
        0
176
     1
290
     0
176
     1
 90
        1
176
     1
 40
50.0
176
     1
 90
        0
176
     1
290
     0
176
     1
290
     1
176
     1
290
     1
176
     1
290
     0
176
     1
290
     0
176
     1
290
     0
176
     1
290
     0
176
     1
290
     0
176
     1
290
     0
176
     1
 90
       50
176
     1
 40
0.0
176
     1
 40
1.0
176
     1
 90
        0
176
     1
 62
    18
420
        0
176
     1
 90
       50
176
     1
 90
        3
176
     1
 62
     5
420
      255
176
     1
290
     0
176
     1
 90
       50
176
     1
 90
       50
176
     1
 90
       50
176
     1
290
     0
176
     1
 90
       50
176
     1
 62
   256
176
     0
 40
1.0
176
     0
 90
        2
176
     1
  1
strokes_ogs.tif
176
     1
290
     0
176
     1
 40
1.0
176
     1
 40
1.0
176
     1
  0
VISUALSTYLE
  5
3A
102
{ACAD_REACTORS
330
2A
102
}
330
2A
100
AcDbVisualStyle
  2
ColorChange
 70
    16
177
     3
291
     1
 70
    58
 90
        2
176
     1
 90
        2
176
     1
 90
        3
176
     1
 90
        0
176
     1
 40
0.6
176
     1
 40
30.0
176
     1
 62
     8
420
  8421504
176
     1
 90
        1
176
     1
 90
        4
176
     1
 62
     7
176
     1
 62
   257
176
     1
 90
        1
176
     1
 90
        1
176
     1
 40
1.0
176
     1
 90
        8
176
     1
 62
     8
420
  8421504
176
     1
 40
1.0
176
     1
 90
        1
176
     1
 90
        6
176
     1
 90
        2
176
     1
 62
     7
176
     1
 90
        5
176
     1
 90
        0
176
     1
 90
        0
176
     1
290
     0
176
     1
 90
        1
176
     1
 40
0.0
176
     1
 90
        0
176
     1
290
     0
176
     1
290
     1
176
     1
290
     1
176
     1
290
     0
176
     1
290
     0
176
     1
290
     0
176
     1
290
     0
176
     1
290
     0
176
     1
290
     0
176
     1
 90
       50
176
     1
 40
0.0
176
     1
 40
1.0
176
     1
 90
        0
176
     1
 62
    18
420
        0
176
     1
 90
       50
176
     1
 90
        3
176
     1
 62
     5
420
      255
176
     1
290
     0
176
     1
 90
       50
176
     1
 90
       50
176
     1
 90
       50
176
     1
290
     0
176
     1
 90
       50
176
     1
 62
   256
176
     0
 40
1.0
176
     0
 90
        2
176
     1
  1
strokes_ogs.tif
176
     1
290
     0
176
     1
 40
1.0
176
     1
 40
1.0
176
     1
  0
VISUALSTYLE
  5
34
102
{ACAD_REACTORS
330
2A
102
}
330
2A
100
AcDbVisualStyle
  2
Conceptual
 70
     9
177
     3
291
     0
 70
    58
 90
        3
176
     1
 90
        2
176
     1
 90
        0
176
     1
 90
        0
176
     1
 40
0.6
176
     1
 40
30.0
176
     1
 62
     7
420
 16777215
176
     1
 90
        2
176
     1
 90
        2
176
     1
 62
     7
176
     1
 62
   257
176
     1
 90
        1
176
     1
 90
        1
176
     1
 40
179.0
176
     1
 90
        8
176
     1
 62
     7
176
     1
 40
1.0
176
     1
 90
        1
176
     1
 90
        6
176
     1
 90
        2
176
     1
 62
     7
176
     1
 90
        3
176
     1
 90
        0
176
     1
 90
        0
176
     1
290
     0
176
     1
 90
        1
176
     1
 40
0.0
176
     1
 90
        0
176
     1
290
     0
176
     1
290
     1
176
     1
290
     1
176
     1
290
     0
176
     1
290
     0
176
     1
290
     0
176
     1
290
     0
176
     1
290
     0
176
     1
290
     0
176
     1
 90
       50
176
     1
 40
0.0
176
     1
 40
1.0
176
     1
 90
        0
176
     1
 62
    18
420
        0
176
     1
 90
       50
176
     1
 90
        3
176
     1
 62
     5
420
      255
176
     1
290
     0
176
     1
 90
       50
176
     1
 90
       50
176
     1
 90
       50
176
     1
290
     0
176
     1
 90
       50
176
     1
 62
   256
176
     0
 40
1.0
176
     0
 90
        2
176
     1
  1
strokes_ogs.tif
176
     1
290
     0
176
     1
 40
1.0
176
     1
 40
1.0
176
     1
  0
VISUALSTYLE
  5
35
102
{ACAD_REACTORS
330
2A
102
}
330
2A
100
AcDbVisualStyle
  2
Dim
 70
    11
177
     3
291
     1
 70
    58
 90
        2
176
     1
 90
        2
176
     1
 90
        0
176
     1
 90
        0
176
     1
 40
0.6
176
     1
 40
30.0
176
     1
 62
     7
420
 16777215
176
     1
 90
        1
176
     1
 90
        4
176
     1
 62
     7
176
     1
 62
   257
176
     1
 90
        1
176
     1
 90
        1
176
     1
 40
1.0
176
     1
 90
        8
176
     1
 62
     7
176
     1
 40
1.0
176
     1
 90
        1
176
     1
 90
        6
176
     1
 90
        2
176
     1
 62
     7
176
     1
 90
        5
176
     1
 90
        0
176
     1
 90
        0
176
     1
290
     0
176
     1
 90
        1
176
     1
 40
-50.0
176
     1
 90
        0
176
     1
290
     0
176
     1
290
     1
176
     1
290
     1
176
     1
290
     0
176
     1
290
     0
176
     1
290
     0
176
     1
290
     0
176
     1
290
     0
176
     1
290
     0
176
     1
 90
       50
176
     1
 40
0.0
176
     1
 40
1.0
176
     1
 90
        0
176
     1
 62
    18
420
        0
176
     1
 90
       50
176
     1
 90
        3
176
     1
 62
     5
420
      255
176
     1
290
     0
176
     1
 90
       50
176
     1
 90
       50
176
     1
 90
       50
176
     1
290
     0
176
     1
 90
       50
176
     1
 62
   256
176
     0
 40
1.0
176
     0
 90
        2
176
     1
  1
strokes_ogs.tif
176
     1
290
     0
176
     1
 40
1.0
176
     1
 40
1.0
176
     1
  0
VISUALSTYLE
  5
3D
102
{ACAD_REACTORS
330
2A
102
}
330
2A
100
AcDbVisualStyle
  2
EdgeColorOff
 70
    22
177
     3
291
     1
 70
    58
 90
        2
176
     0
 90
        2
176
     0
 90
        0
176
     0
 90
        0
176
     0
 40
0.6
176
     0
 40
30.0
176
     0
 62
     7
420
 16777215
176
     0
 90
        1
176
     0
 90
        4
176
     0
 62
     7
176
     0
 62
   257
176
     0
 90
        1
176
     0
 90
        1
176
     0
 40
1.0
176
     0
 90
        8
176
     2
 62
     7
176
     0
 40
1.0
176
     0
 90
        1
176
     0
 90
        6
176
     0
 90
        2
176
     0
 62
     7
176
     0
 90
        5
176
     0
 90
        0
176
     0
 90
        0
176
     0
290
     0
176
     0
 90
        1
176
     0
 40
0.0
176
     0
 90
        0
176
     0
290
     0
176
     0
290
     1
176
     0
290
     1
176
     0
290
     0
176
     0
290
     0
176
     0
290
     0
176
     0
290
     0
176
     0
290
     0
176
     0
290
     0
176
     0
 90
       50
176
     0
 40
0.0
176
     0
 40
1.0
176
     0
 90
        0
176
     0
 62
    18
420
        0
176
     0
 90
       50
176
     0
 90
        3
176
     0
 62
     5
420
      255
176
     0
290
     0
176
     0
 90
       50
176
     0
 90
       50
176
     0
 90
       50
176
     0
290
     0
176
     0
 90
       50
176
     0
 62
   256
176
     0
 40
1.0
176
     0
 90
        2
176
     0
  1
strokes_ogs.tif
176
     0
290
     0
176
     0
 40
1.0
176
     0
 40
1.0
176
     0
  0
VISUALSTYLE
  5
39
102
{ACAD_REACTORS
330
2A
102
}
330
2A
100
AcDbVisualStyle
  2
Facepattern
 70
    15
177
     3
291
     1
 70
    58
 90
        2
176
     1
 90
        2
176
     1
 90
        0
176
     1
 90
        0
176
     1
 40
0.6
176
     1
 40
30.0
176
     1
 62
     7
420
 16777215
176
     1
 90
        1
176
     1
 90
        4
176
     1
 62
     7
176
     1
 62
   257
176
     1
 90
        1
176
     1
 90
        1
176
     1
 40
1.0
176
     1
 90
        8
176
     1
 62
     7
176
     1
 40
1.0
176
     1
 90
        1
176
     1
 90
        6
176
     1
 90
        2
176
     1
 62
     7
176
     1
 90
        5
176
     1
 90
        0
176
     1
 90
        0
176
     1
290
     0
176
     1
 90
        1
176
     1
 40
0.0
176
     1
 90
        0
176
     1
290
     0
176
     1
290
     1
176
     1
290
     1
176
     1
290
     0
176
     1
290
     0
176
     1
290
     0
176
     1
290
     0
176
     1
290
     0
176
     1
290
     0
176
     1
 90
       50
176
     1
 40
0.0
176
     1
 40
1.0
176
     1
 90
        0
176
     1
 62
    18
420
        0
176
     1
 90
       50
176
     1
 90
        3
176
     1
 62
     5
420
      255
176
     1
290
     0
176
     1
 90
       50
176
     1
 90
       50
176
     1
 90
       50
176
     1
290
     0
176
     1
 90
       50
176
     1
 62
   256
176
     0
 40
1.0
176
     0
 90
        2
176
     1
  1
strokes_ogs.tif
176
     1
290
     0
176
     1
 40
1.0
176
     1
 40
1.0
176
     1
  0
VISUALSTYLE
  5
2B
102
{ACAD_REACTORS
330
2A
102
}
330
2A
100
AcDbVisualStyle
  2
Flat
 70
     0
177
     3
291
     1
 70
    58
 90
        2
176
     1
 90
        1
176
     1
 90
        1
176
     1
 90
        2
176
     1
 40
0.6
176
     1
 40
30.0
176
     1
 62
     7
420
 16777215
176
     1
 90
        0
176
     1
 90
        0
176
     1
 62
     7
176
     1
 62
   257
176
     1
 90
        1
176
     1
 90
        1
176
     1
 40
1.0
176
     1
 90
        8
176
     1
 62
     7
176
     1
 40
1.0
176
     1
 90
        1
176
     1
 90
        6
176
     1
 90
        2
176
     1
 62
     7
176
     1
 90
        5
176
     1
 90
        0
176
     1
 90
        0
176
     1
290
     0
176
     1
 90
       13
176
     1
 40
0.0
176
     1
 90
        0
176
     1
290
     0
176
     1
290
     1
176
     1
290
     1
176
     1
290
     0
176
     1
290
     0
176
     1
290
     0
176
     1
290
     0
176
     1
290
     0
176
     1
290
     0
176
     1
 90
       50
176
     1
 40
0.0
176
     1
 40
1.0
176
     1
 90
        0
176
     1
 62
    18
420
        0
176
     1
 90
       50
176
     1
 90
        3
176
     1
 62
     5
420
      255
176
     1
290
     0
176
     1
 90
       50
176
     1
 90
       50
176
     1
 90
       50
176
     1
290
     0
176
     1
 90
       50
176
     1
 62
   256
176
     0
 40
1.0
176
     0
 90
        2
176
     1
  1
strokes_ogs.tif
176
     1
290
     0
176
     1
 40
1.0
176
     1
 40
1.0
176
     1
  0
VISUALSTYLE
  5
2C
102
{ACAD_REACTORS
330
2A
102
}
330
2A
100
AcDbVisualStyle
  2
FlatWithEdges
 70
     1
177
     3
291
     1
 70
    58
 90
        2
176
     1
 90
        1
176
     1
 90
        1
176
     1
 90
        2
176
     1
 40
0.6
176
     1
 40
30.0
176
     1
 62
     7
420
 16777215
176
     1
 90
        1
176
     1
 90
        0
176
     1
 62
     7
176
     1
 62
   257
176
     1
 90
        1
176
     1
 90
        1
176
     1
 40
1.0
176
     1
 90
        0
176
     1
 62
   257
176
     1
 40
1.0
176
     1
 90
        1
176
     1
 90
        6
176
     1
 90
        2
176
     1
 62
     7
176
     1
 90
        5
176
     1
 90
        0
176
     1
 90
        0
176
     1
290
     0
176
     1
 90
       13
176
     1
 40
0.0
176
     1
 90
        0
176
     1
290
     0
176
     1
290
     1
176
     1
290
     1
176
     1
290
     0
176
     1
290
     0
176
     1
290
     0
176
     1
290
     0
176
     1
290
     0
176
     1
290
     0
176
     1
 90
       50
176
     1
 40
0.0
176
     1
 40
1.0
176
     1
 90
        0
176
     1
 62
    18
420
        0
176
     1
 90
       50
176
     1
 90
        3
176
     1
 62
     5
420
      255
176
     1
290
     0
176
     1
 90
       50
176
     1
 90
       50
176
     1
 90
       50
176
     1
290
     0
176
     1
 90
       50
176
     1
 62
   256
176
     0
 40
1.0
176
     0
 90
        2
176
     1
  1
strokes_ogs.tif
176
     1
290
     0
176
     1
 40
1.0
176
     1
 40
1.0
176
     1
  0
VISUALSTYLE
  5
2D
102
{ACAD_REACTORS
330
2A
102
}
330
2A
100
AcDbVisualStyle
  2
Gouraud
 70
     2
177
     3
291
     1
 70
    58
 90
        2
176
     1
 90
        2
176
     1
 90
        1
176
     1
 90
        2
176
     1
 40
0.6
176
     1
 40
30.0
176
     1
 62
     7
420
 16777215
176
     1
 90
        0
176
     1
 90
        0
176
     1
 62
     7
176
     1
 62
   257
176
     1
 90
        1
176
     1
 90
        1
176
     1
 40
1.0
176
     1
 90
        0
176
     1
 62
     7
176
     1
 40
1.0
176
     1
 90
        1
176
     1
 90
        6
176
     1
 90
        2
176
     1
 62
     7
176
     1
 90
        5
176
     1
 90
        0
176
     1
 90
        0
176
     1
290
     0
176
     1
 90
       13
176
     1
 40
0.0
176
     1
 90
        0
176
     1
290
     0
176
     1
290
     1
176
     1
290
     1
176
     1
290
     0
176
     1
290
     0
176
     1
290
     0
176
     1
290
     0
176
     1
290
     0
176
     1
290
     0
176
     1
 90
       50
176
     1
 40
0.0
176
     1
 40
1.0
176
     1
 90
        0
176
     1
 62
    18
420
        0
176
     1
 90
       50
176
     1
 90
        3
176
     1
 62
     5
420
      255
176
     1
290
     0
176
     1
 90
       50
176
     1
 90
       50
176
     1
 90
       50
176
     1
290
     0
176
     1
 90
       50
176
     1
 62
   256
176
     0
 40
1.0
176
     0
 90
        2
176
     1
  1
strokes_ogs.tif
176
     1
290
     0
176
     1
 40
1.0
176
     1
 40
1.0
176
     1
  0
VISUALSTYLE
  5
2E
102
{ACAD_REACTORS
330
2A
102
}
330
2A
100
AcDbVisualStyle
  2
GouraudWithEdges
 70
     3
177
     3
291
     1
 70
    58
 90
        2
176
     1
 90
        2
176
     1
 90
        1
176
     1
 90
        2
176
     1
 40
0.6
176
     1
 40
30.0
176
     1
 62
     7
420
 16777215
176
     1
 90
        1
176
     1
 90
        0
176
     1
 62
     7
176
     1
 62
   257
176
     1
 90
        1
176
     1
 90
        1
176
     1
 40
1.0
176
     1
 90
        0
176
     1
 62
   257
176
     1
 40
1.0
176
     1
 90
        1
176
     1
 90
        6
176
     1
 90
        2
176
     1
 62
     7
176
     1
 90
        5
176
     1
 90
        0
176
     1
 90
        0
176
     1
290
     0
176
     1
 90
       13
176
     1
 40
0.0
176
     1
 90
        0
176
     1
290
     0
176
     1
290
     1
176
     1
290
     1
176
     1
290
     0
176
     1
290
     0
176
     1
290
     0
176
     1
290
     0
176
     1
290
     0
176
     1
290
     0
176
     1
 90
       50
176
     1
 40
0.0
176
     1
 40
1.0
176
     1
 90
        0
176
     1
 62
    18
420
        0
176
     1
 90
       50
176
     1
 90
        3
176
     1
 62
     5
420
      255
176
     1
290
     0
176
     1
 90
       50
176
     1
 90
       50
176
     1
 90
       50
176
     1
290
     0
176
     1
 90
       50
176
     1
 62
   256
176
     0
 40
1.0
176
     0
 90
        2
176
     1
  1
strokes_ogs.tif
176
     1
290
     0
176
     1
 40
1.0
176
     1
 40
1.0
176
     1
  0
VISUALSTYLE
  5
31
102
{ACAD_REACTORS
330
2A
102
}
330
2A
100
AcDbVisualStyle
  2
Hidden
 70
     6
177
     3
291
     0
 70
    58
 90
        1
176
     1
 90
        2
176
     1
 90
        2
176
     1
 90
        0
176
     1
 40
0.6
176
     1
 40
30.0
176
     1
 62
     7
420
 16777215
176
     1
 90
        2
176
     1
 90
        2
176
     1
 62
     7
176
     1
 62
   257
176
     1
 90
        2
176
     1
 90
        1
176
     1
 40
40.0
176
     1
 90
        0
176
     1
 62
   257
176
     1
 40
1.0
176
     1
 90
        1
176
     1
 90
        6
176
     1
 90
        2
176
     1
 62
     7
176
     1
 90
        3
176
     1
 90
        0
176
     1
 90
        0
176
     1
290
     0
176
     1
 90
        1
176
     1
 40
0.0
176
     1
 90
        0
176
     1
290
     0
176
     1
290
     1
176
     1
290
     1
176
     1
290
     0
176
     1
290
     0
176
     1
290
     0
176
     1
290
     0
176
     1
290
     0
176
     1
290
     0
176
     1
 90
       50
176
     1
 40
0.0
176
     1
 40
1.0
176
     1
 90
        0
176
     1
 62
    18
420
        0
176
     1
 90
       50
176
     1
 90
        3
176
     1
 62
     5
420
      255
176
     1
290
     0
176
     1
 90
       50
176
     1
 90
       50
176
     1
 90
       50
176
     1
290
     0
176
     1
 90
       50
176
     1
 62
   256
176
     0
 40
1.0
176
     0
 90
        2
176
     1
  1
strokes_ogs.tif
176
     1
290
     0
176
     1
 40
1.0
176
     1
 40
1.0
176
     1
  0
VISUALSTYLE
  5
3B
102
{ACAD_REACTORS
330
2A
102
}
330
2A
100
AcDbVisualStyle
  2
JitterOff
 70
    20
177
     3
291
     1
 70
    58
 90
        2
176
     0
 90
        2
176
     0
 90
        0
176
     0
 90
        0
176
     0
 40
0.6
176
     0
 40
30.0
176
     0
 62
     7
420
 16777215
176
     0
 90
        1
176
     0
 90
        4
176
     0
 62
     7
176
     0
 62
   257
176
     0
 90
        1
176
     0
 90
        1
176
     0
 40
1.0
176
     0
 90
       10
176
     2
 62
     7
176
     0
 40
1.0
176
     0
 90
        1
176
     0
 90
        6
176
     0
 90
        2
176
     0
 62
     7
176
     0
 90
        5
176
     0
 90
        0
176
     0
 90
        0
176
     0
290
     0
176
     0
 90
        1
176
     0
 40
0.0
176
     0
 90
        0
176
     0
290
     0
176
     0
290
     1
176
     0
290
     1
176
     0
290
     0
176
     0
290
     0
176
     0
290
     0
176
     0
290
     0
176
     0
290
     0
176
     0
290
     0
176
     0
 90
       50
176
     0
 40
0.0
176
     0
 40
1.0
176
     0
 90
        0
176
     0
 62
    18
420
        0
176
     0
 90
       50
176
     0
 90
        3
176
     0
 62
     5
420
      255
176
     0
290
     0
176
     0
 90
       50
176
     0
 90
       50
176
     0
 90
       50
176
     0
290
     0
176
     0
 90
       50
176
     0
 62
   256
176
     0
 40
1.0
176
     0
 90
        2
176
     0
  1
strokes_ogs.tif
176
     0
290
     0
176
     0
 40
1.0
176
     0
 40
1.0
176
     0
  0
VISUALSTYLE
  5
38
102
{ACAD_REACTORS
330
2A
102
}
330
2A
100
AcDbVisualStyle
  2
Linepattern
 70
    14
177
     3
291
     1
 70
    58
 90
        2
176
     1
 90
        2
176
     1
 90
        0
176
     1
 90
        0
176
     1
 40
0.6
176
     1
 40
30.0
176
     1
 62
     7
420
 16777215
176
     1
 90
        1
176
     1
 90
        4
176
     1
 62
     7
176
     1
 62
   257
176
     1
 90
        7
176
     1
 90
        7
176
     1
 40
1.0
176
     1
 90
        8
176
     1
 62
     7
176
     1
 40
1.0
176
     1
 90
        1
176
     1
 90
        6
176
     1
 90
        2
176
     1
 62
     7
176
     1
 90
        5
176
     1
 90
        0
176
     1
 90
        0
176
     1
290
     0
176
     1
 90
        1
176
     1
 40
0.0
176
     1
 90
        0
176
     1
290
     0
176
     1
290
     1
176
     1
290
     1
176
     1
290
     0
176
     1
290
     0
176
     1
290
     0
176
     1
290
     0
176
     1
290
     0
176
     1
290
     0
176
     1
 90
       50
176
     1
 40
0.0
176
     1
 40
1.0
176
     1
 90
        0
176
     1
 62
    18
420
        0
176
     1
 90
       50
176
     1
 90
        3
176
     1
 62
     5
420
      255
176
     1
290
     0
176
     1
 90
       50
176
     1
 90
       50
176
     1
 90
       50
176
     1
290
     0
176
     1
 90
       50
176
     1
 62
   256
176
     0
 40
1.0
176
     0
 90
        2
176
     1
  1
strokes_ogs.tif
176
     1
290
     0
176
     1
 40
1.0
176
     1
 40
1.0
176
     1
  0
VISUALSTYLE
  5
3C
102
{ACAD_REACTORS
330
2A
102
}
330
2A
100
AcDbVisualStyle
  2
OverhangOff
 70
    21
177
     3
291
     1
 70
    58
 90
        2
176
     0
 90
        2
176
     0
 90
        0
176
     0
 90
        0
176
     0
 40
0.6
176
     0
 40
30.0
176
     0
 62
     7
420
 16777215
176
     0
 90
        1
176
     0
 90
        4
176
     0
 62
     7
176
     0
 62
   257
176
     0
 90
        1
176
     0
 90
        1
176
     0
 40
1.0
176
     0
 90
        9
176
     2
 62
     7
176
     0
 40
1.0
176
     0
 90
        1
176
     0
 90
        6
176
     0
 90
        2
176
     0
 62
     7
176
     0
 90
        5
176
     0
 90
        0
176
     0
 90
        0
176
     0
290
     0
176
     0
 90
        1
176
     0
 40
0.0
176
     0
 90
        0
176
     0
290
     0
176
     0
290
     1
176
     0
290
     1
176
     0
290
     0
176
     0
290
     0
176
     0
290
     0
176
     0
290
     0
176
     0
290
     0
176
     0
290
     0
176
     0
 90
       50
176
     0
 40
0.0
176
     0
 40
1.0
176
     0
 90
        0
176
     0
 62
    18
420
        0
176
     0
 90
       50
176
     0
 90
        3
176
     0
 62
     5
420
      255
176
     0
290
     0
176
     0
 90
       50
176
     0
 90
       50
176
     0
 90
       50
176
     0
290
     0
176
     0
 90
       50
176
     0
 62
   256
176
     0
 40
1.0
176
     0
 90
        2
176
     0
  1
strokes_ogs.tif
176
     0
290
     0
176
     0
 40
1.0
176
     0
 40
1.0
176
     0
  0
VISUALSTYLE
  5
33
102
{ACAD_REACTORS
330
2A
102
}
330
2A
100
AcDbVisualStyle
  2
Realistic
 70
     8
177
     3
291
     0
 70
    58
 90
        2
176
     1
 90
        3
176
     1
 90
        0
176
     1
 90
        2
176
     1
 40
0.6
176
     1
 40
30.0
176
     1
 62
     7
420
 16777215
176
     1
 90
        0
176
     1
 90
        0
176
     1
 62
     7
176
     1
 62
   257
176
     1
 90
        1
176
     1
 90
        1
176
     1
 40
1.0
176
     1
 90
        8
176
     1
 62
   257
176
     1
 40
1.0
176
     1
 90
        1
176
     1
 90
        6
176
     1
 90
        2
176
     1
 62
     7
176
     1
 90
        3
176
     1
 90
        0
176
     1
 90
        0
176
     1
290
     0
176
     1
 90
       13
176
     1
 40
0.0
176
     1
 90
        0
176
     1
290
     0
176
     1
290
     1
176
     1
290
     1
176
     1
290
     0
176
     1
290
     0
176
     1
290
     0
176
     1
290
     0
176
     1
290
     0
176
     1
290
     0
176
     1
 90
       50
176
     1
 40
0.0
176
     1
 40
1.0
176
     1
 90
        0
176
     1
 62
    18
420
        0
176
     1
 90
       50
176
     1
 90
        3
176
     1
 62
     5
420
      255
176
     1
290
     0
176
     1
 90
       50
176
     1
 90
       50
176
     1
 90
       50
176
     1
290
     0
176
     1
 90
       50
176
     1
 62
   256
176
     0
 40
1.0
176
     0
 90
        2
176
     1
  1
strokes_ogs.tif
176
     1
290
     0
176
     1
 40
1.0
176
     1
 40
1.0
176
     1
  0
VISUALSTYLE
  5
42
102
{ACAD_REACTORS
330
2A
102
}
330
2A
100
AcDbVisualStyle
  2
Shaded
 70
    27
177
     3
291
     0
 70
    58
 90
        2
176
     1
 90
        2
176
     1
 90
        1
176
     1
 90
        2
176
     1
 40
0.6
176
     1
 40
30.0
176
     1
 62
     7
420
 16777215
176
     1
 90
        0
176
     1
 90
        4
176
     1
 62
     7
176
     1
 62
   257
176
     1
 90
        1
176
     1
 90
        1
176
     1
 40
1.0
176
     1
 90
        8
176
     1
 62
   257
176
     1
 40
1.0
176
     1
 90
        1
176
     1
 90
        6
176
     1
 90
        2
176
     1
 62
     8
420
  7895160
176
     1
 90
        3
176
     1
 90
        0
176
     1
 90
        0
176
     1
290
     0
176
     1
 90
        5
176
     1
 40
0.0
176
     1
 90
        0
176
     1
290
     0
176
     1
290
     1
176
     1
290
     1
176
     1
290
     0
176
     1
290
     0
176
     1
290
     0
176
     1
290
     0
176
     1
290
     0
176
     1
290
     0
176
     1
 90
       50
176
     1
 40
0.0
176
     1
 40
1.0
176
     1
 90
        0
176
     1
 62
    18
420
        0
176
     1
 90
       50
176
     1
 90
        3
176
     1
 62
     5
420
      255
176
     1
290
     0
176
     1
 90
       50
176
     1
 90
       50
176
     1
 90
       50
176
     1
290
     0
176
     1
 90
       50
176
     1
 62
   256
176
     0
 40
1.0
176
     0
 90
        2
176
     1
  1
strokes_ogs.tif
176
     1
290
     0
176
     1
 40
1.0
176
     1
 40
1.0
176
     1
  0
VISUALSTYLE
  5
41
102
{ACAD_REACTORS
330
2A
102
}
330
2A
100
AcDbVisualStyle
  2
Shaded with edges
 70
    26
177
     3
291
     0
 70
    58
 90
        2
176
     1
 90
        2
176
     1
 90
        1
176
     1
 90
        2
176
     1
 40
0.6
176
     1
 40
30.0
176
     1
 62
     7
420
 16777215
176
     1
 90
        1
176
     1
 90
       10
176
     1
 62
     7
176
     1
 62
   257
176
     1
 90
        2
176
     1
 90
        1
176
     1
 40
1.0
176
     1
 90
        8
176
     1
 62
   257
176
     1
 40
1.0
176
     1
 90
        1
176
     1
 90
        6
176
     1
 90
        2
176
     1
 62
     7
176
     1
 90
        3
176
     1
 90
        0
176
     1
 90
        0
176
     1
290
     0
176
     1
 90
        5
176
     1
 40
0.0
176
     1
 90
        0
176
     1
290
     0
176
     1
290
     1
176
     1
290
     1
176
     1
290
     0
176
     1
290
     0
176
     1
290
     0
176
     1
290
     0
176
     1
290
     0
176
     1
290
     0
176
     1
 90
       50
176
     1
 40
0.0
176
     1
 40
1.0
176
     1
 90
        0
176
     1
 62
    18
420
        0
176
     1
 90
       50
176
     1
 90
        3
176
     1
 62
     5
420
      255
176
     1
290
     0
176
     1
 90
       50
176
     1
 90
       50
176
     1
 90
       50
176
     1
290
     0
176
     1
 90
       50
176
     1
 62
   256
176
     0
 40
1.0
176
     0
 90
        2
176
     1
  1
strokes_ogs.tif
176
     1
290
     0
176
     1
 40
1.0
176
     1
 40
1.0
176
     1
  0
VISUALSTYLE
  5
3E
102
{ACAD_REACTORS
330
2A
102
}
330
2A
100
AcDbVisualStyle
  2
Shades of Gray
 70
    23
177
     3
291
     0
 70
    58
 90
        2
176
     1
 90
        2
176
     1
 90
        3
176
     1
 90
        0
176
     1
 40
0.6
176
     1
 40
30.0
176
     1
 62
     7
420
 16777215
176
     1
 90
        2
176
     1
 90
        2
176
     1
 62
     7
176
     1
 62
     7
176
     1
 90
        1
176
     1
 90
        1
176
     1
 40
40.0
176
     1
 90
        8
176
     1
 62
     7
176
     1
 40
1.0
176
     1
 90
        1
176
     1
 90
        6
176
     1
 90
        2
176
     1
 62
     7
176
     1
 90
        3
176
     1
 90
        0
176
     1
 90
        0
176
     1
290
     0
176
     1
 90
        1
176
     1
 40
0.0
176
     1
 90
        0
176
     1
290
     0
176
     1
290
     1
176
     1
290
     1
176
     1
290
     0
176
     1
290
     0
176
     1
290
     0
176
     1
290
     0
176
     1
290
     0
176
     1
290
     0
176
     1
 90
       50
176
     1
 40
0.0
176
     1
 40
1.0
176
     1
 90
        0
176
     1
 62
    18
420
        0
176
     1
 90
       50
176
     1
 90
        3
176
     1
 62
     5
420
      255
176
     1
290
     0
176
     1
 90
       50
176
     1
 90
       50
176
     1
 90
       50
176
     1
290
     0
176
     1
 90
       50
176
     1
 62
   256
176
     0
 40
1.0
176
     0
 90
        2
176
     1
  1
strokes_ogs.tif
176
     1
290
     0
176
     1
 40
1.0
176
     1
 40
1.0
176
     1
  0
VISUALSTYLE
  5
3F
102
{ACAD_REACTORS
330
2A
102
}
330
2A
100
AcDbVisualStyle
  2
Sketchy
 70
    24
177
     3
291
     0
 70
    58
 90
        1
176
     1
 90
        2
176
     1
 90
        2
176
     1
 90
        0
176
     1
 40
0.6
176
     1
 40
30.0
176
     1
 62
     7
420
 16777215
176
     1
 90
        2
176
     1
 90
        2
176
     1
 62
     7
176
     1
 62
     7
176
     1
 90
        1
176
     1
 90
        1
176
     1
 40
40.0
176
     1
 90
       11
176
     1
 62
     7
176
     1
 40
1.0
176
     1
 90
        1
176
     1
 90
        6
176
     1
 90
        2
176
     1
 62
     7
176
     1
 90
        6
176
     1
 90
        0
176
     1
 90
        0
176
     1
290
     0
176
     1
 90
        1
176
     1
 40
0.0
176
     1
 90
        0
176
     1
290
     0
176
     1
290
     1
176
     1
290
     1
176
     1
290
     0
176
     1
290
     0
176
     1
290
     0
176
     1
290
     0
176
     1
290
     0
176
     1
290
     0
176
     1
 90
       50
176
     1
 40
0.0
176
     1
 40
1.0
176
     1
 90
        0
176
     1
 62
    18
420
        0
176
     1
 90
       50
176
     1
 90
        3
176
     1
 62
     5
420
      255
176
     1
290
     0
176
     1
 90
       50
176
     1
 90
       50
176
     1
 90
       50
176
     1
290
     0
176
     1
 90
       50
176
     1
 62
   256
176
     0
 40
1.0
176
     0
 90
        2
176
     1
  1
strokes_ogs.tif
176
     1
290
     0
176
     1
 40
1.0
176
     1
 40
1.0
176
     1
  0
VISUALSTYLE
  5
37
102
{ACAD_REACTORS
330
2A
102
}
330
2A
100
AcDbVisualStyle
  2
Thicken
 70
    13
177
     3
291
     1
 70
    58
 90
        2
176
     1
 90
        2
176
     1
 90
        0
176
     1
 90
        0
176
     1
 40
0.6
176
     1
 40
30.0
176
     1
 62
     7
420
 16777215
176
     1
 90
        1
176
     1
 90
        4
176
     1
 62
     7
176
     1
 62
   257
176
     1
 90
        1
176
     1
 90
        1
176
     1
 40
1.0
176
     1
 90
       12
176
     1
 62
     7
176
     1
 40
1.0
176
     1
 90
        1
176
     1
 90
        6
176
     1
 90
        2
176
     1
 62
     7
176
     1
 90
        5
176
     1
 90
        0
176
     1
 90
        0
176
     1
290
     0
176
     1
 90
        1
176
     1
 40
0.0
176
     1
 90
        0
176
     1
290
     0
176
     1
290
     1
176
     1
290
     1
176
     1
290
     0
176
     1
290
     0
176
     1
290
     0
176
     1
290
     0
176
     1
290
     0
176
     1
290
     0
176
     1
 90
       50
176
     1
 40
0.0
176
     1
 40
1.0
176
     1
 90
        0
176
     1
 62
    18
420
        0
176
     1
 90
       50
176
     1
 90
        3
176
     1
 62
     5
420
      255
176
     1
290
     0
176
     1
 90
       50
176
     1
 90
       50
176
     1
 90
       50
176
     1
290
     0
176
     1
 90
       50
176
     1
 62
   256
176
     0
 40
1.0
176
     0
 90
        2
176
     1
  1
strokes_ogs.tif
176
     1
290
     0
176
     1
 40
1.0
176
     1
 40
1.0
176
     1
  0
VISUALSTYLE
  5
30
102
{ACAD_REACTORS
330
2A
102
}
330
2A
100
AcDbVisualStyle
  2
Wireframe
 70
     5
177
     3
291
     0
 70
    58
 90
        0
176
     1
 90
        2
176
     1
 90
        0
176
     1
 90
        0
176
     1
 40
0.6
176
     1
 40
30.0
176
     1
 62
     7
420
 16777215
176
     1
 90
        1
176
     1
 90
        4
176
     1
 62
     7
176
     1
 62
   257
176
     1
 90
        1
176
     1
 90
        1
176
     1
 40
1.0
176
     1
 90
        0
176
     1
 62
   257
176
     1
 40
1.0
176
     1
 90
        1
176
     1
 90
        6
176
     1
 90
        2
176
     1
 62
     7
176
     1
 90
        3
176
     1
 90
        0
176
     1
 90
        0
176
     1
290
     0
176
     1
 90
        1
176
     1
 40
0.0
176
     1
 90
        0
176
     1
290
     0
176
     1
290
     1
176
     1
290
     1
176
     1
290
     0
176
     1
290
     0
176
     1
290
     0
176
     1
290
     0
176
     1
290
     0
176
     1
290
     0
176
     1
 90
       50
176
     1
 40
0.0
176
     1
 40
1.0
176
     1
 90
        0
176
     1
 62
    18
420
        0
176
     1
 90
       50
176
     1
 90
        3
176
     1
 62
     5
420
      255
176
     1
290
     0
176
     1
 90
       50
176
     1
 90
       50
176
     1
 90
       50
176
     1
290
     0
176
     1
 90
       50
176
     1
 62
   256
176
     0
 40
1.0
176
     0
 90
        2
176
     1
  1
strokes_ogs.tif
176
     1
290
     0
176
     1
 40
1.0
176
     1
 40
1.0
176
     1
  0
VISUALSTYLE
  5
40
102
{ACAD_REACTORS
330
2A
102
}
330
2A
100
AcDbVisualStyle
  2
X-Ray
 70
    25
177
     3
291
     0
 70
    58
 90
        2
176
     1
 90
        2
176
     1
 90
        1
176
     1
 90
        1
176
     1
 40
0.5
176
     1
 40
30.0
176
     1
 62
     7
420
 16777215
176
     1
 90
        1
176
     1
 90
        0
176
     1
 62
     7
176
     1
 62
   257
176
     1
 90
        1
176
     1
 90
        1
176
     1
 40
1.0
176
     1
 90
        8
176
     1
 62
     7
176
     1
 40
1.0
176
     1
 90
        1
176
     1
 90
        6
176
     1
 90
        2
176
     1
 62
     7
176
     1
 90
        3
176
     1
 90
        0
176
     1
 90
        0
176
     1
290
     0
176
     1
 90
       13
176
     1
 40
0.0
176
     1
 90
        0
176
     1
290
     0
176
     1
290
     1
176
     1
290
     1
176
     1
290
     0
176
     1
290
     0
176
     1
290
     0
176
     1
290
     0
176
     1
290
     0
176
     1
290
     0
176
     1
 90
       50
176
     1
 40
0.0
176
     1
 40
1.0
176
     1
 90
        0
176
     1
 62
    18
420
        0
176
     1
 90
       50
176
     1
 90
        3
176
     1
 62
     5
420
      255
176
     1
290
     0
176
     1
 90
       50
176
     1
 90
       50
176
     1
 90
       50
176
     1
290
     0
176
     1
 90
       50
176
     1
 62
   256
176
     0
 40
1.0
176
     0
 90
        2
176
     1
  1
strokes_ogs.tif
176
     1
290
     0
176
     1
 40
1.0
176
     1
 40
1.0
176
     1
  0
DICTIONARYVAR
  5
A9
102
{ACAD_REACTORS
330
A8
102
}
330
A8
100
DictionaryVariables
280
     0
  1
1:1
  0
DICTIONARYVAR
  5
AE
102
{ACAD_REACTORS
330
A8
102
}
330
A8
100
DictionaryVariables
280
     0
  1
Standard
  0
DICTIONARYVAR
  5
AD
102
{ACAD_REACTORS
330
A8
102
}
330
A8
100
DictionaryVariables
280
     0
  1
Standard
  0
DICTIONARY
  5
AA
330
5A
100
AcDbDictionary
280
     1
281
     1
  3
ACAD_ROUNDTRIP_2008_TABLESTYLE_CELLSTYLEMAP
360
AB
  0
CELLSTYLEMAP
  5
AB
102
{ACAD_REACTORS
330
AA
102
}
330
AA
100
AcDbCellStyleMap
 90
        3
300
CELLSTYLE
  1
TABLEFORMAT_BEGIN
 90
        5
170
     1
 91
        0
 92
    32768
 62
   257
 93
        1
300
CONTENTFORMAT
  1
CONTENTFORMAT_BEGIN
 90
        0
 91
        0
 92
        4
 93
        0
300

 40
0.0
140
1.0
 94
        5
 62
     0
340
11
144
0.25
309
CONTENTFORMAT_END
171
     1
301
MARGIN
  1
CELLMARGIN_BEGIN
 40
0.06
 40
0.06
 40
0.06
 40
0.06
 40
0.06
 40
0.06
309
CELLMARGIN_END
 94
        6
 95
        1
302
GRIDFORMAT
  1
GRIDFORMAT_BEGIN
 90
        0
 91
        1
 62
     0
 92
       -2
340
14
 93
        0
 40
0.045
309
GRIDFORMAT_END
 95
        2
302
GRIDFORMAT
  1
GRIDFORMAT_BEGIN
 90
        0
 91
        1
 62
     0
 92
       -2
340
14
 93
        0
 40
0.045
309
GRIDFORMAT_END
 95
        4
302
GRIDFORMAT
  1
GRIDFORMAT_BEGIN
 90
        0
 91
        1
 62
     0
 92
       -2
340
14
 93
        0
 40
0.045
309
GRIDFORMAT_END
 95
        8
302
GRIDFORMAT
  1
GRIDFORMAT_BEGIN
 90
        0
 91
        1
 62
     0
 92
       -2
340
14
 93
        0
 40
0.045
309
GRIDFORMAT_END
 95
       16
302
GRIDFORMAT
  1
GRIDFORMAT_BEGIN
 90
        0
 91
        1
 62
     0
 92
       -2
340
14
 93
        0
 40
0.045
309
GRIDFORMAT_END
 95
       32
302
GRIDFORMAT
  1
GRIDFORMAT_BEGIN
 90
        0
 91
        1
 62
     0
 92
       -2
340
14
 93
        0
 40
0.045
309
GRIDFORMAT_END
309
TABLEFORMAT_END
  1
CELLSTYLE_BEGIN
 90
        1
 91
        1
300
_TITLE
309
CELLSTYLE_END
300
CELLSTYLE
  1
TABLEFORMAT_BEGIN
 90
        5
170
     1
 91
        0
 92
        0
 62
   257
 93
        1
300
CONTENTFORMAT
  1
CONTENTFORMAT_BEGIN
 90
        0
 91
        0
 92
        4
 93
        0
300

 40
0.0
140
1.0
 94
        5
 62
     0
340
11
144
0.18
309
CONTENTFORMAT_END
171
     1
301
MARGIN
  1
CELLMARGIN_BEGIN
 40
0.06
 40
0.06
 40
0.06
 40
0.06
 40
0.06
 40
0.06
309
CELLMARGIN_END
 94
        6
 95
        1
302
GRIDFORMAT
  1
GRIDFORMAT_BEGIN
 90
        0
 91
        1
 62
     0
 92
       -2
340
14
 93
        0
 40
0.045
309
GRIDFORMAT_END
 95
        2
302
GRIDFORMAT
  1
GRIDFORMAT_BEGIN
 90
        0
 91
        1
 62
     0
 92
       -2
340
14
 93
        0
 40
0.045
309
GRIDFORMAT_END
 95
        4
302
GRIDFORMAT
  1
GRIDFORMAT_BEGIN
 90
        0
 91
        1
 62
     0
 92
       -2
340
14
 93
        0
 40
0.045
309
GRIDFORMAT_END
 95
        8
302
GRIDFORMAT
  1
GRIDFORMAT_BEGIN
 90
        0
 91
        1
 62
     0
 92
       -2
340
14
 93
        0
 40
0.045
309
GRIDFORMAT_END
 95
       16
302
GRIDFORMAT
  1
GRIDFORMAT_BEGIN
 90
        0
 91
        1
 62
     0
 92
       -2
340
14
 93
        0
 40
0.045
309
GRIDFORMAT_END
 95
       32
302
GRIDFORMAT
  1
GRIDFORMAT_BEGIN
 90
        0
 91
        1
 62
     0
 92
       -2
340
14
 93
        0
 40
0.045
309
GRIDFORMAT_END
309
TABLEFORMAT_END
  1
CELLSTYLE_BEGIN
 90
        2
 91
        1
300
_HEADER
309
CELLSTYLE_END
300
CELLSTYLE
  1
TABLEFORMAT_BEGIN
 90
        5
170
     1
 91
        0
 92
        0
 62
   257
 93
        1
300
CONTENTFORMAT
  1
CONTENTFORMAT_BEGIN
 90
        0
 91
        0
 92
        4
 93
        0
300

 40
0.0
140
1.0
 94
        2
 62
     0
340
11
144
0.18
309
CONTENTFORMAT_END
171
     1
301
MARGIN
  1
CELLMARGIN_BEGIN
 40
0.06
 40
0.06
 40
0.06
 40
0.06
 40
0.06
 40
0.06
309
CELLMARGIN_END
 94
        6
 95
        1
302
GRIDFORMAT
  1
GRIDFORMAT_BEGIN
 90
        0
 91
        1
 62
     0
 92
       -2
340
14
 93
        0
 40
0.045
309
GRIDFORMAT_END
 95
        2
302
GRIDFORMAT
  1
GRIDFORMAT_BEGIN
 90
        0
 91
        1
 62
     0
 92
       -2
340
14
 93
        0
 40
0.045
309
GRIDFORMAT_END
 95
        4
302
GRIDFORMAT
  1
GRIDFORMAT_BEGIN
 90
        0
 91
        1
 62
     0
 92
       -2
340
14
 93
        0
 40
0.045
309
GRIDFORMAT_END
 95
        8
302
GRIDFORMAT
  1
GRIDFORMAT_BEGIN
 90
        0
 91
        1
 62
     0
 92
       -2
340
14
 93
        0
 40
0.045
309
GRIDFORMAT_END
 95
       16
302
GRIDFORMAT
  1
GRIDFORMAT_BEGIN
 90
        0
 91
        1
 62
     0
 92
       -2
340
14
 93
        0
 40
0.045
309
GRIDFORMAT_END
 95
       32
302
GRIDFORMAT
  1
GRIDFORMAT_BEGIN
 90
        0
 91
        1
 62
     0
 92
       -2
340
14
 93
        0
 40
0.045
309
GRIDFORMAT_END
309
TABLEFORMAT_END
  1
CELLSTYLE_BEGIN
 90
        3
 91
        2
300
_DATA
309
CELLSTYLE_END
  0
ENDSEC
  0
EOF
