  0
SECTION
  2
HEADER
  9
$ACADVER
  1
AC1032
  9
$ACADMAINTVER
 90
       55
  9
$DWGCODEPAGE
  3
ANSI_1251
  9
$LASTSAVEDBY
  1
torde
  9
$REQUIREDVERSIONS
160
                 0
  9
$INSBASE
 10
0.0
 20
0.0
 30
0.0
  9
$EXTMIN
 10
-68.11
 20
-80.01
 30
0.0
  9
$EXTMAX
 10
68.11
 20
80.01
 30
0.0
  9
$LIMMIN
 10
0.0
 20
0.0
  9
$LIMMAX
 10
12.0
 20
9.0
  9
$ORTHOMODE
 70
     0
  9
$REGENMODE
 70
     1
  9
$FILLMODE
 70
     1
  9
$QTEXTMODE
 70
     0
  9
$MIRRTEXT
 70
     1
  9
$LTSCALE
 40
1.0
  9
$ATTMODE
 70
     1
  9
$TEXTSIZE
 40
0.2
  9
$TRACEWID
 40
0.05
  9
$TEXTSTYLE
  7
Standard
  9
$CLAYER
  8
0
  9
$CELTYPE
  6
ByLayer
  9
$CECOLOR
 62
   256
  9
$CELTSCALE
 40
1.0
  9
$DISPSILH
 70
     0
  9
$DIMSCALE
 40
1.0
  9
$DIMASZ
 40
0.18
  9
$DIMEXO
 40
0.0625
  9
$DIMDLI
 40
0.38
  9
$DIMRND
 40
0.0
  9
$DIMDLE
 40
0.0
  9
$DIMEXE
 40
0.18
  9
$DIMTP
 40
0.0
  9
$DIMTM
 40
0.0
  9
$DIMTXT
 40
0.18
  9
$DIMCEN
 40
0.09
  9
$DIMTSZ
 40
0.0
  9
$DIMTOL
 70
     0
  9
$DIMLIM
 70
     0
  9
$DIMTIH
 70
     1
  9
$DIMTOH
 70
     1
  9
$DIMSE1
 70
     0
  9
$DIMSE2
 70
     0
  9
$DIMTAD
 70
     0
  9
$DIMZIN
 70
     0
  9
$DIMBLK
  1

  9
$DIMASO
 70
     1
  9
$DIMSHO
 70
     1
  9
$DIMPOST
  1

  9
$DIMAPOST
  1

  9
$DIMALT
 70
     0
  9
$DIMALTD
 70
     2
  9
$DIMALTF
 40
25.4
  9
$DIMLFAC
 40
1.0
  9
$DIMTOFL
 70
     0
  9
$DIMTVP
 40
0.0
  9
$DIMTIX
 70
     0
  9
$DIMSOXD
 70
     0
  9
$DIMSAH
 70
     0
  9
$DIMBLK1
  1

  9
$DIMBLK2
  1

  9
$DIMSTYLE
  2
Standard
  9
$DIMCLRD
 70
     0
  9
$DIMCLRE
 70
     0
  9
$DIMCLRT
 70
     0
  9
$DIMTFAC
 40
1.0
  9
$DIMGAP
 40
0.09
  9
$DIMJUST
 70
     0
  9
$DIMSD1
 70
     0
  9
$DIMSD2
 70
     0
  9
$DIMTOLJ
 70
     1
  9
$DIMTZIN
 70
     0
  9
$DIMALTZ
 70
     0
  9
$DIMALTTZ
 70
     0
  9
$DIMUPT
 70
     0
  9
$DIMDEC
 70
     4
  9
$DIMTDEC
 70
     4
  9
$DIMALTU
 70
     2
  9
$DIMALTTD
 70
     2
  9
$DIMTXSTY
  7
Standard
  9
$DIMAUNIT
 70
     0
  9
$DIMADEC
 70
     0
  9
$DIMALTRND
 40
0.0
  9
$DIMAZIN
 70
     0
  9
$DIMDSEP
 70
    46
  9
$DIMATFIT
 70
     3
  9
$DIMFRAC
 70
     0
  9
$DIMLDRBLK
  1

  9
$DIMLUNIT
 70
     2
  9
$DIMLWD
 70
    -2
  9
$DIMLWE
 70
    -2
  9
$DIMTMOVE
 70
     0
  9
$DIMFXL
 40
1.0
  9
$DIMFXLON
 70
     0
  9
$DIMJOGANG
 40
0.7853981633974483
  9
$DIMTFILL
 70
     0
  9
$DIMTFILLCLR
 70
     0
  9
$DIMARCSYM
 70
     0
  9
$DIMLTYPE
  6

  9
$DIMLTEX1
  6

  9
$DIMLTEX2
  6

  9
$DIMTXTDIRECTION
 70
     0
  9
$LUNITS
 70
     2
  9
$LUPREC
 70
     4
  9
$SKETCHINC
 40
0.1
  9
$FILLETRAD
 40
0.0
  9
$AUNITS
 70
     0
  9
$AUPREC
 70
     0
  9
$MENU
  1
.
  9
$ELEVATION
 40
0.0
  9
$PELEVATION
 40
0.0
  9
$THICKNESS
 40
0.0
  9
$LIMCHECK
 70
     0
  9
$CHAMFERA
 40
0.0
  9
$CHAMFERB
 40
0.0
  9
$CHAMFERC
 40
0.0
  9
$CHAMFERD
 40
0.0
  9
$SKPOLY
 70
     0
  9
$TDCREATE
 40
2461096.631028356
  9
$TDUCREATE
 40
2461096.506028356
  9
$TDUPDATE
 40
2461096.631028356
  9
$TDUUPDATE
 40
2461096.506028356
  9
$TDINDWG
 40
0.0000000116
  9
$TDUSRTIMER
 40
0.0000000116
  9
$USRTIMER
 70
     1
  9
$ANGBASE
 50
0.0
  9
$ANGDIR
 70
     0
  9
$PDMODE
 70
     0
  9
$PDSIZE
 40
0.0
  9
$PLINEWID
 40
0.0
  9
$SPLFRAME
 70
     0
  9
$SPLINETYPE
 70
     6
  9
$SPLINESEGS
 70
     8
  9
$HANDSEED
  5
AA
  9
$SURFTAB1
 70
     6
  9
$SURFTAB2
 70
     6
  9
$SURFTYPE
 70
     6
  9
$SURFU
 70
     6
  9
$SURFV
 70
     6
  9
$UCSBASE
  2

  9
$UCSNAME
  2

  9
$UCSORG
 10
0.0
 20
0.0
 30
0.0
  9
$UCSXDIR
 10
1.0
 20
0.0
 30
0.0
  9
$UCSYDIR
 10
0.0
 20
1.0
 30
0.0
  9
$UCSORTHOREF
  2

  9
$UCSORTHOVIEW
 70
     0
  9
$UCSORGTOP
 10
0.0
 20
0.0
 30
0.0
  9
$UCSORGBOTTOM
 10
0.0
 20
0.0
 30
0.0
  9
$UCSORGLEFT
 10
0.0
 20
0.0
 30
0.0
  9
$UCSORGRIGHT
 10
0.0
 20
0.0
 30
0.0
  9
$UCSORGFRONT
 10
0.0
 20
0.0
 30
0.0
  9
$UCSORGBACK
 10
0.0
 20
0.0
 30
0.0
  9
$PUCSBASE
  2

  9
$PUCSNAME
  2

  9
$PUCSORG
 10
0.0
 20
0.0
 30
0.0
  9
$PUCSXDIR
 10
1.0
 20
0.0
 30
0.0
  9
$PUCSYDIR
 10
0.0
 20
1.0
 30
0.0
  9
$PUCSORTHOREF
  2

  9
$PUCSORTHOVIEW
 70
     0
  9
$PUCSORGTOP
 10
0.0
 20
0.0
 30
0.0
  9
$PUCSORGBOTTOM
 10
0.0
 20
0.0
 30
0.0
  9
$PUCSORGLEFT
 10
0.0
 20
0.0
 30
0.0
  9
$PUCSORGRIGHT
 10
0.0
 20
0.0
 30
0.0
  9
$PUCSORGFRONT
 10
0.0
 20
0.0
 30
0.0
  9
$PUCSORGBACK
 10
0.0
 20
0.0
 30
0.0
  9
$USERI1
 70
     0
  9
$USERI2
 70
     0
  9
$USERI3
 70
     0
  9
$USERI4
 70
     0
  9
$USERI5
 70
     0
  9
$USERR1
 40
0.0
  9
$USERR2
 40
0.0
  9
$USERR3
 40
0.0
  9
$USERR4
 40
0.0
  9
$USERR5
 40
0.0
  9
$WORLDVIEW
 70
     1
  9
$SHADEDGE
 70
     3
  9
$SHADEDIF
 70
    70
  9
$TILEMODE
 70
     1
  9
$MAXACTVP
 70
    64
  9
$PINSBASE
 10
0.0
 20
0.0
 30
0.0
  9
$PLIMCHECK
 70
     0
  9
$PEXTMIN
 10
1.000000000000000E+20
 20
1.000000000000000E+20
 30
1.000000000000000E+20
  9
$PEXTMAX
 10
-1.000000000000000E+20
 20
-1.000000000000000E+20
 30
-1.000000000000000E+20
  9
$PLIMMIN
 10
0.0
 20
0.0
  9
$PLIMMAX
 10
12.0
 20
9.0
  9
$UNITMODE
 70
     0
  9
$VISRETAIN
 70
     1
  9
$PLINEGEN
 70
     0
  9
$PSLTSCALE
 70
     1
  9
$TREEDEPTH
 70
  3020
  9
$CMLSTYLE
  2
Standard
  9
$CMLJUST
 70
     0
  9
$CMLSCALE
 40
1.0
  9
$PROXYGRAPHICS
 70
     1
  9
$MEASUREMENT
 70
     0
  9
$CELWEIGHT
370
    -1
  9
$ENDCAPS
280
     0
  9
$JOINSTYLE
280
     0
  9
$LWDISPLAY
290
     0
  9
$INSUNITS
 70
     5
  9
$HYPERLINKBASE
  1

  9
$STYLESHEET
  1

  9
$XEDIT
290
     1
  9
$CEPSNTYPE
380
     0
  9
$PSTYLEMODE
290
     1
  9
$FINGERPRINTGUID
  2
{5e9b08b5-edd6-453d-9972-f0de6aadc8d1}
  9
$VERSIONGUID
  2
{FAEB1C32-E019-11D5-929B-00C0DF256EC4}
  9
$EXTNAMES
290
     1
  9
$PSVPSCALE
 40
0.0
  9
$OLESTARTUP
290
     0
  9
$SORTENTS
280
   127
  9
$INDEXCTL
280
     0
  9
$HIDETEXT
280
     1
  9
$XCLIPFRAME
280
     2
  9
$HALOGAP
280
     0
  9
$OBSCOLOR
 70
   257
  9
$OBSLTYPE
280
     0
  9
$INTERSECTIONDISPLAY
280
     0
  9
$INTERSECTIONCOLOR
 70
   257
  9
$DIMASSOC
280
     2
  9
$PROJECTNAME
  1

  9
$CAMERADISPLAY
290
     0
  9
$LENSLENGTH
 40
50.0
  9
$CAMERAHEIGHT
 40
0.0
  9
$STEPSPERSEC
 40
2.0
  9
$STEPSIZE
 40
6.0
  9
$3DDWFPREC
 40
2.0
  9
$PSOLWIDTH
 40
0.25
  9
$PSOLHEIGHT
 40
4.0
  9
$LOFTANG1
 40
1.570796326794897
  9
$LOFTANG2
 40
1.570796326794897
  9
$LOFTMAG1
 40
0.0
  9
$LOFTMAG2
 40
0.0
  9
$LOFTPARAM
 70
     7
  9
$LOFTNORMALS
280
     1
  9
$LATITUDE
 40
37.795
  9
$LONGITUDE
 40
-122.394
  9
$NORTHDIRECTION
 40
0.0
  9
$TIMEZONE
 70
 -8000
  9
$LIGHTGLYPHDISPLAY
280
     1
  9
$TILEMODELIGHTSYNCH
280
     1
  9
$CMATERIAL
347
44
  9
$SOLIDHIST
280
     0
  9
$SHOWHIST
280
     1
  9
$DWFFRAME
280
     2
  9
$DGNFRAME
280
     2
  9
$REALWORLDSCALE
290
     1
  9
$INTERFERECOLOR
 62
   256
  9
$CSHADOW
280
     0
  9
$SHADOWPLANELOCATION
 40
0.0
  0
ENDSEC
  0
SECTION
  2
CLASSES
  0
CLASS
  1
ACDBDICTIONARYWDFLT
  2
AcDbDictionaryWithDefault
  3
ObjectDBX Classes
 90
        0
 91
        3
280
     0
281
     0
  0
CLASS
  1
VISUALSTYLE
  2
AcDbVisualStyle
  3
ObjectDBX Classes
 90
     4095
 91
        3
280
     0
281
     0
  0
CLASS
  1
MATERIAL
  2
AcDbMaterial
  3
ObjectDBX Classes
 90
     1153
 91
        3
280
     0
281
     0
  0
CLASS
  1
SCALE
  2
AcDbScale
  3
ObjectDBX Classes
 90
     1153
 91
        3
280
     0
281
     0
  0
CLASS
  1
TABLESTYLE
  2
AcDbTableStyle
  3
ObjectDBX Classes
 90
     4095
 91
        3
280
     0
281
     0
  0
CLASS
  1
MLEADERSTYLE
  2
AcDbMLeaderStyle
  3
ACDB_MLEADERSTYLE_CLASS
 90
     4095
 91
        3
280
     0
281
     0
  0
CLASS
  1
SUN
  2
AcDbSun
  3
SCENEOE
 90
     1153
 91
        3
280
     0
281
     0
  0
CLASS
  1
DICTIONARYVAR
  2
AcDbDictionaryVar
  3
ObjectDBX Classes
 90
        0
 91
        3
280
     0
281
     0
  0
CLASS
  1
CELLSTYLEMAP
  2
AcDbCellStyleMap
  3
ObjectDBX Classes
 90
     1152
 91
        3
280
     0
281
     0
  0
ENDSEC
  0
SECTION
  2
TABLES
  0
TABLE
  2
VPORT
  5
8
330
0
100
AcDbSymbolTable
 70
     1
  0
VPORT
  5
29
330
8
100
AcDbSymbolTableRecord
100
AcDbViewportTableRecord
  2
*Active
 70
     0
 10
0.0
 20
0.0
 11
1.0
 21
1.0
 12
10.42990654205607
 22
4.5
 13
0.0
 23
0.0
 14
0.5
 24
0.5
 15
0.5
 25
0.5
 16
0.0
 26
0.0
 36
1.0
 17
0.0
 27
0.0
 37
0.0
 40
9.0
 41
1.972972972850329
 42
50.0
 43
0.0
 44
0.0
 50
0.0
 51
0.0
 71
     0
 72
   100
 73
     1
 74
     3
 75
     0
 76
     0
 77
     0
 78
     0
281
     0
 65
     1
110
0.0
120
0.0
130
0.0
111
1.0
121
0.0
131
0.0
112
0.0
122
1.0
132
0.0
 79
     0
146
0.0
348
2F
 60
     3
 61
     5
292
     1
282
     1
141
0.0
142
0.0
 63
   250
361
5D
  0
ENDTAB
  0
TABLE
  2
LTYPE
  5
5
330
0
100
AcDbSymbolTable
 70
     1
  0
LTYPE
  5
14
330
5
100
AcDbSymbolTableRecord
100
AcDbLinetypeTableRecord
  2
ByBlock
 70
     0
  3

 72
    65
 73
     0
 40
0.0
  0
LTYPE
  5
15
330
5
100
AcDbSymbolTableRecord
100
AcDbLinetypeTableRecord
  2
ByLayer
 70
     0
  3

 72
    65
 73
     0
 40
0.0
  0
LTYPE
  5
16
330
5
100
AcDbSymbolTableRecord
100
AcDbLinetypeTableRecord
  2
Continuous
 70
     0
  3
Solid line
 72
    65
 73
     0
 40
0.0
  0
ENDTAB
  0
TABLE
  2
LAYER
  5
2
330
0
100
AcDbSymbolTable
 70
     2
  0
LAYER
  5
10
330
2
100
AcDbSymbolTableRecord
100
AcDbLayerTableRecord
  2
0
 70
     0
 62
     7
  6
Continuous
370
    -3
390
F
347
46
348
0
  0
LAYER
  5
5F
330
2
100
AcDbSymbolTableRecord
100
AcDbLayerTableRecord
  2
Camada 1
 70
     0
 62
     7
  6
Continuous
370
    -3
390
F
347
46
348
0
  0
ENDTAB
  0
TABLE
  2
STYLE
  5
3
330
0
100
AcDbSymbolTable
 70
     1
  0
STYLE
  5
11
330
3
100
AcDbSymbolTableRecord
100
AcDbTextStyleTableRecord
  2
Standard
 70
     0
 40
0.0
 41
1.0
 50
0.0
 71
     0
 42
0.2
  3
txt
  4

  0
ENDTAB
  0
TABLE
  2
VIEW
  5
6
330
0
100
AcDbSymbolTable
 70
     0
  0
ENDTAB
  0
TABLE
  2
UCS
  5
7
330
0
100
AcDbSymbolTable
 70
     0
  0
ENDTAB
  0
TABLE
  2
APPID
  5
9
330
0
100
AcDbSymbolTable
 70
     2
  0
APPID
  5
12
330
9
100
AcDbSymbolTableRecord
100
AcDbRegAppTableRecord
  2
ACAD
 70
     0
  0
APPID
  5
5E
330
9
100
AcDbSymbolTableRecord
100
AcDbRegAppTableRecord
  2
ODA
 70
     0
  0
ENDTAB
  0
TABLE
  2
DIMSTYLE
  5
A
330
0
100
AcDbSymbolTable
 70
     1
100
AcDbDimStyleTable
  0
DIMSTYLE
105
27
330
A
100
AcDbSymbolTableRecord
100
AcDbDimStyleTableRecord
  2
Standard
 70
     0
178
     0
340
11
  0
ENDTAB
  0
TABLE
  2
BLOCK_RECORD
  5
1
330
0
100
AcDbSymbolTable
 70
     1
  0
BLOCK_RECORD
  5
1F
330
1
100
AcDbSymbolTableRecord
100
AcDbBlockTableRecord
  2
*Model_Space
340
22
 70
     0
280
     1
281
     0
  0
BLOCK_RECORD
  5
1B
330
1
100
AcDbSymbolTableRecord
100
AcDbBlockTableRecord
  2
*Paper_Space
340
1E
 70
     0
280
     1
281
     0
  0
BLOCK_RECORD
  5
23
330
1
100
AcDbSymbolTableRecord
100
AcDbBlockTableRecord
  2
*Paper_Space0
340
26
 70
     0
280
     1
281
     0
  0
ENDTAB
  0
ENDSEC
  0
SECTION
  2
BLOCKS
  0
BLOCK
  5
20
330
1F
100
AcDbEntity
  8
0
100
AcDbBlockBegin
  2
*Model_Space
 70
     0
 10
0.0
 20
0.0
 30
0.0
  3
*Model_Space
  1

  0
ENDBLK
  5
21
330
1F
100
AcDbEntity
  8
0
100
AcDbBlockEnd
  0
BLOCK
  5
1C
330
1B
100
AcDbEntity
 67
     1
  8
0
100
AcDbBlockBegin
  2
*Paper_Space
 70
     0
 10
0.0
 20
0.0
 30
0.0
  3
*Paper_Space
  1

  0
ENDBLK
  5
1D
330
1B
100
AcDbEntity
 67
     1
  8
0
100
AcDbBlockEnd
  0
BLOCK
  5
24
330
23
100
AcDbEntity
  8
0
100
AcDbBlockBegin
  2
*Paper_Space0
 70
     0
 10
0.0
 20
0.0
 30
0.0
  3
*Paper_Space0
  1

  0
ENDBLK
  5
25
330
23
100
AcDbEntity
  8
0
100
AcDbBlockEnd
  0
ENDSEC
  0
SECTION
  2
ENTITIES
  0
SPLINE
  5
60
330
1F
100
AcDbEntity
  8
Camada 1
 62
   250
370
    20
100
AcDbSpline
210
0.0
220
0.0
230
1.0
 70
    11
 71
     3
 72
    23
 73
    19
 74
     0
 42
0.0000000001
 43
0.0000000001
 40
0.0
 40
0.0
 40
0.0
 40
0.0
 40
0.1666666666666667
 40
0.1666666666666667
 40
0.1666666666666667
 40
0.3333333333333333
 40
0.3333333333333333
 40
0.3333333333333333
 40
0.5
 40
0.5
 40
0.5
 40
0.6666666666666666
 40
0.6666666666666666
 40
0.6666666666666666
 40
0.8333333333333333
 40
0.8333333333333333
 40
0.8333333333333333
 40
1.0
 40
1.0
 40
1.0
 40
1.0
 10
-47.64682
 20
30.00601
 30
0.0
 10
-45.21399
 20
32.62675
 30
0.0
 10
-43.23014
 20
33.71262
 30
0.0
 10
-40.16043
 20
32.81466
 30
0.0
 10
-36.77145
 20
31.8233
 30
0.0
 10
-34.82556
 20
28.26826
 30
0.0
 10
-35.8169
 20
24.8793
 30
0.0
 10
-37.61283
 20
18.73984
 30
0.0
 10
-44.93422
 20
16.49529
 30
0.0
 10
-52.86958
 20
12.15177
 30
0.0
 10
-57.21309
 20
20.08713
 30
0.0
 10
-62.17062
 20
25.92354
 30
0.0
 10
-60.37468
 20
32.063
 30
0.0
 10
-59.38334
 20
35.45197
 30
0.0
 10
-55.82829
 20
37.39786
 30
0.0
 10
-52.4393
 20
36.40651
 30
0.0
 10
-49.36959
 20
35.50854
 30
0.0
 10
-48.2837
 20
33.52471
 30
0.0
 10
-47.64682
 20
30.00601
 30
0.0
  0
SPLINE
  5
61
330
1F
100
AcDbEntity
  8
Camada 1
 62
   250
370
    20
100
AcDbSpline
210
0.0
220
0.0
230
1.0
 70
    11
 71
     3
 72
    14
 73
    10
 74
     0
 42
0.0000000001
 43
0.0000000001
 40
0.0
 40
0.0
 40
0.0
 40
0.0
 40
0.3333333333333333
 40
0.3333333333333333
 40
0.3333333333333333
 40
0.6666666666666666
 40
0.6666666666666666
 40
0.6666666666666666
 40
1.0
 40
1.0
 40
1.0
 40
1.0
 10
-55.9724
 20
10.0938
 30
0.0
 10
-57.86935
 20
13.37941
 30
0.0
 10
-59.76849
 20
16.43641
 30
0.0
 10
-61.42347
 20
19.34466
 30
0.0
 10
-61.42347
 20
19.34466
 30
0.0
 10
-61.42347
 20
10.0938
 30
0.0
 10
-61.42347
 20
10.0938
 30
0.0
 10
-61.42347
 20
10.0938
 30
0.0
 10
-55.9724
 20
10.0938
 30
0.0
 10
-55.9724
 20
10.0938
 30
0.0
  0
SPLINE
  5
62
330
1F
100
AcDbEntity
  8
Camada 1
 62
   250
370
    20
100
AcDbSpline
210
0.0
220
0.0
230
1.0
 70
    11
 71
     3
 72
    23
 73
    19
 74
     0
 42
0.0000000001
 43
0.0000000001
 40
0.0
 40
0.0
 40
0.0
 40
0.0
 40
0.1666666666666667
 40
0.1666666666666667
 40
0.1666666666666667
 40
0.3333333333333333
 40
0.3333333333333333
 40
0.3333333333333333
 40
0.5
 40
0.5
 40
0.5
 40
0.6666666666666666
 40
0.6666666666666666
 40
0.6666666666666666
 40
0.8333333333333333
 40
0.8333333333333333
 40
0.8333333333333333
 40
1.0
 40
1.0
 40
1.0
 40
1.0
 10
-45.2602
 20
51.22169
 30
0.0
 10
-45.14103
 20
53.38786
 30
0.0
 10
-44.63629
 20
54.66372
 30
0.0
 10
-42.8557
 20
55.43485
 30
0.0
 10
-40.88991
 20
56.28617
 30
0.0
 10
-38.60357
 20
55.3817
 30
0.0
 10
-37.75224
 20
53.41593
 30
0.0
 10
-36.20996
 20
49.85473
 30
0.0
 10
-38.75617
 20
45.96877
 30
0.0
 10
-40.7751
 20
40.86532
 30
0.0
 10
-45.87854
 20
42.88424
 30
0.0
 10
-50.45475
 20
43.68566
 30
0.0
 10
-51.99702
 20
47.24686
 30
0.0
 10
-52.84834
 20
49.21264
 30
0.0
 10
-51.94386
 20
51.49899
 30
0.0
 10
-49.97808
 20
52.35032
 30
0.0
 10
-48.19748
 20
53.12145
 30
0.0
 10
-46.92162
 20
52.61673
 30
0.0
 10
-45.2602
 20
51.22169
 30
0.0
  0
SPLINE
  5
63
330
1F
100
AcDbEntity
  8
Camada 1
 62
   250
370
    20
100
AcDbSpline
210
0.0
220
0.0
230
1.0
 70
    11
 71
     3
 72
    14
 73
    10
 74
     0
 42
0.0000000001
 43
0.0000000001
 40
0.0
 40
0.0
 40
0.0
 40
0.0
 40
0.3333333333333333
 40
0.3333333333333333
 40
0.3333333333333333
 40
0.6666666666666666
 40
0.6666666666666666
 40
0.6666666666666666
 40
1.0
 40
1.0
 40
1.0
 40
1.0
 10
-41.52892
 20
38.74023
 30
0.0
 10
-44.00099
 20
39.65089
 30
0.0
 10
-46.35617
 20
40.42296
 30
0.0
 10
-48.46769
 20
41.25685
 30
0.0
 10
-47.36532
 20
39.64289
 30
0.0
 10
-46.71221
 20
37.53792
 30
0.0
 10
-46.22727
 20
34.85878
 30
0.0
 10
-44.5951
 20
36.61703
 30
0.0
 10
-43.09321
 20
37.9294
 30
0.0
 10
-41.52892
 20
38.74023
 30
0.0
  0
SPLINE
  5
64
330
1F
100
AcDbEntity
  8
Camada 1
 62
   250
370
    20
100
AcDbSpline
210
0.0
220
0.0
230
1.0
 70
    11
 71
     3
 72
    23
 73
    19
 74
     0
 42
0.0000000001
 43
0.0000000001
 40
0.0
 40
0.0
 40
0.0
 40
0.0
 40
0.1666666666666667
 40
0.1666666666666667
 40
0.1666666666666667
 40
0.3333333333333333
 40
0.3333333333333333
 40
0.3333333333333333
 40
0.5
 40
0.5
 40
0.5
 40
0.6666666666666666
 40
0.6666666666666666
 40
0.6666666666666666
 40
0.8333333333333333
 40
0.8333333333333333
 40
0.8333333333333333
 40
1.0
 40
1.0
 40
1.0
 40
1.0
 10
-52.00705
 20
66.59514
 30
0.0
 10
-50.8288
 20
68.18479
 30
0.0
 10
-49.80392
 20
68.90293
 30
0.0
 10
-48.06092
 20
68.59619
 30
0.0
 10
-46.13661
 20
68.25754
 30
0.0
 10
-44.84972
 20
66.42098
 30
0.0
 10
-45.18835
 20
64.49669
 30
0.0
 10
-45.80181
 20
61.01065
 30
0.0
 10
-49.6916
 20
59.32989
 30
0.0
 10
-53.7911
 20
56.45734
 30
0.0
 10
-56.66365
 20
60.55683
 30
0.0
 10
-59.74597
 20
63.46453
 30
0.0
 10
-59.13249
 20
66.95058
 30
0.0
 10
-58.79384
 20
68.87486
 30
0.0
 10
-56.95726
 20
70.16177
 30
0.0
 10
-55.03298
 20
69.82313
 30
0.0
 10
-53.28995
 20
69.51638
 30
0.0
 10
-52.5718
 20
68.49153
 30
0.0
 10
-52.00705
 20
66.59514
 30
0.0
  0
SPLINE
  5
65
330
1F
100
AcDbEntity
  8
Camada 1
 62
   250
370
    20
100
AcDbSpline
210
0.0
220
0.0
230
1.0
 70
    11
 71
     3
 72
    20
 73
    16
 74
     0
 42
0.0000000001
 43
0.0000000001
 40
0.0
 40
0.0
 40
0.0
 40
0.0
 40
0.2
 40
0.2
 40
0.2
 40
0.4
 40
0.4
 40
0.4
 40
0.6000000000000001
 40
0.6000000000000001
 40
0.6000000000000001
 40
0.8
 40
0.8
 40
0.8
 40
1.0
 40
1.0
 40
1.0
 40
1.0
 10
-55.21566
 20
54.92282
 30
0.0
 10
-57.63038
 20
58.22558
 30
0.0
 10
-60.01778
 20
61.04482
 30
0.0
 10
-61.42347
 20
63.81253
 30
0.0
 10
-61.42347
 20
63.81253
 30
0.0
 10
-61.42347
 20
43.84103
 30
0.0
 10
-61.42347
 20
43.84103
 30
0.0
 10
-59.53184
 20
44.9387
 30
0.0
 10
-57.28262
 20
45.41341
 30
0.0
 10
-55.01384
 20
45.08042
 30
0.0
 10
-55.81133
 20
45.87867
 30
0.0
 10
-56.45892
 20
46.79369
 30
0.0
 10
-56.92619
 20
47.87266
 30
0.0
 10
-58.01951
 20
50.39721
 30
0.0
 10
-57.24543
 20
53.26269
 30
0.0
 10
-55.21566
 20
54.92282
 30
0.0
  0
SPLINE
  5
66
330
1F
100
AcDbEntity
  8
Camada 1
 62
   250
370
    20
100
AcDbSpline
210
0.0
220
0.0
230
1.0
 70
    11
 71
     3
 72
    14
 73
    10
 74
     0
 42
0.0000000001
 43
0.0000000001
 40
0.0
 40
0.0
 40
0.0
 40
0.0
 40
0.3333333333333333
 40
0.3333333333333333
 40
0.3333333333333333
 40
0.6666666666666666
 40
0.6666666666666666
 40
0.6666666666666666
 40
1.0
 40
1.0
 40
1.0
 40
1.0
 10
-51.52215
 20
69.3506
 30
0.0
 10
-50.74965
 20
70.39283
 30
0.0
 10
-50.01964
 20
71.19342
 30
0.0
 10
-49.23002
 20
71.73452
 30
0.0
 10
-49.23002
 20
71.73452
 30
0.0
 10
-52.46283
 20
71.73452
 30
0.0
 10
-52.46283
 20
71.73452
 30
0.0
 10
-52.09754
 20
71.06896
 30
0.0
 10
-51.79802
 20
70.27689
 30
0.0
 10
-51.52215
 20
69.3506
 30
0.0
  0
SPLINE
  5
67
330
1F
100
AcDbEntity
  8
Camada 1
 62
   250
370
    20
100
AcDbSpline
210
0.0
220
0.0
230
1.0
 70
    11
 71
     3
 72
    23
 73
    19
 74
     0
 42
0.0000000001
 43
0.0000000001
 40
0.0
 40
0.0
 40
0.0
 40
0.0
 40
0.1666666666666667
 40
0.1666666666666667
 40
0.1666666666666667
 40
0.3333333333333333
 40
0.3333333333333333
 40
0.3333333333333333
 40
0.5
 40
0.5
 40
0.5
 40
0.6666666666666666
 40
0.6666666666666666
 40
0.6666666666666666
 40
0.8333333333333333
 40
0.8333333333333333
 40
0.8333333333333333
 40
1.0
 40
1.0
 40
1.0
 40
1.0
 10
-34.93627
 20
66.50805
 30
0.0
 10
-34.23848
 20
67.44948
 30
0.0
 10
-33.63153
 20
67.87478
 30
0.0
 10
-32.59928
 20
67.69312
 30
0.0
 10
-31.45966
 20
67.49256
 30
0.0
 10
-30.69754
 20
66.40491
 30
0.0
 10
-30.89808
 20
65.2653
 30
0.0
 10
-31.26139
 20
63.20079
 30
0.0
 10
-33.56501
 20
62.2054
 30
0.0
 10
-35.99283
 20
60.50421
 30
0.0
 10
-37.69402
 20
62.93203
 30
0.0
 10
-39.51944
 20
64.65403
 30
0.0
 10
-39.15612
 20
66.71855
 30
0.0
 10
-38.95556
 20
67.85815
 30
0.0
 10
-37.8679
 20
68.62029
 30
0.0
 10
-36.7283
 20
68.41974
 30
0.0
 10
-35.69603
 20
68.23808
 30
0.0
 10
-35.27073
 20
67.63114
 30
0.0
 10
-34.93627
 20
66.50805
 30
0.0
  0
SPLINE
  5
68
330
1F
100
AcDbEntity
  8
Camada 1
 62
   250
370
    20
100
AcDbSpline
210
0.0
220
0.0
230
1.0
 70
    11
 71
     3
 72
    20
 73
    16
 74
     0
 42
0.0000000001
 43
0.0000000001
 40
0.0
 40
0.0
 40
0.0
 40
0.0
 40
0.2
 40
0.2
 40
0.2
 40
0.4
 40
0.4
 40
0.4
 40
0.6000000000000001
 40
0.6000000000000001
 40
0.6000000000000001
 40
0.8
 40
0.8
 40
0.8
 40
1.0
 40
1.0
 40
1.0
 40
1.0
 10
-37.31042
 20
60.23542
 30
0.0
 10
-38.88827
 20
62.3426
 30
0.0
 10
-40.3686
 20
64.13095
 30
0.0
 10
-40.97546
 20
65.95206
 30
0.0
 10
-41.78867
 20
61.77206
 30
0.0
 10
-45.67011
 20
59.27134
 30
0.0
 10
-50.35986
 20
56.24157
 30
0.0
 10
-49.09546
 20
55.9751
 30
0.0
 10
-47.87509
 20
55.20858
 30
0.0
 10
-46.47924
 20
54.03655
 30
0.0
 10
-46.29445
 20
57.39567
 30
0.0
 10
-45.51174
 20
59.37419
 30
0.0
 10
-42.75053
 20
60.57001
 30
0.0
 10
-40.91983
 20
61.36284
 30
0.0
 10
-38.91001
 20
61.17334
 30
0.0
 10
-37.31042
 20
60.23542
 30
0.0
  0
SPLINE
  5
69
330
1F
100
AcDbEntity
  8
Camada 1
 62
   250
370
    20
100
AcDbSpline
210
0.0
220
0.0
230
1.0
 70
    11
 71
     3
 72
    23
 73
    19
 74
     0
 42
0.0000000001
 43
0.0000000001
 40
0.0
 40
0.0
 40
0.0
 40
0.0
 40
0.1666666666666667
 40
0.1666666666666667
 40
0.1666666666666667
 40
0.3333333333333333
 40
0.3333333333333333
 40
0.3333333333333333
 40
0.5
 40
0.5
 40
0.5
 40
0.6666666666666666
 40
0.6666666666666666
 40
0.6666666666666666
 40
0.8333333333333333
 40
0.8333333333333333
 40
0.8333333333333333
 40
1.0
 40
1.0
 40
1.0
 40
1.0
 10
-29.77653
 20
63.54067
 30
0.0
 10
-31.19935
 20
61.98437
 30
0.0
 10
-33.49171
 20
60.74688
 30
0.0
 10
-35.90387
 20
59.09517
 30
0.0
 10
-35.47041
 20
58.61828
 30
0.0
 10
-35.10674
 20
58.0633
 30
0.0
 10
-34.83646
 20
57.4392
 30
0.0
 10
-32.61257
 20
52.3041
 30
0.0
 10
-35.87055
 20
46.73321
 30
0.0
 10
-38.85568
 20
39.61412
 30
0.0
 10
-37.56892
 20
39.79747
 30
0.0
 10
-36.18465
 20
39.67254
 30
0.0
 10
-34.61794
 20
39.21424
 30
0.0
 10
-32.64963
 20
38.63846
 30
0.0
 10
-30.99528
 20
37.50496
 30
0.0
 10
-29.77653
 20
36.03623
 30
0.0
 10
-29.77653
 20
36.03623
 30
0.0
 10
-29.77653
 20
63.54067
 30
0.0
 10
-29.77653
 20
63.54067
 30
0.0
  0
SPLINE
  5
6A
330
1F
100
AcDbEntity
  8
Camada 1
 62
   250
370
    20
100
AcDbSpline
210
0.0
220
0.0
230
1.0
 70
    11
 71
     3
 72
    26
 73
    22
 74
     0
 42
0.0000000001
 43
0.0000000001
 40
0.0
 40
0.0
 40
0.0
 40
0.0
 40
0.1428571428571428
 40
0.1428571428571428
 40
0.1428571428571428
 40
0.2857142857142857
 40
0.2857142857142857
 40
0.2857142857142857
 40
0.4285714285714285
 40
0.4285714285714285
 40
0.4285714285714285
 40
0.5714285714285714
 40
0.5714285714285714
 40
0.5714285714285714
 40
0.7142857142857142
 40
0.7142857142857142
 40
0.7142857142857142
 40
0.8571428571428571
 40
0.8571428571428571
 40
0.8571428571428571
 40
1.0
 40
1.0
 40
1.0
 40
1.0
 10
-34.6491
 20
68.1399
 30
0.0
 10
-33.56703
 20
69.59978
 30
0.0
 10
-32.6258
 20
70.25931
 30
0.0
 10
-31.02507
 20
69.97761
 30
0.0
 10
-30.56354
 20
69.89639
 30
0.0
 10
-30.14205
 20
69.72119
 30
0.0
 10
-29.77653
 20
69.47538
 30
0.0
 10
-29.77653
 20
69.47538
 30
0.0
 10
-29.77653
 20
71.73452
 30
0.0
 10
-29.77653
 20
71.73452
 30
0.0
 10
-29.77653
 20
71.73452
 30
0.0
 10
-43.49514
 20
71.73452
 30
0.0
 10
-43.49514
 20
71.73452
 30
0.0
 10
-42.37293
 20
71.04909
 30
0.0
 10
-41.53574
 20
69.98001
 30
0.0
 10
-41.13234
 20
68.74028
 30
0.0
 10
-40.70392
 20
70.35371
 30
0.0
 10
-39.10224
 20
71.39902
 30
0.0
 10
-37.42803
 20
71.10441
 30
0.0
 10
-35.82729
 20
70.82271
 30
0.0
 10
-35.16778
 20
69.88148
 30
0.0
 10
-34.6491
 20
68.1399
 30
0.0
  0
SPLINE
  5
6B
330
1F
100
AcDbEntity
  8
Camada 1
 62
   250
370
    20
100
AcDbSpline
210
0.0
220
0.0
230
1.0
 70
    11
 71
     3
 72
    23
 73
    19
 74
     0
 42
0.0000000001
 43
0.0000000001
 40
0.0
 40
0.0
 40
0.0
 40
0.0
 40
0.1666666666666667
 40
0.1666666666666667
 40
0.1666666666666667
 40
0.3333333333333333
 40
0.3333333333333333
 40
0.3333333333333333
 40
0.5
 40
0.5
 40
0.5
 40
0.6666666666666666
 40
0.6666666666666666
 40
0.6666666666666666
 40
0.8333333333333333
 40
0.8333333333333333
 40
0.8333333333333333
 40
1.0
 40
1.0
 40
1.0
 40
1.0
 10
-34.15808
 20
14.61892
 30
0.0
 10
-34.18499
 20
15.53764
 30
0.0
 10
-34.0174
 20
16.09425
 30
0.0
 10
-33.29318
 20
16.48327
 30
0.0
 10
-32.49365
 20
16.91273
 30
0.0
 10
-31.49621
 20
16.6124
 30
0.0
 10
-31.06673
 20
15.81289
 30
0.0
 10
-30.28869
 20
14.36446
 30
0.0
 10
-31.22507
 20
12.63318
 30
0.0
 10
-31.89546
 20
10.40674
 30
0.0
 10
-34.12192
 20
11.07711
 30
0.0
 10
-36.08238
 20
11.25231
 30
0.0
 10
-36.86042
 20
12.70073
 30
0.0
 10
-37.28988
 20
13.50027
 30
0.0
 10
-36.98955
 20
14.49771
 30
0.0
 10
-36.19003
 20
14.92719
 30
0.0
 10
-35.46581
 20
15.31621
 30
0.0
 10
-34.90921
 20
15.14862
 30
0.0
 10
-34.15808
 20
14.61892
 30
0.0
  0
SPLINE
  5
6C
330
1F
100
AcDbEntity
  8
Camada 1
 62
   250
370
    20
100
AcDbSpline
210
0.0
220
0.0
230
1.0
 70
    11
 71
     3
 72
    17
 73
    13
 74
     0
 42
0.0000000001
 43
0.0000000001
 40
0.0
 40
0.0
 40
0.0
 40
0.0
 40
0.25
 40
0.25
 40
0.25
 40
0.5
 40
0.5
 40
0.5
 40
0.75
 40
0.75
 40
0.75
 40
1.0
 40
1.0
 40
1.0
 40
1.0
 10
-34.44202
 20
10.0938
 30
0.0
 10
-36.49442
 20
10.65478
 30
0.0
 10
-38.14803
 20
11.27087
 30
0.0
 10
-38.96363
 20
12.78922
 30
0.0
 10
-39.36875
 20
13.54341
 30
0.0
 10
-39.35506
 20
14.41115
 30
0.0
 10
-39.00315
 20
15.12515
 30
0.0
 10
-41.92698
 20
13.4473
 30
0.0
 10
-45.23123
 20
11.84966
 30
0.0
 10
-48.72106
 20
10.0938
 30
0.0
 10
-48.72106
 20
10.0938
 30
0.0
 10
-34.44202
 20
10.0938
 30
0.0
 10
-34.44202
 20
10.0938
 30
0.0
  0
SPLINE
  5
6D
330
1F
100
AcDbEntity
  8
Camada 1
 62
   250
370
    20
100
AcDbSpline
210
0.0
220
0.0
230
1.0
 70
    11
 71
     3
 72
    14
 73
    10
 74
     0
 42
0.0000000001
 43
0.0000000001
 40
0.0
 40
0.0
 40
0.0
 40
0.0
 40
0.3333333333333333
 40
0.3333333333333333
 40
0.3333333333333333
 40
0.6666666666666666
 40
0.6666666666666666
 40
0.6666666666666666
 40
1.0
 40
1.0
 40
1.0
 40
1.0
 10
-29.77653
 20
13.8883
 30
0.0
 10
-30.0602
 20
12.73607
 30
0.0
 10
-30.53968
 20
11.47913
 30
0.0
 10
-30.99279
 20
10.0938
 30
0.0
 10
-30.99279
 20
10.0938
 30
0.0
 10
-29.77653
 20
10.0938
 30
0.0
 10
-29.77653
 20
10.0938
 30
0.0
 10
-29.77653
 20
10.0938
 30
0.0
 10
-29.77653
 20
13.8883
 30
0.0
 10
-29.77653
 20
13.8883
 30
0.0
  0
SPLINE
  5
6E
330
1F
100
AcDbEntity
  8
Camada 1
 62
   250
370
    20
100
AcDbSpline
210
0.0
220
0.0
230
1.0
 70
    11
 71
     3
 72
    23
 73
    19
 74
     0
 42
0.0000000001
 43
0.0000000001
 40
0.0
 40
0.0
 40
0.0
 40
0.0
 40
0.1666666666666667
 40
0.1666666666666667
 40
0.1666666666666667
 40
0.3333333333333333
 40
0.3333333333333333
 40
0.3333333333333333
 40
0.5
 40
0.5
 40
0.5
 40
0.6666666666666666
 40
0.6666666666666666
 40
0.6666666666666666
 40
0.8333333333333333
 40
0.8333333333333333
 40
0.8333333333333333
 40
1.0
 40
1.0
 40
1.0
 40
1.0
 10
-34.77306
 20
15.76379
 30
0.0
 10
-34.81479
 20
17.18845
 30
0.0
 10
-34.55489
 20
18.05162
 30
0.0
 10
-33.43184
 20
18.65487
 30
0.0
 10
-32.192
 20
19.32087
 30
0.0
 10
-30.64522
 20
18.85514
 30
0.0
 10
-29.97922
 20
17.61529
 30
0.0
 10
-29.90055
 20
17.46884
 30
0.0
 10
-29.83344
 20
17.32048
 30
0.0
 10
-29.77653
 20
17.17021
 30
0.0
 10
-29.77653
 20
17.17021
 30
0.0
 10
-29.77653
 20
22.86783
 30
0.0
 10
-29.77653
 20
22.86783
 30
0.0
 10
-31.4187
 20
20.41554
 30
0.0
 10
-33.77853
 20
18.4097
 30
0.0
 10
-36.62524
 20
16.56866
 30
0.0
 10
-36.03608
 20
16.53425
 30
0.0
 10
-35.45649
 20
16.24574
 30
0.0
 10
-34.77306
 20
15.76379
 30
0.0
  0
SPLINE
  5
6F
330
1F
100
AcDbEntity
  8
Camada 1
 62
   250
370
    20
100
AcDbSpline
210
0.0
220
0.0
230
1.0
 70
    11
 71
     3
 72
    92
 73
    88
 74
     0
 42
0.0000000001
 43
0.0000000001
 40
0.0
 40
0.0
 40
0.0
 40
0.0
 40
0.0344827586206897
 40
0.0344827586206897
 40
0.0344827586206897
 40
0.0689655172413793
 40
0.0689655172413793
 40
0.0689655172413793
 40
0.103448275862069
 40
0.103448275862069
 40
0.103448275862069
 40
0.1379310344827586
 40
0.1379310344827586
 40
0.1379310344827586
 40
0.1724137931034483
 40
0.1724137931034483
 40
0.1724137931034483
 40
0.2068965517241379
 40
0.2068965517241379
 40
0.2068965517241379
 40
0.2413793103448276
 40
0.2413793103448276
 40
0.2413793103448276
 40
0.2758620689655172
 40
0.2758620689655172
 40
0.2758620689655172
 40
0.3103448275862069
 40
0.3103448275862069
 40
0.3103448275862069
 40
0.3448275862068966
 40
0.3448275862068966
 40
0.3448275862068966
 40
0.3793103448275862
 40
0.3793103448275862
 40
0.3793103448275862
 40
0.4137931034482759
 40
0.4137931034482759
 40
0.4137931034482759
 40
0.4482758620689655
 40
0.4482758620689655
 40
0.4482758620689655
 40
0.4827586206896551
 40
0.4827586206896551
 40
0.4827586206896551
 40
0.5172413793103449
 40
0.5172413793103449
 40
0.5172413793103449
 40
0.5517241379310345
 40
0.5517241379310345
 40
0.5517241379310345
 40
0.5862068965517241
 40
0.5862068965517241
 40
0.5862068965517241
 40
0.6206896551724138
 40
0.6206896551724138
 40
0.6206896551724138
 40
0.6551724137931034
 40
0.6551724137931034
 40
0.6551724137931034
 40
0.6896551724137931
 40
0.6896551724137931
 40
0.6896551724137931
 40
0.7241379310344828
 40
0.7241379310344828
 40
0.7241379310344828
 40
0.7586206896551724
 40
0.7586206896551724
 40
0.7586206896551724
 40
0.7931034482758621
 40
0.7931034482758621
 40
0.7931034482758621
 40
0.8275862068965517
 40
0.8275862068965517
 40
0.8275862068965517
 40
0.8620689655172413
 40
0.8620689655172413
 40
0.8620689655172413
 40
0.896551724137931
 40
0.896551724137931
 40
0.896551724137931
 40
0.9310344827586207
 40
0.9310344827586207
 40
0.9310344827586207
 40
0.9655172413793103
 40
0.9655172413793103
 40
0.9655172413793103
 40
1.0
 40
1.0
 40
1.0
 40
1.0
 10
-23.7
 20
32.55581
 30
0.0
 10
-23.7
 20
32.55581
 30
0.0
 10
-23.1
 20
32.55581
 30
0.0
 10
-23.1
 20
32.55581
 30
0.0
 10
-23.1
 20
32.55581
 30
0.0
 10
-23.1
 20
48.37054
 30
0.0
 10
-23.1
 20
48.37054
 30
0.0
 10
-23.1
 20
48.37054
 30
0.0
 10
-23.7
 20
48.37054
 30
0.0
 10
-23.7
 20
48.37054
 30
0.0
 10
-23.7
 20
48.37054
 30
0.0
 10
-23.7
 20
64.18527
 30
0.0
 10
-23.7
 20
64.18527
 30
0.0
 10
-23.7
 20
64.18527
 30
0.0
 10
-23.1
 20
64.18527
 30
0.0
 10
-23.1
 20
64.18527
 30
0.0
 10
-23.1
 20
64.18527
 30
0.0
 10
-23.1
 20
79.4
 30
0.0
 10
-23.1
 20
79.4
 30
0.0
 10
-23.1
 20
79.4
 30
0.0
 10
-37.39263
 20
79.4
 30
0.0
 10
-37.39263
 20
79.4
 30
0.0
 10
-37.39263
 20
79.4
 30
0.0
 10
-37.39263
 20
80.0
 30
0.0
 10
-37.39263
 20
80.0
 30
0.0
 10
-37.39263
 20
80.0
 30
0.0
 10
-53.80736
 20
80.0
 30
0.0
 10
-53.80736
 20
80.0
 30
0.0
 10
-53.80736
 20
80.0
 30
0.0
 10
-53.80736
 20
79.4
 30
0.0
 10
-53.80736
 20
79.4
 30
0.0
 10
-53.80736
 20
79.4
 30
0.0
 10
-67.5
 20
79.4
 30
0.0
 10
-67.5
 20
79.4
 30
0.0
 10
-67.5
 20
79.4
 30
0.0
 10
-67.5
 20
64.18527
 30
0.0
 10
-67.5
 20
64.18527
 30
0.0
 10
-67.5
 20
64.18527
 30
0.0
 10
-68.1
 20
64.18527
 30
0.0
 10
-68.1
 20
64.18527
 30
0.0
 10
-68.1
 20
64.18527
 30
0.0
 10
-68.1
 20
48.37054
 30
0.0
 10
-68.1
 20
48.37054
 30
0.0
 10
-68.1
 20
48.37054
 30
0.0
 10
-67.5
 20
48.37054
 30
0.0
 10
-67.5
 20
48.37054
 30
0.0
 10
-67.5
 20
48.37054
 30
0.0
 10
-67.5
 20
32.55581
 30
0.0
 10
-67.5
 20
32.55581
 30
0.0
 10
-67.5
 20
32.55581
 30
0.0
 10
-68.1
 20
32.55581
 30
0.0
 10
-68.1
 20
32.55581
 30
0.0
 10
-68.1
 20
32.55581
 30
0.0
 10
-68.1
 20
16.74108
 30
0.0
 10
-68.1
 20
16.74108
 30
0.0
 10
-68.1
 20
16.74108
 30
0.0
 10
-67.5
 20
16.74108
 30
0.0
 10
-67.5
 20
16.74108
 30
0.0
 10
-67.5
 20
16.74108
 30
0.0
 10
-67.5
 20
0.92635
 30
0.0
 10
-67.5
 20
0.92635
 30
0.0
 10
-67.5
 20
0.92635
 30
0.0
 10
-67.5
 20
0.0
 30
0.0
 10
-67.5
 20
0.0
 30
0.0
 10
-67.5
 20
0.0
 30
0.0
 10
-64.32066
 20
0.0
 30
0.0
 10
-64.32066
 20
0.0
 30
0.0
 10
-64.32066
 20
1.02171
 30
0.0
 10
-63.48471
 20
1.85765
 30
0.0
 10
-62.46301
 20
1.85765
 30
0.0
 10
-62.46301
 20
1.85765
 30
0.0
 10
-28.73698
 20
1.85765
 30
0.0
 10
-28.73698
 20
1.85765
 30
0.0
 10
-27.71528
 20
1.85765
 30
0.0
 10
-26.87933
 20
1.02171
 30
0.0
 10
-26.87933
 20
0.0
 30
0.0
 10
-26.87933
 20
0.0
 30
0.0
 10
-23.1
 20
0.0
 30
0.0
 10
-23.1
 20
0.0
 30
0.0
 10
-23.1
 20
0.0
 30
0.0
 10
-23.1
 20
16.74108
 30
0.0
 10
-23.1
 20
16.74108
 30
0.0
 10
-23.1
 20
16.74108
 30
0.0
 10
-23.7
 20
16.74108
 30
0.0
 10
-23.7
 20
16.74108
 30
0.0
 10
-23.7
 20
16.74108
 30
0.0
 10
-23.7
 20
32.55581
 30
0.0
 10
-23.7
 20
32.55581
 30
0.0
  0
SPLINE
  5
70
330
1F
100
AcDbEntity
  8
Camada 1
 62
   250
370
    20
100
AcDbSpline
210
0.0
220
0.0
230
1.0
 70
    11
 71
     3
 72
    23
 73
    19
 74
     0
 42
0.0000000001
 43
0.0000000001
 40
0.0
 40
0.0
 40
0.0
 40
0.0
 40
0.1666666666666667
 40
0.1666666666666667
 40
0.1666666666666667
 40
0.3333333333333333
 40
0.3333333333333333
 40
0.3333333333333333
 40
0.5
 40
0.5
 40
0.5
 40
0.6666666666666666
 40
0.6666666666666666
 40
0.6666666666666666
 40
0.8333333333333333
 40
0.8333333333333333
 40
0.8333333333333333
 40
1.0
 40
1.0
 40
1.0
 40
1.0
 10
-2.04682
 20
30.00601
 30
0.0
 10
0.38601
 20
32.62675
 30
0.0
 10
2.36986
 20
33.71262
 30
0.0
 10
5.43957
 20
32.81466
 30
0.0
 10
8.82855
 20
31.8233
 30
0.0
 10
10.77444
 20
28.26826
 30
0.0
 10
9.7831
 20
24.8793
 30
0.0
 10
7.98717
 20
18.73984
 30
0.0
 10
0.66578
 20
16.49529
 30
0.0
 10
-7.26958
 20
12.15177
 30
0.0
 10
-11.61309
 20
20.08713
 30
0.0
 10
-16.57062
 20
25.92354
 30
0.0
 10
-14.77468
 20
32.063
 30
0.0
 10
-13.78334
 20
35.45197
 30
0.0
 10
-10.22829
 20
37.39786
 30
0.0
 10
-6.8393
 20
36.40651
 30
0.0
 10
-3.76959
 20
35.50854
 30
0.0
 10
-2.6837
 20
33.52471
 30
0.0
 10
-2.04682
 20
30.00601
 30
0.0
  0
SPLINE
  5
71
330
1F
100
AcDbEntity
  8
Camada 1
 62
   250
370
    20
100
AcDbSpline
210
0.0
220
0.0
230
1.0
 70
    11
 71
     3
 72
    14
 73
    10
 74
     0
 42
0.0000000001
 43
0.0000000001
 40
0.0
 40
0.0
 40
0.0
 40
0.0
 40
0.3333333333333333
 40
0.3333333333333333
 40
0.3333333333333333
 40
0.6666666666666666
 40
0.6666666666666666
 40
0.6666666666666666
 40
1.0
 40
1.0
 40
1.0
 40
1.0
 10
-10.3724
 20
10.0938
 30
0.0
 10
-12.26935
 20
13.37941
 30
0.0
 10
-14.16849
 20
16.43641
 30
0.0
 10
-15.82347
 20
19.34466
 30
0.0
 10
-15.82347
 20
19.34466
 30
0.0
 10
-15.82347
 20
10.0938
 30
0.0
 10
-15.82347
 20
10.0938
 30
0.0
 10
-15.82347
 20
10.0938
 30
0.0
 10
-10.3724
 20
10.0938
 30
0.0
 10
-10.3724
 20
10.0938
 30
0.0
  0
SPLINE
  5
72
330
1F
100
AcDbEntity
  8
Camada 1
 62
   250
370
    20
100
AcDbSpline
210
0.0
220
0.0
230
1.0
 70
    11
 71
     3
 72
    23
 73
    19
 74
     0
 42
0.0000000001
 43
0.0000000001
 40
0.0
 40
0.0
 40
0.0
 40
0.0
 40
0.1666666666666667
 40
0.1666666666666667
 40
0.1666666666666667
 40
0.3333333333333333
 40
0.3333333333333333
 40
0.3333333333333333
 40
0.5
 40
0.5
 40
0.5
 40
0.6666666666666666
 40
0.6666666666666666
 40
0.6666666666666666
 40
0.8333333333333333
 40
0.8333333333333333
 40
0.8333333333333333
 40
1.0
 40
1.0
 40
1.0
 40
1.0
 10
0.3398
 20
51.22169
 30
0.0
 10
0.45897
 20
53.38786
 30
0.0
 10
0.96371
 20
54.66372
 30
0.0
 10
2.7443
 20
55.43485
 30
0.0
 10
4.71009
 20
56.28617
 30
0.0
 10
6.99643
 20
55.3817
 30
0.0
 10
7.84776
 20
53.41593
 30
0.0
 10
9.39004
 20
49.85473
 30
0.0
 10
6.84383
 20
45.96877
 30
0.0
 10
4.8249
 20
40.86532
 30
0.0
 10
-0.27854
 20
42.88424
 30
0.0
 10
-4.85475
 20
43.68566
 30
0.0
 10
-6.39702
 20
47.24686
 30
0.0
 10
-7.24834
 20
49.21264
 30
0.0
 10
-6.34386
 20
51.49899
 30
0.0
 10
-4.37808
 20
52.35032
 30
0.0
 10
-2.59748
 20
53.12145
 30
0.0
 10
-1.32162
 20
52.61673
 30
0.0
 10
0.3398
 20
51.22169
 30
0.0
  0
SPLINE
  5
73
330
1F
100
AcDbEntity
  8
Camada 1
 62
   250
370
    20
100
AcDbSpline
210
0.0
220
0.0
230
1.0
 70
    11
 71
     3
 72
    14
 73
    10
 74
     0
 42
0.0000000001
 43
0.0000000001
 40
0.0
 40
0.0
 40
0.0
 40
0.0
 40
0.3333333333333333
 40
0.3333333333333333
 40
0.3333333333333333
 40
0.6666666666666666
 40
0.6666666666666666
 40
0.6666666666666666
 40
1.0
 40
1.0
 40
1.0
 40
1.0
 10
4.07108
 20
38.74023
 30
0.0
 10
1.59901
 20
39.65089
 30
0.0
 10
-0.75617
 20
40.42296
 30
0.0
 10
-2.86769
 20
41.25685
 30
0.0
 10
-1.76532
 20
39.64289
 30
0.0
 10
-1.11221
 20
37.53792
 30
0.0
 10
-0.62727
 20
34.85878
 30
0.0
 10
1.0049
 20
36.61703
 30
0.0
 10
2.50679
 20
37.9294
 30
0.0
 10
4.07108
 20
38.74023
 30
0.0
  0
SPLINE
  5
74
330
1F
100
AcDbEntity
  8
Camada 1
 62
   250
370
    20
100
AcDbSpline
210
0.0
220
0.0
230
1.0
 70
    11
 71
     3
 72
    23
 73
    19
 74
     0
 42
0.0000000001
 43
0.0000000001
 40
0.0
 40
0.0
 40
0.0
 40
0.0
 40
0.1666666666666667
 40
0.1666666666666667
 40
0.1666666666666667
 40
0.3333333333333333
 40
0.3333333333333333
 40
0.3333333333333333
 40
0.5
 40
0.5
 40
0.5
 40
0.6666666666666666
 40
0.6666666666666666
 40
0.6666666666666666
 40
0.8333333333333333
 40
0.8333333333333333
 40
0.8333333333333333
 40
1.0
 40
1.0
 40
1.0
 40
1.0
 10
-6.40705
 20
66.59514
 30
0.0
 10
-5.2288
 20
68.18479
 30
0.0
 10
-4.20392
 20
68.90293
 30
0.0
 10
-2.46092
 20
68.59619
 30
0.0
 10
-0.53661
 20
68.25754
 30
0.0
 10
0.75028
 20
66.42098
 30
0.0
 10
0.41165
 20
64.49669
 30
0.0
 10
-0.20181
 20
61.01065
 30
0.0
 10
-4.0916
 20
59.32989
 30
0.0
 10
-8.1911
 20
56.45734
 30
0.0
 10
-11.06365
 20
60.55683
 30
0.0
 10
-14.14597
 20
63.46453
 30
0.0
 10
-13.53249
 20
66.95058
 30
0.0
 10
-13.19384
 20
68.87486
 30
0.0
 10
-11.35726
 20
70.16177
 30
0.0
 10
-9.43298
 20
69.82313
 30
0.0
 10
-7.68995
 20
69.51638
 30
0.0
 10
-6.9718
 20
68.49153
 30
0.0
 10
-6.40705
 20
66.59514
 30
0.0
  0
SPLINE
  5
75
330
1F
100
AcDbEntity
  8
Camada 1
 62
   250
370
    20
100
AcDbSpline
210
0.0
220
0.0
230
1.0
 70
    11
 71
     3
 72
    20
 73
    16
 74
     0
 42
0.0000000001
 43
0.0000000001
 40
0.0
 40
0.0
 40
0.0
 40
0.0
 40
0.2
 40
0.2
 40
0.2
 40
0.4
 40
0.4
 40
0.4
 40
0.6000000000000001
 40
0.6000000000000001
 40
0.6000000000000001
 40
0.8
 40
0.8
 40
0.8
 40
1.0
 40
1.0
 40
1.0
 40
1.0
 10
-9.61566
 20
54.92282
 30
0.0
 10
-12.03038
 20
58.22558
 30
0.0
 10
-14.41778
 20
61.04482
 30
0.0
 10
-15.82347
 20
63.81253
 30
0.0
 10
-15.82347
 20
63.81253
 30
0.0
 10
-15.82347
 20
43.84103
 30
0.0
 10
-15.82347
 20
43.84103
 30
0.0
 10
-13.93184
 20
44.9387
 30
0.0
 10
-11.68262
 20
45.41341
 30
0.0
 10
-9.41384
 20
45.08042
 30
0.0
 10
-10.21133
 20
45.87867
 30
0.0
 10
-10.85892
 20
46.79369
 30
0.0
 10
-11.32619
 20
47.87266
 30
0.0
 10
-12.41951
 20
50.39721
 30
0.0
 10
-11.64543
 20
53.26269
 30
0.0
 10
-9.61566
 20
54.92282
 30
0.0
  0
SPLINE
  5
76
330
1F
100
AcDbEntity
  8
Camada 1
 62
   250
370
    20
100
AcDbSpline
210
0.0
220
0.0
230
1.0
 70
    11
 71
     3
 72
    14
 73
    10
 74
     0
 42
0.0000000001
 43
0.0000000001
 40
0.0
 40
0.0
 40
0.0
 40
0.0
 40
0.3333333333333333
 40
0.3333333333333333
 40
0.3333333333333333
 40
0.6666666666666666
 40
0.6666666666666666
 40
0.6666666666666666
 40
1.0
 40
1.0
 40
1.0
 40
1.0
 10
-5.92215
 20
69.3506
 30
0.0
 10
-5.14965
 20
70.39283
 30
0.0
 10
-4.41964
 20
71.19342
 30
0.0
 10
-3.63002
 20
71.73452
 30
0.0
 10
-3.63002
 20
71.73452
 30
0.0
 10
-6.86283
 20
71.73452
 30
0.0
 10
-6.86283
 20
71.73452
 30
0.0
 10
-6.49754
 20
71.06896
 30
0.0
 10
-6.19802
 20
70.27689
 30
0.0
 10
-5.92215
 20
69.3506
 30
0.0
  0
SPLINE
  5
77
330
1F
100
AcDbEntity
  8
Camada 1
 62
   250
370
    20
100
AcDbSpline
210
0.0
220
0.0
230
1.0
 70
    11
 71
     3
 72
    23
 73
    19
 74
     0
 42
0.0000000001
 43
0.0000000001
 40
0.0
 40
0.0
 40
0.0
 40
0.0
 40
0.1666666666666667
 40
0.1666666666666667
 40
0.1666666666666667
 40
0.3333333333333333
 40
0.3333333333333333
 40
0.3333333333333333
 40
0.5
 40
0.5
 40
0.5
 40
0.6666666666666666
 40
0.6666666666666666
 40
0.6666666666666666
 40
0.8333333333333333
 40
0.8333333333333333
 40
0.8333333333333333
 40
1.0
 40
1.0
 40
1.0
 40
1.0
 10
10.66373
 20
66.50805
 30
0.0
 10
11.36152
 20
67.44948
 30
0.0
 10
11.96847
 20
67.87478
 30
0.0
 10
13.00072
 20
67.69312
 30
0.0
 10
14.14034
 20
67.49256
 30
0.0
 10
14.90246
 20
66.40491
 30
0.0
 10
14.70192
 20
65.2653
 30
0.0
 10
14.33861
 20
63.20079
 30
0.0
 10
12.03499
 20
62.2054
 30
0.0
 10
9.60717
 20
60.50421
 30
0.0
 10
7.90598
 20
62.93203
 30
0.0
 10
6.08056
 20
64.65403
 30
0.0
 10
6.44388
 20
66.71855
 30
0.0
 10
6.64444
 20
67.85815
 30
0.0
 10
7.7321
 20
68.62029
 30
0.0
 10
8.8717
 20
68.41974
 30
0.0
 10
9.90397
 20
68.23808
 30
0.0
 10
10.32927
 20
67.63114
 30
0.0
 10
10.66373
 20
66.50805
 30
0.0
  0
SPLINE
  5
78
330
1F
100
AcDbEntity
  8
Camada 1
 62
   250
370
    20
100
AcDbSpline
210
0.0
220
0.0
230
1.0
 70
    11
 71
     3
 72
    20
 73
    16
 74
     0
 42
0.0000000001
 43
0.0000000001
 40
0.0
 40
0.0
 40
0.0
 40
0.0
 40
0.2
 40
0.2
 40
0.2
 40
0.4
 40
0.4
 40
0.4
 40
0.6000000000000001
 40
0.6000000000000001
 40
0.6000000000000001
 40
0.8
 40
0.8
 40
0.8
 40
1.0
 40
1.0
 40
1.0
 40
1.0
 10
8.28958
 20
60.23542
 30
0.0
 10
6.71173
 20
62.3426
 30
0.0
 10
5.2314
 20
64.13095
 30
0.0
 10
4.62454
 20
65.95206
 30
0.0
 10
3.81133
 20
61.77206
 30
0.0
 10
-0.07011
 20
59.27134
 30
0.0
 10
-4.75986
 20
56.24157
 30
0.0
 10
-3.49546
 20
55.9751
 30
0.0
 10
-2.27509
 20
55.20858
 30
0.0
 10
-0.87924
 20
54.03655
 30
0.0
 10
-0.69445
 20
57.39567
 30
0.0
 10
0.08826
 20
59.37419
 30
0.0
 10
2.84947
 20
60.57001
 30
0.0
 10
4.68017
 20
61.36284
 30
0.0
 10
6.68999
 20
61.17334
 30
0.0
 10
8.28958
 20
60.23542
 30
0.0
  0
SPLINE
  5
79
330
1F
100
AcDbEntity
  8
Camada 1
 62
   250
370
    20
100
AcDbSpline
210
0.0
220
0.0
230
1.0
 70
    11
 71
     3
 72
    23
 73
    19
 74
     0
 42
0.0000000001
 43
0.0000000001
 40
0.0
 40
0.0
 40
0.0
 40
0.0
 40
0.1666666666666667
 40
0.1666666666666667
 40
0.1666666666666667
 40
0.3333333333333333
 40
0.3333333333333333
 40
0.3333333333333333
 40
0.5
 40
0.5
 40
0.5
 40
0.6666666666666666
 40
0.6666666666666666
 40
0.6666666666666666
 40
0.8333333333333333
 40
0.8333333333333333
 40
0.8333333333333333
 40
1.0
 40
1.0
 40
1.0
 40
1.0
 10
15.82347
 20
63.54067
 30
0.0
 10
14.40065
 20
61.98437
 30
0.0
 10
12.10829
 20
60.74688
 30
0.0
 10
9.69613
 20
59.09517
 30
0.0
 10
10.12959
 20
58.61828
 30
0.0
 10
10.49326
 20
58.0633
 30
0.0
 10
10.76354
 20
57.4392
 30
0.0
 10
12.98743
 20
52.3041
 30
0.0
 10
9.72945
 20
46.73321
 30
0.0
 10
6.74432
 20
39.61412
 30
0.0
 10
8.03108
 20
39.79747
 30
0.0
 10
9.41535
 20
39.67254
 30
0.0
 10
10.98206
 20
39.21424
 30
0.0
 10
12.95037
 20
38.63846
 30
0.0
 10
14.60472
 20
37.50496
 30
0.0
 10
15.82347
 20
36.03623
 30
0.0
 10
15.82347
 20
36.03623
 30
0.0
 10
15.82347
 20
63.54067
 30
0.0
 10
15.82347
 20
63.54067
 30
0.0
  0
SPLINE
  5
7A
330
1F
100
AcDbEntity
  8
Camada 1
 62
   250
370
    20
100
AcDbSpline
210
0.0
220
0.0
230
1.0
 70
    11
 71
     3
 72
    26
 73
    22
 74
     0
 42
0.0000000001
 43
0.0000000001
 40
0.0
 40
0.0
 40
0.0
 40
0.0
 40
0.1428571428571428
 40
0.1428571428571428
 40
0.1428571428571428
 40
0.2857142857142857
 40
0.2857142857142857
 40
0.2857142857142857
 40
0.4285714285714285
 40
0.4285714285714285
 40
0.4285714285714285
 40
0.5714285714285714
 40
0.5714285714285714
 40
0.5714285714285714
 40
0.7142857142857142
 40
0.7142857142857142
 40
0.7142857142857142
 40
0.8571428571428571
 40
0.8571428571428571
 40
0.8571428571428571
 40
1.0
 40
1.0
 40
1.0
 40
1.0
 10
10.9509
 20
68.1399
 30
0.0
 10
12.03297
 20
69.59978
 30
0.0
 10
12.9742
 20
70.25931
 30
0.0
 10
14.57493
 20
69.97761
 30
0.0
 10
15.03646
 20
69.89639
 30
0.0
 10
15.45795
 20
69.72119
 30
0.0
 10
15.82347
 20
69.47538
 30
0.0
 10
15.82347
 20
69.47538
 30
0.0
 10
15.82347
 20
71.73452
 30
0.0
 10
15.82347
 20
71.73452
 30
0.0
 10
15.82347
 20
71.73452
 30
0.0
 10
2.10486
 20
71.73452
 30
0.0
 10
2.10486
 20
71.73452
 30
0.0
 10
3.22707
 20
71.04909
 30
0.0
 10
4.06426
 20
69.98001
 30
0.0
 10
4.46766
 20
68.74028
 30
0.0
 10
4.89608
 20
70.35371
 30
0.0
 10
6.49776
 20
71.39902
 30
0.0
 10
8.17197
 20
71.10441
 30
0.0
 10
9.77271
 20
70.82271
 30
0.0
 10
10.43222
 20
69.88148
 30
0.0
 10
10.9509
 20
68.1399
 30
0.0
  0
SPLINE
  5
7B
330
1F
100
AcDbEntity
  8
Camada 1
 62
   250
370
    20
100
AcDbSpline
210
0.0
220
0.0
230
1.0
 70
    11
 71
     3
 72
    23
 73
    19
 74
     0
 42
0.0000000001
 43
0.0000000001
 40
0.0
 40
0.0
 40
0.0
 40
0.0
 40
0.1666666666666667
 40
0.1666666666666667
 40
0.1666666666666667
 40
0.3333333333333333
 40
0.3333333333333333
 40
0.3333333333333333
 40
0.5
 40
0.5
 40
0.5
 40
0.6666666666666666
 40
0.6666666666666666
 40
0.6666666666666666
 40
0.8333333333333333
 40
0.8333333333333333
 40
0.8333333333333333
 40
1.0
 40
1.0
 40
1.0
 40
1.0
 10
11.44192
 20
14.61892
 30
0.0
 10
11.41501
 20
15.53764
 30
0.0
 10
11.5826
 20
16.09425
 30
0.0
 10
12.30682
 20
16.48327
 30
0.0
 10
13.10635
 20
16.91273
 30
0.0
 10
14.10379
 20
16.6124
 30
0.0
 10
14.53327
 20
15.81289
 30
0.0
 10
15.31131
 20
14.36446
 30
0.0
 10
14.37493
 20
12.63318
 30
0.0
 10
13.70454
 20
10.40674
 30
0.0
 10
11.47808
 20
11.07711
 30
0.0
 10
9.51762
 20
11.25231
 30
0.0
 10
8.73958
 20
12.70073
 30
0.0
 10
8.31012
 20
13.50027
 30
0.0
 10
8.61045
 20
14.49771
 30
0.0
 10
9.40997
 20
14.92719
 30
0.0
 10
10.13419
 20
15.31621
 30
0.0
 10
10.69079
 20
15.14862
 30
0.0
 10
11.44192
 20
14.61892
 30
0.0
  0
SPLINE
  5
7C
330
1F
100
AcDbEntity
  8
Camada 1
 62
   250
370
    20
100
AcDbSpline
210
0.0
220
0.0
230
1.0
 70
    11
 71
     3
 72
    17
 73
    13
 74
     0
 42
0.0000000001
 43
0.0000000001
 40
0.0
 40
0.0
 40
0.0
 40
0.0
 40
0.25
 40
0.25
 40
0.25
 40
0.5
 40
0.5
 40
0.5
 40
0.75
 40
0.75
 40
0.75
 40
1.0
 40
1.0
 40
1.0
 40
1.0
 10
11.15798
 20
10.0938
 30
0.0
 10
9.10558
 20
10.65478
 30
0.0
 10
7.45197
 20
11.27087
 30
0.0
 10
6.63637
 20
12.78922
 30
0.0
 10
6.23125
 20
13.54341
 30
0.0
 10
6.24494
 20
14.41115
 30
0.0
 10
6.59685
 20
15.12515
 30
0.0
 10
3.67302
 20
13.4473
 30
0.0
 10
0.36877
 20
11.84966
 30
0.0
 10
-3.12106
 20
10.0938
 30
0.0
 10
-3.12106
 20
10.0938
 30
0.0
 10
11.15798
 20
10.0938
 30
0.0
 10
11.15798
 20
10.0938
 30
0.0
  0
SPLINE
  5
7D
330
1F
100
AcDbEntity
  8
Camada 1
 62
   250
370
    20
100
AcDbSpline
210
0.0
220
0.0
230
1.0
 70
    11
 71
     3
 72
    14
 73
    10
 74
     0
 42
0.0000000001
 43
0.0000000001
 40
0.0
 40
0.0
 40
0.0
 40
0.0
 40
0.3333333333333333
 40
0.3333333333333333
 40
0.3333333333333333
 40
0.6666666666666666
 40
0.6666666666666666
 40
0.6666666666666666
 40
1.0
 40
1.0
 40
1.0
 40
1.0
 10
15.82347
 20
13.8883
 30
0.0
 10
15.5398
 20
12.73607
 30
0.0
 10
15.06032
 20
11.47913
 30
0.0
 10
14.60721
 20
10.0938
 30
0.0
 10
14.60721
 20
10.0938
 30
0.0
 10
15.82347
 20
10.0938
 30
0.0
 10
15.82347
 20
10.0938
 30
0.0
 10
15.82347
 20
10.0938
 30
0.0
 10
15.82347
 20
13.8883
 30
0.0
 10
15.82347
 20
13.8883
 30
0.0
  0
SPLINE
  5
7E
330
1F
100
AcDbEntity
  8
Camada 1
 62
   250
370
    20
100
AcDbSpline
210
0.0
220
0.0
230
1.0
 70
    11
 71
     3
 72
    23
 73
    19
 74
     0
 42
0.0000000001
 43
0.0000000001
 40
0.0
 40
0.0
 40
0.0
 40
0.0
 40
0.1666666666666667
 40
0.1666666666666667
 40
0.1666666666666667
 40
0.3333333333333333
 40
0.3333333333333333
 40
0.3333333333333333
 40
0.5
 40
0.5
 40
0.5
 40
0.6666666666666666
 40
0.6666666666666666
 40
0.6666666666666666
 40
0.8333333333333333
 40
0.8333333333333333
 40
0.8333333333333333
 40
1.0
 40
1.0
 40
1.0
 40
1.0
 10
10.82694
 20
15.76379
 30
0.0
 10
10.78521
 20
17.18845
 30
0.0
 10
11.04511
 20
18.05162
 30
0.0
 10
12.16816
 20
18.65487
 30
0.0
 10
13.408
 20
19.32087
 30
0.0
 10
14.95478
 20
18.85514
 30
0.0
 10
15.62078
 20
17.61529
 30
0.0
 10
15.69945
 20
17.46884
 30
0.0
 10
15.76656
 20
17.32048
 30
0.0
 10
15.82347
 20
17.17021
 30
0.0
 10
15.82347
 20
17.17021
 30
0.0
 10
15.82347
 20
22.86783
 30
0.0
 10
15.82347
 20
22.86783
 30
0.0
 10
14.1813
 20
20.41554
 30
0.0
 10
11.82147
 20
18.4097
 30
0.0
 10
8.97476
 20
16.56866
 30
0.0
 10
9.56392
 20
16.53425
 30
0.0
 10
10.14351
 20
16.24574
 30
0.0
 10
10.82694
 20
15.76379
 30
0.0
  0
SPLINE
  5
7F
330
1F
100
AcDbEntity
  8
Camada 1
 62
   250
370
    20
100
AcDbSpline
210
0.0
220
0.0
230
1.0
 70
    11
 71
     3
 72
    92
 73
    88
 74
     0
 42
0.0000000001
 43
0.0000000001
 40
0.0
 40
0.0
 40
0.0
 40
0.0
 40
0.0344827586206897
 40
0.0344827586206897
 40
0.0344827586206897
 40
0.0689655172413793
 40
0.0689655172413793
 40
0.0689655172413793
 40
0.103448275862069
 40
0.103448275862069
 40
0.103448275862069
 40
0.1379310344827586
 40
0.1379310344827586
 40
0.1379310344827586
 40
0.1724137931034483
 40
0.1724137931034483
 40
0.1724137931034483
 40
0.2068965517241379
 40
0.2068965517241379
 40
0.2068965517241379
 40
0.2413793103448276
 40
0.2413793103448276
 40
0.2413793103448276
 40
0.2758620689655172
 40
0.2758620689655172
 40
0.2758620689655172
 40
0.3103448275862069
 40
0.3103448275862069
 40
0.3103448275862069
 40
0.3448275862068966
 40
0.3448275862068966
 40
0.3448275862068966
 40
0.3793103448275862
 40
0.3793103448275862
 40
0.3793103448275862
 40
0.4137931034482759
 40
0.4137931034482759
 40
0.4137931034482759
 40
0.4482758620689655
 40
0.4482758620689655
 40
0.4482758620689655
 40
0.4827586206896551
 40
0.4827586206896551
 40
0.4827586206896551
 40
0.5172413793103449
 40
0.5172413793103449
 40
0.5172413793103449
 40
0.5517241379310345
 40
0.5517241379310345
 40
0.5517241379310345
 40
0.5862068965517241
 40
0.5862068965517241
 40
0.5862068965517241
 40
0.6206896551724138
 40
0.6206896551724138
 40
0.6206896551724138
 40
0.6551724137931034
 40
0.6551724137931034
 40
0.6551724137931034
 40
0.6896551724137931
 40
0.6896551724137931
 40
0.6896551724137931
 40
0.7241379310344828
 40
0.7241379310344828
 40
0.7241379310344828
 40
0.7586206896551724
 40
0.7586206896551724
 40
0.7586206896551724
 40
0.7931034482758621
 40
0.7931034482758621
 40
0.7931034482758621
 40
0.8275862068965517
 40
0.8275862068965517
 40
0.8275862068965517
 40
0.8620689655172413
 40
0.8620689655172413
 40
0.8620689655172413
 40
0.896551724137931
 40
0.896551724137931
 40
0.896551724137931
 40
0.9310344827586207
 40
0.9310344827586207
 40
0.9310344827586207
 40
0.9655172413793103
 40
0.9655172413793103
 40
0.9655172413793103
 40
1.0
 40
1.0
 40
1.0
 40
1.0
 10
21.9
 20
32.55581
 30
0.0
 10
21.9
 20
32.55581
 30
0.0
 10
22.5
 20
32.55581
 30
0.0
 10
22.5
 20
32.55581
 30
0.0
 10
22.5
 20
32.55581
 30
0.0
 10
22.5
 20
48.37054
 30
0.0
 10
22.5
 20
48.37054
 30
0.0
 10
22.5
 20
48.37054
 30
0.0
 10
21.9
 20
48.37054
 30
0.0
 10
21.9
 20
48.37054
 30
0.0
 10
21.9
 20
48.37054
 30
0.0
 10
21.9
 20
64.18527
 30
0.0
 10
21.9
 20
64.18527
 30
0.0
 10
21.9
 20
64.18527
 30
0.0
 10
22.5
 20
64.18527
 30
0.0
 10
22.5
 20
64.18527
 30
0.0
 10
22.5
 20
64.18527
 30
0.0
 10
22.5
 20
79.4
 30
0.0
 10
22.5
 20
79.4
 30
0.0
 10
22.5
 20
79.4
 30
0.0
 10
8.20737
 20
79.4
 30
0.0
 10
8.20737
 20
79.4
 30
0.0
 10
8.20737
 20
79.4
 30
0.0
 10
8.20737
 20
80.0
 30
0.0
 10
8.20737
 20
80.0
 30
0.0
 10
8.20737
 20
80.0
 30
0.0
 10
-8.20736
 20
80.0
 30
0.0
 10
-8.20736
 20
80.0
 30
0.0
 10
-8.20736
 20
80.0
 30
0.0
 10
-8.20736
 20
79.4
 30
0.0
 10
-8.20736
 20
79.4
 30
0.0
 10
-8.20736
 20
79.4
 30
0.0
 10
-21.9
 20
79.4
 30
0.0
 10
-21.9
 20
79.4
 30
0.0
 10
-21.9
 20
79.4
 30
0.0
 10
-21.9
 20
64.18527
 30
0.0
 10
-21.9
 20
64.18527
 30
0.0
 10
-21.9
 20
64.18527
 30
0.0
 10
-22.5
 20
64.18527
 30
0.0
 10
-22.5
 20
64.18527
 30
0.0
 10
-22.5
 20
64.18527
 30
0.0
 10
-22.5
 20
48.37054
 30
0.0
 10
-22.5
 20
48.37054
 30
0.0
 10
-22.5
 20
48.37054
 30
0.0
 10
-21.9
 20
48.37054
 30
0.0
 10
-21.9
 20
48.37054
 30
0.0
 10
-21.9
 20
48.37054
 30
0.0
 10
-21.9
 20
32.55581
 30
0.0
 10
-21.9
 20
32.55581
 30
0.0
 10
-21.9
 20
32.55581
 30
0.0
 10
-22.5
 20
32.55581
 30
0.0
 10
-22.5
 20
32.55581
 30
0.0
 10
-22.5
 20
32.55581
 30
0.0
 10
-22.5
 20
16.74108
 30
0.0
 10
-22.5
 20
16.74108
 30
0.0
 10
-22.5
 20
16.74108
 30
0.0
 10
-21.9
 20
16.74108
 30
0.0
 10
-21.9
 20
16.74108
 30
0.0
 10
-21.9
 20
16.74108
 30
0.0
 10
-21.9
 20
0.92635
 30
0.0
 10
-21.9
 20
0.92635
 30
0.0
 10
-21.9
 20
0.92635
 30
0.0
 10
-21.9
 20
0.0
 30
0.0
 10
-21.9
 20
0.0
 30
0.0
 10
-21.9
 20
0.0
 30
0.0
 10
-18.72066
 20
0.0
 30
0.0
 10
-18.72066
 20
0.0
 30
0.0
 10
-18.72066
 20
1.02171
 30
0.0
 10
-17.88471
 20
1.85765
 30
0.0
 10
-16.86301
 20
1.85765
 30
0.0
 10
-16.86301
 20
1.85765
 30
0.0
 10
16.86302
 20
1.85765
 30
0.0
 10
16.86302
 20
1.85765
 30
0.0
 10
17.88472
 20
1.85765
 30
0.0
 10
18.72067
 20
1.02171
 30
0.0
 10
18.72067
 20
0.0
 30
0.0
 10
18.72067
 20
0.0
 30
0.0
 10
22.5
 20
0.0
 30
0.0
 10
22.5
 20
0.0
 30
0.0
 10
22.5
 20
0.0
 30
0.0
 10
22.5
 20
16.74108
 30
0.0
 10
22.5
 20
16.74108
 30
0.0
 10
22.5
 20
16.74108
 30
0.0
 10
21.9
 20
16.74108
 30
0.0
 10
21.9
 20
16.74108
 30
0.0
 10
21.9
 20
16.74108
 30
0.0
 10
21.9
 20
32.55581
 30
0.0
 10
21.9
 20
32.55581
 30
0.0
  0
SPLINE
  5
80
330
1F
100
AcDbEntity
  8
Camada 1
 62
   250
370
    20
100
AcDbSpline
210
0.0
220
0.0
230
1.0
 70
    11
 71
     3
 72
    23
 73
    19
 74
     0
 42
0.0000000001
 43
0.0000000001
 40
0.0
 40
0.0
 40
0.0
 40
0.0
 40
0.1666666666666667
 40
0.1666666666666667
 40
0.1666666666666667
 40
0.3333333333333333
 40
0.3333333333333333
 40
0.3333333333333333
 40
0.5
 40
0.5
 40
0.5
 40
0.6666666666666666
 40
0.6666666666666666
 40
0.6666666666666666
 40
0.8333333333333333
 40
0.8333333333333333
 40
0.8333333333333333
 40
1.0
 40
1.0
 40
1.0
 40
1.0
 10
-47.64682
 20
-49.99399
 30
0.0
 10
-45.21399
 20
-47.37325
 30
0.0
 10
-43.23014
 20
-46.28738
 30
0.0
 10
-40.16043
 20
-47.18534
 30
0.0
 10
-36.77145
 20
-48.1767
 30
0.0
 10
-34.82556
 20
-51.73174
 30
0.0
 10
-35.8169
 20
-55.1207
 30
0.0
 10
-37.61283
 20
-61.26016
 30
0.0
 10
-44.93422
 20
-63.50471
 30
0.0
 10
-52.86958
 20
-67.84823
 30
0.0
 10
-57.21309
 20
-59.91287
 30
0.0
 10
-62.17062
 20
-54.07646
 30
0.0
 10
-60.37468
 20
-47.937
 30
0.0
 10
-59.38334
 20
-44.54803
 30
0.0
 10
-55.82829
 20
-42.60214
 30
0.0
 10
-52.4393
 20
-43.59349
 30
0.0
 10
-49.36959
 20
-44.49146
 30
0.0
 10
-48.2837
 20
-46.47529
 30
0.0
 10
-47.64682
 20
-49.99399
 30
0.0
  0
SPLINE
  5
81
330
1F
100
AcDbEntity
  8
Camada 1
 62
   250
370
    20
100
AcDbSpline
210
0.0
220
0.0
230
1.0
 70
    11
 71
     3
 72
    14
 73
    10
 74
     0
 42
0.0000000001
 43
0.0000000001
 40
0.0
 40
0.0
 40
0.0
 40
0.0
 40
0.3333333333333333
 40
0.3333333333333333
 40
0.3333333333333333
 40
0.6666666666666666
 40
0.6666666666666666
 40
0.6666666666666666
 40
1.0
 40
1.0
 40
1.0
 40
1.0
 10
-55.9724
 20
-69.9062
 30
0.0
 10
-57.86935
 20
-66.62059
 30
0.0
 10
-59.76849
 20
-63.56359
 30
0.0
 10
-61.42347
 20
-60.65534
 30
0.0
 10
-61.42347
 20
-60.65534
 30
0.0
 10
-61.42347
 20
-69.9062
 30
0.0
 10
-61.42347
 20
-69.9062
 30
0.0
 10
-61.42347
 20
-69.9062
 30
0.0
 10
-55.9724
 20
-69.9062
 30
0.0
 10
-55.9724
 20
-69.9062
 30
0.0
  0
SPLINE
  5
82
330
1F
100
AcDbEntity
  8
Camada 1
 62
   250
370
    20
100
AcDbSpline
210
0.0
220
0.0
230
1.0
 70
    11
 71
     3
 72
    23
 73
    19
 74
     0
 42
0.0000000001
 43
0.0000000001
 40
0.0
 40
0.0
 40
0.0
 40
0.0
 40
0.1666666666666667
 40
0.1666666666666667
 40
0.1666666666666667
 40
0.3333333333333333
 40
0.3333333333333333
 40
0.3333333333333333
 40
0.5
 40
0.5
 40
0.5
 40
0.6666666666666666
 40
0.6666666666666666
 40
0.6666666666666666
 40
0.8333333333333333
 40
0.8333333333333333
 40
0.8333333333333333
 40
1.0
 40
1.0
 40
1.0
 40
1.0
 10
-45.2602
 20
-28.77831
 30
0.0
 10
-45.14103
 20
-26.61214
 30
0.0
 10
-44.63629
 20
-25.33628
 30
0.0
 10
-42.8557
 20
-24.56515
 30
0.0
 10
-40.88991
 20
-23.71383
 30
0.0
 10
-38.60357
 20
-24.6183
 30
0.0
 10
-37.75224
 20
-26.58407
 30
0.0
 10
-36.20996
 20
-30.14527
 30
0.0
 10
-38.75617
 20
-34.03123
 30
0.0
 10
-40.7751
 20
-39.13468
 30
0.0
 10
-45.87854
 20
-37.11576
 30
0.0
 10
-50.45475
 20
-36.31434
 30
0.0
 10
-51.99702
 20
-32.75314
 30
0.0
 10
-52.84834
 20
-30.78736
 30
0.0
 10
-51.94386
 20
-28.50101
 30
0.0
 10
-49.97808
 20
-27.64968
 30
0.0
 10
-48.19748
 20
-26.87855
 30
0.0
 10
-46.92162
 20
-27.38327
 30
0.0
 10
-45.2602
 20
-28.77831
 30
0.0
  0
SPLINE
  5
83
330
1F
100
AcDbEntity
  8
Camada 1
 62
   250
370
    20
100
AcDbSpline
210
0.0
220
0.0
230
1.0
 70
    11
 71
     3
 72
    14
 73
    10
 74
     0
 42
0.0000000001
 43
0.0000000001
 40
0.0
 40
0.0
 40
0.0
 40
0.0
 40
0.3333333333333333
 40
0.3333333333333333
 40
0.3333333333333333
 40
0.6666666666666666
 40
0.6666666666666666
 40
0.6666666666666666
 40
1.0
 40
1.0
 40
1.0
 40
1.0
 10
-41.52892
 20
-41.25977
 30
0.0
 10
-44.00099
 20
-40.34911
 30
0.0
 10
-46.35617
 20
-39.57704
 30
0.0
 10
-48.46769
 20
-38.74315
 30
0.0
 10
-47.36532
 20
-40.35711
 30
0.0
 10
-46.71221
 20
-42.46208
 30
0.0
 10
-46.22727
 20
-45.14122
 30
0.0
 10
-44.5951
 20
-43.38297
 30
0.0
 10
-43.09321
 20
-42.0706
 30
0.0
 10
-41.52892
 20
-41.25977
 30
0.0
  0
SPLINE
  5
84
330
1F
100
AcDbEntity
  8
Camada 1
 62
   250
370
    20
100
AcDbSpline
210
0.0
220
0.0
230
1.0
 70
    11
 71
     3
 72
    23
 73
    19
 74
     0
 42
0.0000000001
 43
0.0000000001
 40
0.0
 40
0.0
 40
0.0
 40
0.0
 40
0.1666666666666667
 40
0.1666666666666667
 40
0.1666666666666667
 40
0.3333333333333333
 40
0.3333333333333333
 40
0.3333333333333333
 40
0.5
 40
0.5
 40
0.5
 40
0.6666666666666666
 40
0.6666666666666666
 40
0.6666666666666666
 40
0.8333333333333333
 40
0.8333333333333333
 40
0.8333333333333333
 40
1.0
 40
1.0
 40
1.0
 40
1.0
 10
-52.00705
 20
-13.40486
 30
0.0
 10
-50.8288
 20
-11.81521
 30
0.0
 10
-49.80392
 20
-11.09707
 30
0.0
 10
-48.06092
 20
-11.40381
 30
0.0
 10
-46.13661
 20
-11.74246
 30
0.0
 10
-44.84972
 20
-13.57902
 30
0.0
 10
-45.18835
 20
-15.50331
 30
0.0
 10
-45.80181
 20
-18.98935
 30
0.0
 10
-49.6916
 20
-20.67011
 30
0.0
 10
-53.7911
 20
-23.54266
 30
0.0
 10
-56.66365
 20
-19.44317
 30
0.0
 10
-59.74597
 20
-16.53547
 30
0.0
 10
-59.13249
 20
-13.04942
 30
0.0
 10
-58.79384
 20
-11.12514
 30
0.0
 10
-56.95726
 20
-9.83823
 30
0.0
 10
-55.03298
 20
-10.17687
 30
0.0
 10
-53.28995
 20
-10.48362
 30
0.0
 10
-52.5718
 20
-11.50847
 30
0.0
 10
-52.00705
 20
-13.40486
 30
0.0
  0
SPLINE
  5
85
330
1F
100
AcDbEntity
  8
Camada 1
 62
   250
370
    20
100
AcDbSpline
210
0.0
220
0.0
230
1.0
 70
    11
 71
     3
 72
    20
 73
    16
 74
     0
 42
0.0000000001
 43
0.0000000001
 40
0.0
 40
0.0
 40
0.0
 40
0.0
 40
0.2
 40
0.2
 40
0.2
 40
0.4
 40
0.4
 40
0.4
 40
0.6000000000000001
 40
0.6000000000000001
 40
0.6000000000000001
 40
0.8
 40
0.8
 40
0.8
 40
1.0
 40
1.0
 40
1.0
 40
1.0
 10
-55.21566
 20
-25.07718
 30
0.0
 10
-57.63038
 20
-21.77442
 30
0.0
 10
-60.01778
 20
-18.95518
 30
0.0
 10
-61.42347
 20
-16.18747
 30
0.0
 10
-61.42347
 20
-16.18747
 30
0.0
 10
-61.42347
 20
-36.15897
 30
0.0
 10
-61.42347
 20
-36.15897
 30
0.0
 10
-59.53184
 20
-35.0613
 30
0.0
 10
-57.28262
 20
-34.58659
 30
0.0
 10
-55.01384
 20
-34.91958
 30
0.0
 10
-55.81133
 20
-34.12133
 30
0.0
 10
-56.45892
 20
-33.20631
 30
0.0
 10
-56.92619
 20
-32.12734
 30
0.0
 10
-58.01951
 20
-29.60279
 30
0.0
 10
-57.24543
 20
-26.73731
 30
0.0
 10
-55.21566
 20
-25.07718
 30
0.0
  0
SPLINE
  5
86
330
1F
100
AcDbEntity
  8
Camada 1
 62
   250
370
    20
100
AcDbSpline
210
0.0
220
0.0
230
1.0
 70
    11
 71
     3
 72
    14
 73
    10
 74
     0
 42
0.0000000001
 43
0.0000000001
 40
0.0
 40
0.0
 40
0.0
 40
0.0
 40
0.3333333333333333
 40
0.3333333333333333
 40
0.3333333333333333
 40
0.6666666666666666
 40
0.6666666666666666
 40
0.6666666666666666
 40
1.0
 40
1.0
 40
1.0
 40
1.0
 10
-51.52215
 20
-10.6494
 30
0.0
 10
-50.74965
 20
-9.60717
 30
0.0
 10
-50.01964
 20
-8.80658
 30
0.0
 10
-49.23002
 20
-8.26548
 30
0.0
 10
-49.23002
 20
-8.26548
 30
0.0
 10
-52.46283
 20
-8.26548
 30
0.0
 10
-52.46283
 20
-8.26548
 30
0.0
 10
-52.09754
 20
-8.93104
 30
0.0
 10
-51.79802
 20
-9.72311
 30
0.0
 10
-51.52215
 20
-10.6494
 30
0.0
  0
SPLINE
  5
87
330
1F
100
AcDbEntity
  8
Camada 1
 62
   250
370
    20
100
AcDbSpline
210
0.0
220
0.0
230
1.0
 70
    11
 71
     3
 72
    23
 73
    19
 74
     0
 42
0.0000000001
 43
0.0000000001
 40
0.0
 40
0.0
 40
0.0
 40
0.0
 40
0.1666666666666667
 40
0.1666666666666667
 40
0.1666666666666667
 40
0.3333333333333333
 40
0.3333333333333333
 40
0.3333333333333333
 40
0.5
 40
0.5
 40
0.5
 40
0.6666666666666666
 40
0.6666666666666666
 40
0.6666666666666666
 40
0.8333333333333333
 40
0.8333333333333333
 40
0.8333333333333333
 40
1.0
 40
1.0
 40
1.0
 40
1.0
 10
-34.93627
 20
-13.49195
 30
0.0
 10
-34.23848
 20
-12.55052
 30
0.0
 10
-33.63153
 20
-12.12522
 30
0.0
 10
-32.59928
 20
-12.30688
 30
0.0
 10
-31.45966
 20
-12.50744
 30
0.0
 10
-30.69754
 20
-13.59509
 30
0.0
 10
-30.89808
 20
-14.7347
 30
0.0
 10
-31.26139
 20
-16.79921
 30
0.0
 10
-33.56501
 20
-17.7946
 30
0.0
 10
-35.99283
 20
-19.49579
 30
0.0
 10
-37.69402
 20
-17.06797
 30
0.0
 10
-39.51944
 20
-15.34597
 30
0.0
 10
-39.15612
 20
-13.28145
 30
0.0
 10
-38.95556
 20
-12.14185
 30
0.0
 10
-37.8679
 20
-11.37971
 30
0.0
 10
-36.7283
 20
-11.58026
 30
0.0
 10
-35.69603
 20
-11.76192
 30
0.0
 10
-35.27073
 20
-12.36886
 30
0.0
 10
-34.93627
 20
-13.49195
 30
0.0
  0
SPLINE
  5
88
330
1F
100
AcDbEntity
  8
Camada 1
 62
   250
370
    20
100
AcDbSpline
210
0.0
220
0.0
230
1.0
 70
    11
 71
     3
 72
    20
 73
    16
 74
     0
 42
0.0000000001
 43
0.0000000001
 40
0.0
 40
0.0
 40
0.0
 40
0.0
 40
0.2
 40
0.2
 40
0.2
 40
0.4
 40
0.4
 40
0.4
 40
0.6000000000000001
 40
0.6000000000000001
 40
0.6000000000000001
 40
0.8
 40
0.8
 40
0.8
 40
1.0
 40
1.0
 40
1.0
 40
1.0
 10
-37.31042
 20
-19.76458
 30
0.0
 10
-38.88827
 20
-17.6574
 30
0.0
 10
-40.3686
 20
-15.86905
 30
0.0
 10
-40.97546
 20
-14.04794
 30
0.0
 10
-41.78867
 20
-18.22794
 30
0.0
 10
-45.67011
 20
-20.72866
 30
0.0
 10
-50.35986
 20
-23.75843
 30
0.0
 10
-49.09546
 20
-24.0249
 30
0.0
 10
-47.87509
 20
-24.79142
 30
0.0
 10
-46.47924
 20
-25.96345
 30
0.0
 10
-46.29445
 20
-22.60433
 30
0.0
 10
-45.51174
 20
-20.62581
 30
0.0
 10
-42.75053
 20
-19.42999
 30
0.0
 10
-40.91983
 20
-18.63716
 30
0.0
 10
-38.91001
 20
-18.82666
 30
0.0
 10
-37.31042
 20
-19.76458
 30
0.0
  0
SPLINE
  5
89
330
1F
100
AcDbEntity
  8
Camada 1
 62
   250
370
    20
100
AcDbSpline
210
0.0
220
0.0
230
1.0
 70
    11
 71
     3
 72
    23
 73
    19
 74
     0
 42
0.0000000001
 43
0.0000000001
 40
0.0
 40
0.0
 40
0.0
 40
0.0
 40
0.1666666666666667
 40
0.1666666666666667
 40
0.1666666666666667
 40
0.3333333333333333
 40
0.3333333333333333
 40
0.3333333333333333
 40
0.5
 40
0.5
 40
0.5
 40
0.6666666666666666
 40
0.6666666666666666
 40
0.6666666666666666
 40
0.8333333333333333
 40
0.8333333333333333
 40
0.8333333333333333
 40
1.0
 40
1.0
 40
1.0
 40
1.0
 10
-29.77653
 20
-16.45933
 30
0.0
 10
-31.19935
 20
-18.01563
 30
0.0
 10
-33.49171
 20
-19.25312
 30
0.0
 10
-35.90387
 20
-20.90483
 30
0.0
 10
-35.47041
 20
-21.38172
 30
0.0
 10
-35.10674
 20
-21.9367
 30
0.0
 10
-34.83646
 20
-22.5608
 30
0.0
 10
-32.61257
 20
-27.6959
 30
0.0
 10
-35.87055
 20
-33.26679
 30
0.0
 10
-38.85568
 20
-40.38588
 30
0.0
 10
-37.56892
 20
-40.20253
 30
0.0
 10
-36.18465
 20
-40.32746
 30
0.0
 10
-34.61794
 20
-40.78576
 30
0.0
 10
-32.64963
 20
-41.36154
 30
0.0
 10
-30.99528
 20
-42.49504
 30
0.0
 10
-29.77653
 20
-43.96377
 30
0.0
 10
-29.77653
 20
-43.96377
 30
0.0
 10
-29.77653
 20
-16.45933
 30
0.0
 10
-29.77653
 20
-16.45933
 30
0.0
  0
SPLINE
  5
8A
330
1F
100
AcDbEntity
  8
Camada 1
 62
   250
370
    20
100
AcDbSpline
210
0.0
220
0.0
230
1.0
 70
    11
 71
     3
 72
    26
 73
    22
 74
     0
 42
0.0000000001
 43
0.0000000001
 40
0.0
 40
0.0
 40
0.0
 40
0.0
 40
0.1428571428571428
 40
0.1428571428571428
 40
0.1428571428571428
 40
0.2857142857142857
 40
0.2857142857142857
 40
0.2857142857142857
 40
0.4285714285714285
 40
0.4285714285714285
 40
0.4285714285714285
 40
0.5714285714285714
 40
0.5714285714285714
 40
0.5714285714285714
 40
0.7142857142857142
 40
0.7142857142857142
 40
0.7142857142857142
 40
0.8571428571428571
 40
0.8571428571428571
 40
0.8571428571428571
 40
1.0
 40
1.0
 40
1.0
 40
1.0
 10
-34.6491
 20
-11.8601
 30
0.0
 10
-33.56703
 20
-10.40022
 30
0.0
 10
-32.6258
 20
-9.74069
 30
0.0
 10
-31.02507
 20
-10.02239
 30
0.0
 10
-30.56354
 20
-10.10361
 30
0.0
 10
-30.14205
 20
-10.27881
 30
0.0
 10
-29.77653
 20
-10.52462
 30
0.0
 10
-29.77653
 20
-10.52462
 30
0.0
 10
-29.77653
 20
-8.26548
 30
0.0
 10
-29.77653
 20
-8.26548
 30
0.0
 10
-29.77653
 20
-8.26548
 30
0.0
 10
-43.49514
 20
-8.26548
 30
0.0
 10
-43.49514
 20
-8.26548
 30
0.0
 10
-42.37293
 20
-8.95091
 30
0.0
 10
-41.53574
 20
-10.01999
 30
0.0
 10
-41.13234
 20
-11.25972
 30
0.0
 10
-40.70392
 20
-9.64629
 30
0.0
 10
-39.10224
 20
-8.60098
 30
0.0
 10
-37.42803
 20
-8.89559
 30
0.0
 10
-35.82729
 20
-9.17729
 30
0.0
 10
-35.16778
 20
-10.11852
 30
0.0
 10
-34.6491
 20
-11.8601
 30
0.0
  0
SPLINE
  5
8B
330
1F
100
AcDbEntity
  8
Camada 1
 62
   250
370
    20
100
AcDbSpline
210
0.0
220
0.0
230
1.0
 70
    11
 71
     3
 72
    23
 73
    19
 74
     0
 42
0.0000000001
 43
0.0000000001
 40
0.0
 40
0.0
 40
0.0
 40
0.0
 40
0.1666666666666667
 40
0.1666666666666667
 40
0.1666666666666667
 40
0.3333333333333333
 40
0.3333333333333333
 40
0.3333333333333333
 40
0.5
 40
0.5
 40
0.5
 40
0.6666666666666666
 40
0.6666666666666666
 40
0.6666666666666666
 40
0.8333333333333333
 40
0.8333333333333333
 40
0.8333333333333333
 40
1.0
 40
1.0
 40
1.0
 40
1.0
 10
-34.15808
 20
-65.38108
 30
0.0
 10
-34.18499
 20
-64.46236
 30
0.0
 10
-34.0174
 20
-63.90575
 30
0.0
 10
-33.29318
 20
-63.51673
 30
0.0
 10
-32.49365
 20
-63.08727
 30
0.0
 10
-31.49621
 20
-63.3876
 30
0.0
 10
-31.06673
 20
-64.18711
 30
0.0
 10
-30.28869
 20
-65.63554
 30
0.0
 10
-31.22507
 20
-67.36682
 30
0.0
 10
-31.89546
 20
-69.59326
 30
0.0
 10
-34.12192
 20
-68.92289
 30
0.0
 10
-36.08238
 20
-68.74769
 30
0.0
 10
-36.86042
 20
-67.29927
 30
0.0
 10
-37.28988
 20
-66.49973
 30
0.0
 10
-36.98955
 20
-65.50229
 30
0.0
 10
-36.19003
 20
-65.07281
 30
0.0
 10
-35.46581
 20
-64.68379
 30
0.0
 10
-34.90921
 20
-64.85138
 30
0.0
 10
-34.15808
 20
-65.38108
 30
0.0
  0
SPLINE
  5
8C
330
1F
100
AcDbEntity
  8
Camada 1
 62
   250
370
    20
100
AcDbSpline
210
0.0
220
0.0
230
1.0
 70
    11
 71
     3
 72
    17
 73
    13
 74
     0
 42
0.0000000001
 43
0.0000000001
 40
0.0
 40
0.0
 40
0.0
 40
0.0
 40
0.25
 40
0.25
 40
0.25
 40
0.5
 40
0.5
 40
0.5
 40
0.75
 40
0.75
 40
0.75
 40
1.0
 40
1.0
 40
1.0
 40
1.0
 10
-34.44202
 20
-69.9062
 30
0.0
 10
-36.49442
 20
-69.34522
 30
0.0
 10
-38.14803
 20
-68.72913
 30
0.0
 10
-38.96363
 20
-67.21078
 30
0.0
 10
-39.36875
 20
-66.45659
 30
0.0
 10
-39.35506
 20
-65.58885
 30
0.0
 10
-39.00315
 20
-64.87485
 30
0.0
 10
-41.92698
 20
-66.5527
 30
0.0
 10
-45.23123
 20
-68.15034
 30
0.0
 10
-48.72106
 20
-69.9062
 30
0.0
 10
-48.72106
 20
-69.9062
 30
0.0
 10
-34.44202
 20
-69.9062
 30
0.0
 10
-34.44202
 20
-69.9062
 30
0.0
  0
SPLINE
  5
8D
330
1F
100
AcDbEntity
  8
Camada 1
 62
   250
370
    20
100
AcDbSpline
210
0.0
220
0.0
230
1.0
 70
    11
 71
     3
 72
    14
 73
    10
 74
     0
 42
0.0000000001
 43
0.0000000001
 40
0.0
 40
0.0
 40
0.0
 40
0.0
 40
0.3333333333333333
 40
0.3333333333333333
 40
0.3333333333333333
 40
0.6666666666666666
 40
0.6666666666666666
 40
0.6666666666666666
 40
1.0
 40
1.0
 40
1.0
 40
1.0
 10
-29.77653
 20
-66.1117
 30
0.0
 10
-30.0602
 20
-67.26393
 30
0.0
 10
-30.53968
 20
-68.52087
 30
0.0
 10
-30.99279
 20
-69.9062
 30
0.0
 10
-30.99279
 20
-69.9062
 30
0.0
 10
-29.77653
 20
-69.9062
 30
0.0
 10
-29.77653
 20
-69.9062
 30
0.0
 10
-29.77653
 20
-69.9062
 30
0.0
 10
-29.77653
 20
-66.1117
 30
0.0
 10
-29.77653
 20
-66.1117
 30
0.0
  0
SPLINE
  5
8E
330
1F
100
AcDbEntity
  8
Camada 1
 62
   250
370
    20
100
AcDbSpline
210
0.0
220
0.0
230
1.0
 70
    11
 71
     3
 72
    23
 73
    19
 74
     0
 42
0.0000000001
 43
0.0000000001
 40
0.0
 40
0.0
 40
0.0
 40
0.0
 40
0.1666666666666667
 40
0.1666666666666667
 40
0.1666666666666667
 40
0.3333333333333333
 40
0.3333333333333333
 40
0.3333333333333333
 40
0.5
 40
0.5
 40
0.5
 40
0.6666666666666666
 40
0.6666666666666666
 40
0.6666666666666666
 40
0.8333333333333333
 40
0.8333333333333333
 40
0.8333333333333333
 40
1.0
 40
1.0
 40
1.0
 40
1.0
 10
-34.77306
 20
-64.23621
 30
0.0
 10
-34.81479
 20
-62.81155
 30
0.0
 10
-34.55489
 20
-61.94838
 30
0.0
 10
-33.43184
 20
-61.34513
 30
0.0
 10
-32.192
 20
-60.67913
 30
0.0
 10
-30.64522
 20
-61.14486
 30
0.0
 10
-29.97922
 20
-62.38471
 30
0.0
 10
-29.90055
 20
-62.53116
 30
0.0
 10
-29.83344
 20
-62.67952
 30
0.0
 10
-29.77653
 20
-62.82979
 30
0.0
 10
-29.77653
 20
-62.82979
 30
0.0
 10
-29.77653
 20
-57.13217
 30
0.0
 10
-29.77653
 20
-57.13217
 30
0.0
 10
-31.4187
 20
-59.58446
 30
0.0
 10
-33.77853
 20
-61.5903
 30
0.0
 10
-36.62524
 20
-63.43134
 30
0.0
 10
-36.03608
 20
-63.46575
 30
0.0
 10
-35.45649
 20
-63.75426
 30
0.0
 10
-34.77306
 20
-64.23621
 30
0.0
  0
SPLINE
  5
8F
330
1F
100
AcDbEntity
  8
Camada 1
 62
   250
370
    20
100
AcDbSpline
210
0.0
220
0.0
230
1.0
 70
    11
 71
     3
 72
    92
 73
    88
 74
     0
 42
0.0000000001
 43
0.0000000001
 40
0.0
 40
0.0
 40
0.0
 40
0.0
 40
0.0344827586206897
 40
0.0344827586206897
 40
0.0344827586206897
 40
0.0689655172413793
 40
0.0689655172413793
 40
0.0689655172413793
 40
0.103448275862069
 40
0.103448275862069
 40
0.103448275862069
 40
0.1379310344827586
 40
0.1379310344827586
 40
0.1379310344827586
 40
0.1724137931034483
 40
0.1724137931034483
 40
0.1724137931034483
 40
0.2068965517241379
 40
0.2068965517241379
 40
0.2068965517241379
 40
0.2413793103448276
 40
0.2413793103448276
 40
0.2413793103448276
 40
0.2758620689655172
 40
0.2758620689655172
 40
0.2758620689655172
 40
0.3103448275862069
 40
0.3103448275862069
 40
0.3103448275862069
 40
0.3448275862068966
 40
0.3448275862068966
 40
0.3448275862068966
 40
0.3793103448275862
 40
0.3793103448275862
 40
0.3793103448275862
 40
0.4137931034482759
 40
0.4137931034482759
 40
0.4137931034482759
 40
0.4482758620689655
 40
0.4482758620689655
 40
0.4482758620689655
 40
0.4827586206896551
 40
0.4827586206896551
 40
0.4827586206896551
 40
0.5172413793103449
 40
0.5172413793103449
 40
0.5172413793103449
 40
0.5517241379310345
 40
0.5517241379310345
 40
0.5517241379310345
 40
0.5862068965517241
 40
0.5862068965517241
 40
0.5862068965517241
 40
0.6206896551724138
 40
0.6206896551724138
 40
0.6206896551724138
 40
0.6551724137931034
 40
0.6551724137931034
 40
0.6551724137931034
 40
0.6896551724137931
 40
0.6896551724137931
 40
0.6896551724137931
 40
0.7241379310344828
 40
0.7241379310344828
 40
0.7241379310344828
 40
0.7586206896551724
 40
0.7586206896551724
 40
0.7586206896551724
 40
0.7931034482758621
 40
0.7931034482758621
 40
0.7931034482758621
 40
0.8275862068965517
 40
0.8275862068965517
 40
0.8275862068965517
 40
0.8620689655172413
 40
0.8620689655172413
 40
0.8620689655172413
 40
0.896551724137931
 40
0.896551724137931
 40
0.896551724137931
 40
0.9310344827586207
 40
0.9310344827586207
 40
0.9310344827586207
 40
0.9655172413793103
 40
0.9655172413793103
 40
0.9655172413793103
 40
1.0
 40
1.0
 40
1.0
 40
1.0
 10
-23.7
 20
-47.44419
 30
0.0
 10
-23.7
 20
-47.44419
 30
0.0
 10
-23.1
 20
-47.44419
 30
0.0
 10
-23.1
 20
-47.44419
 30
0.0
 10
-23.1
 20
-47.44419
 30
0.0
 10
-23.1
 20
-31.62946
 30
0.0
 10
-23.1
 20
-31.62946
 30
0.0
 10
-23.1
 20
-31.62946
 30
0.0
 10
-23.7
 20
-31.62946
 30
0.0
 10
-23.7
 20
-31.62946
 30
0.0
 10
-23.7
 20
-31.62946
 30
0.0
 10
-23.7
 20
-15.81473
 30
0.0
 10
-23.7
 20
-15.81473
 30
0.0
 10
-23.7
 20
-15.81473
 30
0.0
 10
-23.1
 20
-15.81473
 30
0.0
 10
-23.1
 20
-15.81473
 30
0.0
 10
-23.1
 20
-15.81473
 30
0.0
 10
-23.1
 20
-0.6
 30
0.0
 10
-23.1
 20
-0.6
 30
0.0
 10
-23.1
 20
-0.6
 30
0.0
 10
-37.39263
 20
-0.6
 30
0.0
 10
-37.39263
 20
-0.6
 30
0.0
 10
-37.39263
 20
-0.6
 30
0.0
 10
-37.39263
 20
0.0
 30
0.0
 10
-37.39263
 20
0.0
 30
0.0
 10
-37.39263
 20
0.0
 30
0.0
 10
-53.80736
 20
0.0
 30
0.0
 10
-53.80736
 20
0.0
 30
0.0
 10
-53.80736
 20
0.0
 30
0.0
 10
-53.80736
 20
-0.6
 30
0.0
 10
-53.80736
 20
-0.6
 30
0.0
 10
-53.80736
 20
-0.6
 30
0.0
 10
-67.5
 20
-0.6
 30
0.0
 10
-67.5
 20
-0.6
 30
0.0
 10
-67.5
 20
-0.6
 30
0.0
 10
-67.5
 20
-15.81473
 30
0.0
 10
-67.5
 20
-15.81473
 30
0.0
 10
-67.5
 20
-15.81473
 30
0.0
 10
-68.1
 20
-15.81473
 30
0.0
 10
-68.1
 20
-15.81473
 30
0.0
 10
-68.1
 20
-15.81473
 30
0.0
 10
-68.1
 20
-31.62946
 30
0.0
 10
-68.1
 20
-31.62946
 30
0.0
 10
-68.1
 20
-31.62946
 30
0.0
 10
-67.5
 20
-31.62946
 30
0.0
 10
-67.5
 20
-31.62946
 30
0.0
 10
-67.5
 20
-31.62946
 30
0.0
 10
-67.5
 20
-47.44419
 30
0.0
 10
-67.5
 20
-47.44419
 30
0.0
 10
-67.5
 20
-47.44419
 30
0.0
 10
-68.1
 20
-47.44419
 30
0.0
 10
-68.1
 20
-47.44419
 30
0.0
 10
-68.1
 20
-47.44419
 30
0.0
 10
-68.1
 20
-63.25892
 30
0.0
 10
-68.1
 20
-63.25892
 30
0.0
 10
-68.1
 20
-63.25892
 30
0.0
 10
-67.5
 20
-63.25892
 30
0.0
 10
-67.5
 20
-63.25892
 30
0.0
 10
-67.5
 20
-63.25892
 30
0.0
 10
-67.5
 20
-79.07365
 30
0.0
 10
-67.5
 20
-79.07365
 30
0.0
 10
-67.5
 20
-79.07365
 30
0.0
 10
-67.5
 20
-80.0
 30
0.0
 10
-67.5
 20
-80.0
 30
0.0
 10
-67.5
 20
-80.0
 30
0.0
 10
-64.32066
 20
-80.0
 30
0.0
 10
-64.32066
 20
-80.0
 30
0.0
 10
-64.32066
 20
-78.97829
 30
0.0
 10
-63.48471
 20
-78.14235
 30
0.0
 10
-62.46301
 20
-78.14235
 30
0.0
 10
-62.46301
 20
-78.14235
 30
0.0
 10
-28.73698
 20
-78.14235
 30
0.0
 10
-28.73698
 20
-78.14235
 30
0.0
 10
-27.71528
 20
-78.14235
 30
0.0
 10
-26.87933
 20
-78.97829
 30
0.0
 10
-26.87933
 20
-80.0
 30
0.0
 10
-26.87933
 20
-80.0
 30
0.0
 10
-23.1
 20
-80.0
 30
0.0
 10
-23.1
 20
-80.0
 30
0.0
 10
-23.1
 20
-80.0
 30
0.0
 10
-23.1
 20
-63.25892
 30
0.0
 10
-23.1
 20
-63.25892
 30
0.0
 10
-23.1
 20
-63.25892
 30
0.0
 10
-23.7
 20
-63.25892
 30
0.0
 10
-23.7
 20
-63.25892
 30
0.0
 10
-23.7
 20
-63.25892
 30
0.0
 10
-23.7
 20
-47.44419
 30
0.0
 10
-23.7
 20
-47.44419
 30
0.0
  0
SPLINE
  5
90
330
1F
100
AcDbEntity
  8
Camada 1
 62
   250
370
    20
100
AcDbSpline
210
0.0
220
0.0
230
1.0
 70
    11
 71
     3
 72
    23
 73
    19
 74
     0
 42
0.0000000001
 43
0.0000000001
 40
0.0
 40
0.0
 40
0.0
 40
0.0
 40
0.1666666666666667
 40
0.1666666666666667
 40
0.1666666666666667
 40
0.3333333333333333
 40
0.3333333333333333
 40
0.3333333333333333
 40
0.5
 40
0.5
 40
0.5
 40
0.6666666666666666
 40
0.6666666666666666
 40
0.6666666666666666
 40
0.8333333333333333
 40
0.8333333333333333
 40
0.8333333333333333
 40
1.0
 40
1.0
 40
1.0
 40
1.0
 10
-2.04682
 20
-49.99399
 30
0.0
 10
0.38601
 20
-47.37325
 30
0.0
 10
2.36986
 20
-46.28738
 30
0.0
 10
5.43957
 20
-47.18534
 30
0.0
 10
8.82855
 20
-48.1767
 30
0.0
 10
10.77444
 20
-51.73174
 30
0.0
 10
9.7831
 20
-55.1207
 30
0.0
 10
7.98717
 20
-61.26016
 30
0.0
 10
0.66578
 20
-63.50471
 30
0.0
 10
-7.26958
 20
-67.84823
 30
0.0
 10
-11.61309
 20
-59.91287
 30
0.0
 10
-16.57062
 20
-54.07646
 30
0.0
 10
-14.77468
 20
-47.937
 30
0.0
 10
-13.78334
 20
-44.54803
 30
0.0
 10
-10.22829
 20
-42.60214
 30
0.0
 10
-6.8393
 20
-43.59349
 30
0.0
 10
-3.76959
 20
-44.49146
 30
0.0
 10
-2.6837
 20
-46.47529
 30
0.0
 10
-2.04682
 20
-49.99399
 30
0.0
  0
SPLINE
  5
91
330
1F
100
AcDbEntity
  8
Camada 1
 62
   250
370
    20
100
AcDbSpline
210
0.0
220
0.0
230
1.0
 70
    11
 71
     3
 72
    14
 73
    10
 74
     0
 42
0.0000000001
 43
0.0000000001
 40
0.0
 40
0.0
 40
0.0
 40
0.0
 40
0.3333333333333333
 40
0.3333333333333333
 40
0.3333333333333333
 40
0.6666666666666666
 40
0.6666666666666666
 40
0.6666666666666666
 40
1.0
 40
1.0
 40
1.0
 40
1.0
 10
-10.3724
 20
-69.9062
 30
0.0
 10
-12.26935
 20
-66.62059
 30
0.0
 10
-14.16849
 20
-63.56359
 30
0.0
 10
-15.82347
 20
-60.65534
 30
0.0
 10
-15.82347
 20
-60.65534
 30
0.0
 10
-15.82347
 20
-69.9062
 30
0.0
 10
-15.82347
 20
-69.9062
 30
0.0
 10
-15.82347
 20
-69.9062
 30
0.0
 10
-10.3724
 20
-69.9062
 30
0.0
 10
-10.3724
 20
-69.9062
 30
0.0
  0
SPLINE
  5
92
330
1F
100
AcDbEntity
  8
Camada 1
 62
   250
370
    20
100
AcDbSpline
210
0.0
220
0.0
230
1.0
 70
    11
 71
     3
 72
    23
 73
    19
 74
     0
 42
0.0000000001
 43
0.0000000001
 40
0.0
 40
0.0
 40
0.0
 40
0.0
 40
0.1666666666666667
 40
0.1666666666666667
 40
0.1666666666666667
 40
0.3333333333333333
 40
0.3333333333333333
 40
0.3333333333333333
 40
0.5
 40
0.5
 40
0.5
 40
0.6666666666666666
 40
0.6666666666666666
 40
0.6666666666666666
 40
0.8333333333333333
 40
0.8333333333333333
 40
0.8333333333333333
 40
1.0
 40
1.0
 40
1.0
 40
1.0
 10
0.3398
 20
-28.77831
 30
0.0
 10
0.45897
 20
-26.61214
 30
0.0
 10
0.96371
 20
-25.33628
 30
0.0
 10
2.7443
 20
-24.56515
 30
0.0
 10
4.71009
 20
-23.71383
 30
0.0
 10
6.99643
 20
-24.6183
 30
0.0
 10
7.84776
 20
-26.58407
 30
0.0
 10
9.39004
 20
-30.14527
 30
0.0
 10
6.84383
 20
-34.03123
 30
0.0
 10
4.8249
 20
-39.13468
 30
0.0
 10
-0.27854
 20
-37.11576
 30
0.0
 10
-4.85475
 20
-36.31434
 30
0.0
 10
-6.39702
 20
-32.75314
 30
0.0
 10
-7.24834
 20
-30.78736
 30
0.0
 10
-6.34386
 20
-28.50101
 30
0.0
 10
-4.37808
 20
-27.64968
 30
0.0
 10
-2.59748
 20
-26.87855
 30
0.0
 10
-1.32162
 20
-27.38327
 30
0.0
 10
0.3398
 20
-28.77831
 30
0.0
  0
SPLINE
  5
93
330
1F
100
AcDbEntity
  8
Camada 1
 62
   250
370
    20
100
AcDbSpline
210
0.0
220
0.0
230
1.0
 70
    11
 71
     3
 72
    14
 73
    10
 74
     0
 42
0.0000000001
 43
0.0000000001
 40
0.0
 40
0.0
 40
0.0
 40
0.0
 40
0.3333333333333333
 40
0.3333333333333333
 40
0.3333333333333333
 40
0.6666666666666666
 40
0.6666666666666666
 40
0.6666666666666666
 40
1.0
 40
1.0
 40
1.0
 40
1.0
 10
4.07108
 20
-41.25977
 30
0.0
 10
1.59901
 20
-40.34911
 30
0.0
 10
-0.75617
 20
-39.57704
 30
0.0
 10
-2.86769
 20
-38.74315
 30
0.0
 10
-1.76532
 20
-40.35711
 30
0.0
 10
-1.11221
 20
-42.46208
 30
0.0
 10
-0.62727
 20
-45.14122
 30
0.0
 10
1.0049
 20
-43.38297
 30
0.0
 10
2.50679
 20
-42.0706
 30
0.0
 10
4.07108
 20
-41.25977
 30
0.0
  0
SPLINE
  5
94
330
1F
100
AcDbEntity
  8
Camada 1
 62
   250
370
    20
100
AcDbSpline
210
0.0
220
0.0
230
1.0
 70
    11
 71
     3
 72
    23
 73
    19
 74
     0
 42
0.0000000001
 43
0.0000000001
 40
0.0
 40
0.0
 40
0.0
 40
0.0
 40
0.1666666666666667
 40
0.1666666666666667
 40
0.1666666666666667
 40
0.3333333333333333
 40
0.3333333333333333
 40
0.3333333333333333
 40
0.5
 40
0.5
 40
0.5
 40
0.6666666666666666
 40
0.6666666666666666
 40
0.6666666666666666
 40
0.8333333333333333
 40
0.8333333333333333
 40
0.8333333333333333
 40
1.0
 40
1.0
 40
1.0
 40
1.0
 10
-6.40705
 20
-13.40486
 30
0.0
 10
-5.2288
 20
-11.81521
 30
0.0
 10
-4.20392
 20
-11.09707
 30
0.0
 10
-2.46092
 20
-11.40381
 30
0.0
 10
-0.53661
 20
-11.74246
 30
0.0
 10
0.75028
 20
-13.57902
 30
0.0
 10
0.41165
 20
-15.50331
 30
0.0
 10
-0.20181
 20
-18.98935
 30
0.0
 10
-4.0916
 20
-20.67011
 30
0.0
 10
-8.1911
 20
-23.54266
 30
0.0
 10
-11.06365
 20
-19.44317
 30
0.0
 10
-14.14597
 20
-16.53547
 30
0.0
 10
-13.53249
 20
-13.04942
 30
0.0
 10
-13.19384
 20
-11.12514
 30
0.0
 10
-11.35726
 20
-9.83823
 30
0.0
 10
-9.43298
 20
-10.17687
 30
0.0
 10
-7.68995
 20
-10.48362
 30
0.0
 10
-6.9718
 20
-11.50847
 30
0.0
 10
-6.40705
 20
-13.40486
 30
0.0
  0
SPLINE
  5
95
330
1F
100
AcDbEntity
  8
Camada 1
 62
   250
370
    20
100
AcDbSpline
210
0.0
220
0.0
230
1.0
 70
    11
 71
     3
 72
    20
 73
    16
 74
     0
 42
0.0000000001
 43
0.0000000001
 40
0.0
 40
0.0
 40
0.0
 40
0.0
 40
0.2
 40
0.2
 40
0.2
 40
0.4
 40
0.4
 40
0.4
 40
0.6000000000000001
 40
0.6000000000000001
 40
0.6000000000000001
 40
0.8
 40
0.8
 40
0.8
 40
1.0
 40
1.0
 40
1.0
 40
1.0
 10
-9.61566
 20
-25.07718
 30
0.0
 10
-12.03038
 20
-21.77442
 30
0.0
 10
-14.41778
 20
-18.95518
 30
0.0
 10
-15.82347
 20
-16.18747
 30
0.0
 10
-15.82347
 20
-16.18747
 30
0.0
 10
-15.82347
 20
-36.15897
 30
0.0
 10
-15.82347
 20
-36.15897
 30
0.0
 10
-13.93184
 20
-35.0613
 30
0.0
 10
-11.68262
 20
-34.58659
 30
0.0
 10
-9.41384
 20
-34.91958
 30
0.0
 10
-10.21133
 20
-34.12133
 30
0.0
 10
-10.85892
 20
-33.20631
 30
0.0
 10
-11.32619
 20
-32.12734
 30
0.0
 10
-12.41951
 20
-29.60279
 30
0.0
 10
-11.64543
 20
-26.73731
 30
0.0
 10
-9.61566
 20
-25.07718
 30
0.0
  0
SPLINE
  5
96
330
1F
100
AcDbEntity
  8
Camada 1
 62
   250
370
    20
100
AcDbSpline
210
0.0
220
0.0
230
1.0
 70
    11
 71
     3
 72
    14
 73
    10
 74
     0
 42
0.0000000001
 43
0.0000000001
 40
0.0
 40
0.0
 40
0.0
 40
0.0
 40
0.3333333333333333
 40
0.3333333333333333
 40
0.3333333333333333
 40
0.6666666666666666
 40
0.6666666666666666
 40
0.6666666666666666
 40
1.0
 40
1.0
 40
1.0
 40
1.0
 10
-5.92215
 20
-10.6494
 30
0.0
 10
-5.14965
 20
-9.60717
 30
0.0
 10
-4.41964
 20
-8.80658
 30
0.0
 10
-3.63002
 20
-8.26548
 30
0.0
 10
-3.63002
 20
-8.26548
 30
0.0
 10
-6.86283
 20
-8.26548
 30
0.0
 10
-6.86283
 20
-8.26548
 30
0.0
 10
-6.49754
 20
-8.93104
 30
0.0
 10
-6.19802
 20
-9.72311
 30
0.0
 10
-5.92215
 20
-10.6494
 30
0.0
  0
SPLINE
  5
97
330
1F
100
AcDbEntity
  8
Camada 1
 62
   250
370
    20
100
AcDbSpline
210
0.0
220
0.0
230
1.0
 70
    11
 71
     3
 72
    23
 73
    19
 74
     0
 42
0.0000000001
 43
0.0000000001
 40
0.0
 40
0.0
 40
0.0
 40
0.0
 40
0.1666666666666667
 40
0.1666666666666667
 40
0.1666666666666667
 40
0.3333333333333333
 40
0.3333333333333333
 40
0.3333333333333333
 40
0.5
 40
0.5
 40
0.5
 40
0.6666666666666666
 40
0.6666666666666666
 40
0.6666666666666666
 40
0.8333333333333333
 40
0.8333333333333333
 40
0.8333333333333333
 40
1.0
 40
1.0
 40
1.0
 40
1.0
 10
10.66373
 20
-13.49195
 30
0.0
 10
11.36152
 20
-12.55052
 30
0.0
 10
11.96847
 20
-12.12522
 30
0.0
 10
13.00072
 20
-12.30688
 30
0.0
 10
14.14034
 20
-12.50744
 30
0.0
 10
14.90246
 20
-13.59509
 30
0.0
 10
14.70192
 20
-14.7347
 30
0.0
 10
14.33861
 20
-16.79921
 30
0.0
 10
12.03499
 20
-17.7946
 30
0.0
 10
9.60717
 20
-19.49579
 30
0.0
 10
7.90598
 20
-17.06797
 30
0.0
 10
6.08056
 20
-15.34597
 30
0.0
 10
6.44388
 20
-13.28145
 30
0.0
 10
6.64444
 20
-12.14185
 30
0.0
 10
7.7321
 20
-11.37971
 30
0.0
 10
8.8717
 20
-11.58026
 30
0.0
 10
9.90397
 20
-11.76192
 30
0.0
 10
10.32927
 20
-12.36886
 30
0.0
 10
10.66373
 20
-13.49195
 30
0.0
  0
SPLINE
  5
98
330
1F
100
AcDbEntity
  8
Camada 1
 62
   250
370
    20
100
AcDbSpline
210
0.0
220
0.0
230
1.0
 70
    11
 71
     3
 72
    20
 73
    16
 74
     0
 42
0.0000000001
 43
0.0000000001
 40
0.0
 40
0.0
 40
0.0
 40
0.0
 40
0.2
 40
0.2
 40
0.2
 40
0.4
 40
0.4
 40
0.4
 40
0.6000000000000001
 40
0.6000000000000001
 40
0.6000000000000001
 40
0.8
 40
0.8
 40
0.8
 40
1.0
 40
1.0
 40
1.0
 40
1.0
 10
8.28958
 20
-19.76458
 30
0.0
 10
6.71173
 20
-17.6574
 30
0.0
 10
5.2314
 20
-15.86905
 30
0.0
 10
4.62454
 20
-14.04794
 30
0.0
 10
3.81133
 20
-18.22794
 30
0.0
 10
-0.07011
 20
-20.72866
 30
0.0
 10
-4.75986
 20
-23.75843
 30
0.0
 10
-3.49546
 20
-24.0249
 30
0.0
 10
-2.27509
 20
-24.79142
 30
0.0
 10
-0.87924
 20
-25.96345
 30
0.0
 10
-0.69445
 20
-22.60433
 30
0.0
 10
0.08826
 20
-20.62581
 30
0.0
 10
2.84947
 20
-19.42999
 30
0.0
 10
4.68017
 20
-18.63716
 30
0.0
 10
6.68999
 20
-18.82666
 30
0.0
 10
8.28958
 20
-19.76458
 30
0.0
  0
SPLINE
  5
99
330
1F
100
AcDbEntity
  8
Camada 1
 62
   250
370
    20
100
AcDbSpline
210
0.0
220
0.0
230
1.0
 70
    11
 71
     3
 72
    23
 73
    19
 74
     0
 42
0.0000000001
 43
0.0000000001
 40
0.0
 40
0.0
 40
0.0
 40
0.0
 40
0.1666666666666667
 40
0.1666666666666667
 40
0.1666666666666667
 40
0.3333333333333333
 40
0.3333333333333333
 40
0.3333333333333333
 40
0.5
 40
0.5
 40
0.5
 40
0.6666666666666666
 40
0.6666666666666666
 40
0.6666666666666666
 40
0.8333333333333333
 40
0.8333333333333333
 40
0.8333333333333333
 40
1.0
 40
1.0
 40
1.0
 40
1.0
 10
15.82347
 20
-16.45933
 30
0.0
 10
14.40065
 20
-18.01563
 30
0.0
 10
12.10829
 20
-19.25312
 30
0.0
 10
9.69613
 20
-20.90483
 30
0.0
 10
10.12959
 20
-21.38172
 30
0.0
 10
10.49326
 20
-21.9367
 30
0.0
 10
10.76354
 20
-22.5608
 30
0.0
 10
12.98743
 20
-27.6959
 30
0.0
 10
9.72945
 20
-33.26679
 30
0.0
 10
6.74432
 20
-40.38588
 30
0.0
 10
8.03108
 20
-40.20253
 30
0.0
 10
9.41535
 20
-40.32746
 30
0.0
 10
10.98206
 20
-40.78576
 30
0.0
 10
12.95037
 20
-41.36154
 30
0.0
 10
14.60472
 20
-42.49504
 30
0.0
 10
15.82347
 20
-43.96377
 30
0.0
 10
15.82347
 20
-43.96377
 30
0.0
 10
15.82347
 20
-16.45933
 30
0.0
 10
15.82347
 20
-16.45933
 30
0.0
  0
SPLINE
  5
9A
330
1F
100
AcDbEntity
  8
Camada 1
 62
   250
370
    20
100
AcDbSpline
210
0.0
220
0.0
230
1.0
 70
    11
 71
     3
 72
    26
 73
    22
 74
     0
 42
0.0000000001
 43
0.0000000001
 40
0.0
 40
0.0
 40
0.0
 40
0.0
 40
0.1428571428571428
 40
0.1428571428571428
 40
0.1428571428571428
 40
0.2857142857142857
 40
0.2857142857142857
 40
0.2857142857142857
 40
0.4285714285714285
 40
0.4285714285714285
 40
0.4285714285714285
 40
0.5714285714285714
 40
0.5714285714285714
 40
0.5714285714285714
 40
0.7142857142857142
 40
0.7142857142857142
 40
0.7142857142857142
 40
0.8571428571428571
 40
0.8571428571428571
 40
0.8571428571428571
 40
1.0
 40
1.0
 40
1.0
 40
1.0
 10
10.9509
 20
-11.8601
 30
0.0
 10
12.03297
 20
-10.40022
 30
0.0
 10
12.9742
 20
-9.74069
 30
0.0
 10
14.57493
 20
-10.02239
 30
0.0
 10
15.03646
 20
-10.10361
 30
0.0
 10
15.45795
 20
-10.27881
 30
0.0
 10
15.82347
 20
-10.52462
 30
0.0
 10
15.82347
 20
-10.52462
 30
0.0
 10
15.82347
 20
-8.26548
 30
0.0
 10
15.82347
 20
-8.26548
 30
0.0
 10
15.82347
 20
-8.26548
 30
0.0
 10
2.10486
 20
-8.26548
 30
0.0
 10
2.10486
 20
-8.26548
 30
0.0
 10
3.22707
 20
-8.95091
 30
0.0
 10
4.06426
 20
-10.01999
 30
0.0
 10
4.46766
 20
-11.25972
 30
0.0
 10
4.89608
 20
-9.64629
 30
0.0
 10
6.49776
 20
-8.60098
 30
0.0
 10
8.17197
 20
-8.89559
 30
0.0
 10
9.77271
 20
-9.17729
 30
0.0
 10
10.43222
 20
-10.11852
 30
0.0
 10
10.9509
 20
-11.8601
 30
0.0
  0
SPLINE
  5
9B
330
1F
100
AcDbEntity
  8
Camada 1
 62
   250
370
    20
100
AcDbSpline
210
0.0
220
0.0
230
1.0
 70
    11
 71
     3
 72
    23
 73
    19
 74
     0
 42
0.0000000001
 43
0.0000000001
 40
0.0
 40
0.0
 40
0.0
 40
0.0
 40
0.1666666666666667
 40
0.1666666666666667
 40
0.1666666666666667
 40
0.3333333333333333
 40
0.3333333333333333
 40
0.3333333333333333
 40
0.5
 40
0.5
 40
0.5
 40
0.6666666666666666
 40
0.6666666666666666
 40
0.6666666666666666
 40
0.8333333333333333
 40
0.8333333333333333
 40
0.8333333333333333
 40
1.0
 40
1.0
 40
1.0
 40
1.0
 10
11.44192
 20
-65.38108
 30
0.0
 10
11.41501
 20
-64.46236
 30
0.0
 10
11.5826
 20
-63.90575
 30
0.0
 10
12.30682
 20
-63.51673
 30
0.0
 10
13.10635
 20
-63.08727
 30
0.0
 10
14.10379
 20
-63.3876
 30
0.0
 10
14.53327
 20
-64.18711
 30
0.0
 10
15.31131
 20
-65.63554
 30
0.0
 10
14.37493
 20
-67.36682
 30
0.0
 10
13.70454
 20
-69.59326
 30
0.0
 10
11.47808
 20
-68.92289
 30
0.0
 10
9.51762
 20
-68.74769
 30
0.0
 10
8.73958
 20
-67.29927
 30
0.0
 10
8.31012
 20
-66.49973
 30
0.0
 10
8.61045
 20
-65.50229
 30
0.0
 10
9.40997
 20
-65.07281
 30
0.0
 10
10.13419
 20
-64.68379
 30
0.0
 10
10.69079
 20
-64.85138
 30
0.0
 10
11.44192
 20
-65.38108
 30
0.0
  0
SPLINE
  5
9C
330
1F
100
AcDbEntity
  8
Camada 1
 62
   250
370
    20
100
AcDbSpline
210
0.0
220
0.0
230
1.0
 70
    11
 71
     3
 72
    17
 73
    13
 74
     0
 42
0.0000000001
 43
0.0000000001
 40
0.0
 40
0.0
 40
0.0
 40
0.0
 40
0.25
 40
0.25
 40
0.25
 40
0.5
 40
0.5
 40
0.5
 40
0.75
 40
0.75
 40
0.75
 40
1.0
 40
1.0
 40
1.0
 40
1.0
 10
11.15798
 20
-69.9062
 30
0.0
 10
9.10558
 20
-69.34522
 30
0.0
 10
7.45197
 20
-68.72913
 30
0.0
 10
6.63637
 20
-67.21078
 30
0.0
 10
6.23125
 20
-66.45659
 30
0.0
 10
6.24494
 20
-65.58885
 30
0.0
 10
6.59685
 20
-64.87485
 30
0.0
 10
3.67302
 20
-66.5527
 30
0.0
 10
0.36877
 20
-68.15034
 30
0.0
 10
-3.12106
 20
-69.9062
 30
0.0
 10
-3.12106
 20
-69.9062
 30
0.0
 10
11.15798
 20
-69.9062
 30
0.0
 10
11.15798
 20
-69.9062
 30
0.0
  0
SPLINE
  5
9D
330
1F
100
AcDbEntity
  8
Camada 1
 62
   250
370
    20
100
AcDbSpline
210
0.0
220
0.0
230
1.0
 70
    11
 71
     3
 72
    14
 73
    10
 74
     0
 42
0.0000000001
 43
0.0000000001
 40
0.0
 40
0.0
 40
0.0
 40
0.0
 40
0.3333333333333333
 40
0.3333333333333333
 40
0.3333333333333333
 40
0.6666666666666666
 40
0.6666666666666666
 40
0.6666666666666666
 40
1.0
 40
1.0
 40
1.0
 40
1.0
 10
15.82347
 20
-66.1117
 30
0.0
 10
15.5398
 20
-67.26393
 30
0.0
 10
15.06032
 20
-68.52087
 30
0.0
 10
14.60721
 20
-69.9062
 30
0.0
 10
14.60721
 20
-69.9062
 30
0.0
 10
15.82347
 20
-69.9062
 30
0.0
 10
15.82347
 20
-69.9062
 30
0.0
 10
15.82347
 20
-69.9062
 30
0.0
 10
15.82347
 20
-66.1117
 30
0.0
 10
15.82347
 20
-66.1117
 30
0.0
  0
SPLINE
  5
9E
330
1F
100
AcDbEntity
  8
Camada 1
 62
   250
370
    20
100
AcDbSpline
210
0.0
220
0.0
230
1.0
 70
    11
 71
     3
 72
    23
 73
    19
 74
     0
 42
0.0000000001
 43
0.0000000001
 40
0.0
 40
0.0
 40
0.0
 40
0.0
 40
0.1666666666666667
 40
0.1666666666666667
 40
0.1666666666666667
 40
0.3333333333333333
 40
0.3333333333333333
 40
0.3333333333333333
 40
0.5
 40
0.5
 40
0.5
 40
0.6666666666666666
 40
0.6666666666666666
 40
0.6666666666666666
 40
0.8333333333333333
 40
0.8333333333333333
 40
0.8333333333333333
 40
1.0
 40
1.0
 40
1.0
 40
1.0
 10
10.82694
 20
-64.23621
 30
0.0
 10
10.78521
 20
-62.81155
 30
0.0
 10
11.04511
 20
-61.94838
 30
0.0
 10
12.16816
 20
-61.34513
 30
0.0
 10
13.408
 20
-60.67913
 30
0.0
 10
14.95478
 20
-61.14486
 30
0.0
 10
15.62078
 20
-62.38471
 30
0.0
 10
15.69945
 20
-62.53116
 30
0.0
 10
15.76656
 20
-62.67952
 30
0.0
 10
15.82347
 20
-62.82979
 30
0.0
 10
15.82347
 20
-62.82979
 30
0.0
 10
15.82347
 20
-57.13217
 30
0.0
 10
15.82347
 20
-57.13217
 30
0.0
 10
14.1813
 20
-59.58446
 30
0.0
 10
11.82147
 20
-61.5903
 30
0.0
 10
8.97476
 20
-63.43134
 30
0.0
 10
9.56392
 20
-63.46575
 30
0.0
 10
10.14351
 20
-63.75426
 30
0.0
 10
10.82694
 20
-64.23621
 30
0.0
  0
SPLINE
  5
9F
330
1F
100
AcDbEntity
  8
Camada 1
 62
   250
370
    20
100
AcDbSpline
210
0.0
220
0.0
230
1.0
 70
    11
 71
     3
 72
    92
 73
    88
 74
     0
 42
0.0000000001
 43
0.0000000001
 40
0.0
 40
0.0
 40
0.0
 40
0.0
 40
0.0344827586206897
 40
0.0344827586206897
 40
0.0344827586206897
 40
0.0689655172413793
 40
0.0689655172413793
 40
0.0689655172413793
 40
0.103448275862069
 40
0.103448275862069
 40
0.103448275862069
 40
0.1379310344827586
 40
0.1379310344827586
 40
0.1379310344827586
 40
0.1724137931034483
 40
0.1724137931034483
 40
0.1724137931034483
 40
0.2068965517241379
 40
0.2068965517241379
 40
0.2068965517241379
 40
0.2413793103448276
 40
0.2413793103448276
 40
0.2413793103448276
 40
0.2758620689655172
 40
0.2758620689655172
 40
0.2758620689655172
 40
0.3103448275862069
 40
0.3103448275862069
 40
0.3103448275862069
 40
0.3448275862068966
 40
0.3448275862068966
 40
0.3448275862068966
 40
0.3793103448275862
 40
0.3793103448275862
 40
0.3793103448275862
 40
0.4137931034482759
 40
0.4137931034482759
 40
0.4137931034482759
 40
0.4482758620689655
 40
0.4482758620689655
 40
0.4482758620689655
 40
0.4827586206896551
 40
0.4827586206896551
 40
0.4827586206896551
 40
0.5172413793103449
 40
0.5172413793103449
 40
0.5172413793103449
 40
0.5517241379310345
 40
0.5517241379310345
 40
0.5517241379310345
 40
0.5862068965517241
 40
0.5862068965517241
 40
0.5862068965517241
 40
0.6206896551724138
 40
0.6206896551724138
 40
0.6206896551724138
 40
0.6551724137931034
 40
0.6551724137931034
 40
0.6551724137931034
 40
0.6896551724137931
 40
0.6896551724137931
 40
0.6896551724137931
 40
0.7241379310344828
 40
0.7241379310344828
 40
0.7241379310344828
 40
0.7586206896551724
 40
0.7586206896551724
 40
0.7586206896551724
 40
0.7931034482758621
 40
0.7931034482758621
 40
0.7931034482758621
 40
0.8275862068965517
 40
0.8275862068965517
 40
0.8275862068965517
 40
0.8620689655172413
 40
0.8620689655172413
 40
0.8620689655172413
 40
0.896551724137931
 40
0.896551724137931
 40
0.896551724137931
 40
0.9310344827586207
 40
0.9310344827586207
 40
0.9310344827586207
 40
0.9655172413793103
 40
0.9655172413793103
 40
0.9655172413793103
 40
1.0
 40
1.0
 40
1.0
 40
1.0
 10
21.9
 20
-47.44419
 30
0.0
 10
21.9
 20
-47.44419
 30
0.0
 10
22.5
 20
-47.44419
 30
0.0
 10
22.5
 20
-47.44419
 30
0.0
 10
22.5
 20
-47.44419
 30
0.0
 10
22.5
 20
-31.62946
 30
0.0
 10
22.5
 20
-31.62946
 30
0.0
 10
22.5
 20
-31.62946
 30
0.0
 10
21.9
 20
-31.62946
 30
0.0
 10
21.9
 20
-31.62946
 30
0.0
 10
21.9
 20
-31.62946
 30
0.0
 10
21.9
 20
-15.81473
 30
0.0
 10
21.9
 20
-15.81473
 30
0.0
 10
21.9
 20
-15.81473
 30
0.0
 10
22.5
 20
-15.81473
 30
0.0
 10
22.5
 20
-15.81473
 30
0.0
 10
22.5
 20
-15.81473
 30
0.0
 10
22.5
 20
-0.6
 30
0.0
 10
22.5
 20
-0.6
 30
0.0
 10
22.5
 20
-0.6
 30
0.0
 10
8.20737
 20
-0.6
 30
0.0
 10
8.20737
 20
-0.6
 30
0.0
 10
8.20737
 20
-0.6
 30
0.0
 10
8.20737
 20
0.0
 30
0.0
 10
8.20737
 20
0.0
 30
0.0
 10
8.20737
 20
0.0
 30
0.0
 10
-8.20736
 20
0.0
 30
0.0
 10
-8.20736
 20
0.0
 30
0.0
 10
-8.20736
 20
0.0
 30
0.0
 10
-8.20736
 20
-0.6
 30
0.0
 10
-8.20736
 20
-0.6
 30
0.0
 10
-8.20736
 20
-0.6
 30
0.0
 10
-21.9
 20
-0.6
 30
0.0
 10
-21.9
 20
-0.6
 30
0.0
 10
-21.9
 20
-0.6
 30
0.0
 10
-21.9
 20
-15.81473
 30
0.0
 10
-21.9
 20
-15.81473
 30
0.0
 10
-21.9
 20
-15.81473
 30
0.0
 10
-22.5
 20
-15.81473
 30
0.0
 10
-22.5
 20
-15.81473
 30
0.0
 10
-22.5
 20
-15.81473
 30
0.0
 10
-22.5
 20
-31.62946
 30
0.0
 10
-22.5
 20
-31.62946
 30
0.0
 10
-22.5
 20
-31.62946
 30
0.0
 10
-21.9
 20
-31.62946
 30
0.0
 10
-21.9
 20
-31.62946
 30
0.0
 10
-21.9
 20
-31.62946
 30
0.0
 10
-21.9
 20
-47.44419
 30
0.0
 10
-21.9
 20
-47.44419
 30
0.0
 10
-21.9
 20
-47.44419
 30
0.0
 10
-22.5
 20
-47.44419
 30
0.0
 10
-22.5
 20
-47.44419
 30
0.0
 10
-22.5
 20
-47.44419
 30
0.0
 10
-22.5
 20
-63.25892
 30
0.0
 10
-22.5
 20
-63.25892
 30
0.0
 10
-22.5
 20
-63.25892
 30
0.0
 10
-21.9
 20
-63.25892
 30
0.0
 10
-21.9
 20
-63.25892
 30
0.0
 10
-21.9
 20
-63.25892
 30
0.0
 10
-21.9
 20
-79.07365
 30
0.0
 10
-21.9
 20
-79.07365
 30
0.0
 10
-21.9
 20
-79.07365
 30
0.0
 10
-21.9
 20
-80.0
 30
0.0
 10
-21.9
 20
-80.0
 30
0.0
 10
-21.9
 20
-80.0
 30
0.0
 10
-18.72066
 20
-80.0
 30
0.0
 10
-18.72066
 20
-80.0
 30
0.0
 10
-18.72066
 20
-78.97829
 30
0.0
 10
-17.88471
 20
-78.14235
 30
0.0
 10
-16.86301
 20
-78.14235
 30
0.0
 10
-16.86301
 20
-78.14235
 30
0.0
 10
16.86302
 20
-78.14235
 30
0.0
 10
16.86302
 20
-78.14235
 30
0.0
 10
17.88472
 20
-78.14235
 30
0.0
 10
18.72067
 20
-78.97829
 30
0.0
 10
18.72067
 20
-80.0
 30
0.0
 10
18.72067
 20
-80.0
 30
0.0
 10
22.5
 20
-80.0
 30
0.0
 10
22.5
 20
-80.0
 30
0.0
 10
22.5
 20
-80.0
 30
0.0
 10
22.5
 20
-63.25892
 30
0.0
 10
22.5
 20
-63.25892
 30
0.0
 10
22.5
 20
-63.25892
 30
0.0
 10
21.9
 20
-63.25892
 30
0.0
 10
21.9
 20
-63.25892
 30
0.0
 10
21.9
 20
-63.25892
 30
0.0
 10
21.9
 20
-47.44419
 30
0.0
 10
21.9
 20
-47.44419
 30
0.0
  0
SPLINE
  5
A0
330
1F
100
AcDbEntity
  8
Camada 1
 62
   250
370
    20
100
AcDbSpline
210
0.0
220
0.0
230
1.0
 70
    11
 71
     3
 72
    68
 73
    64
 74
     0
 42
0.0000000001
 43
0.0000000001
 40
0.0
 40
0.0
 40
0.0
 40
0.0
 40
0.0476190476190476
 40
0.0476190476190476
 40
0.0476190476190476
 40
0.0952380952380952
 40
0.0952380952380952
 40
0.0952380952380952
 40
0.1428571428571428
 40
0.1428571428571428
 40
0.1428571428571428
 40
0.1904761904761905
 40
0.1904761904761905
 40
0.1904761904761905
 40
0.2380952380952381
 40
0.2380952380952381
 40
0.2380952380952381
 40
0.2857142857142857
 40
0.2857142857142857
 40
0.2857142857142857
 40
0.3333333333333333
 40
0.3333333333333333
 40
0.3333333333333333
 40
0.3809523809523809
 40
0.3809523809523809
 40
0.3809523809523809
 40
0.4285714285714285
 40
0.4285714285714285
 40
0.4285714285714285
 40
0.4761904761904762
 40
0.4761904761904762
 40
0.4761904761904762
 40
0.5238095238095237
 40
0.5238095238095237
 40
0.5238095238095237
 40
0.5714285714285714
 40
0.5714285714285714
 40
0.5714285714285714
 40
0.6190476190476191
 40
0.6190476190476191
 40
0.6190476190476191
 40
0.6666666666666666
 40
0.6666666666666666
 40
0.6666666666666666
 40
0.7142857142857142
 40
0.7142857142857142
 40
0.7142857142857142
 40
0.7619047619047619
 40
0.7619047619047619
 40
0.7619047619047619
 40
0.8095238095238095
 40
0.8095238095238095
 40
0.8095238095238095
 40
0.8571428571428571
 40
0.8571428571428571
 40
0.8571428571428571
 40
0.9047619047619047
 40
0.9047619047619047
 40
0.9047619047619047
 40
0.9523809523809523
 40
0.9523809523809523
 40
0.9523809523809523
 40
1.0
 40
1.0
 40
1.0
 40
1.0
 10
37.39263
 20
79.99999
 30
0.0
 10
37.39263
 20
79.99999
 30
0.0
 10
23.1
 20
80.0
 30
0.0
 10
23.1
 20
80.0
 30
0.0
 10
23.1
 20
80.0
 30
0.0
 10
23.1
 20
79.39999
 30
0.0
 10
23.1
 20
79.39999
 30
0.0
 10
23.1
 20
79.39999
 30
0.0
 10
23.1
 20
65.70737
 30
0.0
 10
23.1
 20
65.70737
 30
0.0
 10
23.1
 20
65.70737
 30
0.0
 10
23.7
 20
65.70737
 30
0.0
 10
23.7
 20
65.70737
 30
0.0
 10
23.7
 20
65.70737
 30
0.0
 10
23.7
 20
49.29262
 30
0.0
 10
23.7
 20
49.29262
 30
0.0
 10
23.7
 20
49.29262
 30
0.0
 10
23.1
 20
49.29262
 30
0.0
 10
23.1
 20
49.29262
 30
0.0
 10
23.1
 20
49.29262
 30
0.0
 10
23.1
 20
35.0
 30
0.0
 10
23.1
 20
35.0
 30
0.0
 10
23.1
 20
35.0
 30
0.0
 10
37.39263
 20
35.0
 30
0.0
 10
37.39263
 20
35.0
 30
0.0
 10
37.39263
 20
35.0
 30
0.0
 10
37.39263
 20
35.6
 30
0.0
 10
37.39263
 20
35.6
 30
0.0
 10
37.39263
 20
35.6
 30
0.0
 10
53.80737
 20
35.6
 30
0.0
 10
53.80737
 20
35.6
 30
0.0
 10
53.80737
 20
35.6
 30
0.0
 10
53.80737
 20
35.0
 30
0.0
 10
53.80737
 20
35.0
 30
0.0
 10
53.80737
 20
35.0
 30
0.0
 10
68.1
 20
35.0
 30
0.0
 10
68.1
 20
35.0
 30
0.0
 10
68.1
 20
35.0
 30
0.0
 10
68.1
 20
49.29263
 30
0.0
 10
68.1
 20
49.29263
 30
0.0
 10
68.1
 20
49.29263
 30
0.0
 10
67.5
 20
49.29263
 30
0.0
 10
67.5
 20
49.29263
 30
0.0
 10
67.5
 20
49.29263
 30
0.0
 10
67.5
 20
65.70736
 30
0.0
 10
67.5
 20
65.70736
 30
0.0
 10
67.5
 20
65.70736
 30
0.0
 10
68.1
 20
65.70736
 30
0.0
 10
68.1
 20
65.70736
 30
0.0
 10
68.1
 20
65.70736
 30
0.0
 10
68.1
 20
79.99999
 30
0.0
 10
68.1
 20
79.99999
 30
0.0
 10
68.1
 20
79.99999
 30
0.0
 10
53.80737
 20
80.0
 30
0.0
 10
53.80737
 20
80.0
 30
0.0
 10
53.80737
 20
80.0
 30
0.0
 10
53.80737
 20
79.39999
 30
0.0
 10
53.80737
 20
79.39999
 30
0.0
 10
53.80737
 20
79.39999
 30
0.0
 10
37.39263
 20
79.39999
 30
0.0
 10
37.39263
 20
79.39999
 30
0.0
 10
37.39263
 20
79.39999
 30
0.0
 10
37.39263
 20
79.99999
 30
0.0
 10
37.39263
 20
79.99999
 30
0.0
  0
ENDSEC
  0
SECTION
  2
OBJECTS
  0
DICTIONARY
  5
C
330
0
100
AcDbDictionary
281
     1
  3
ACAD_DETAILVIEWSTYLE
350
A8
  3
ACAD_GROUP
350
D
  3
ACAD_LAYOUT
350
1A
  3
ACAD_MATERIAL
350
43
  3
ACAD_MLEADERSTYLE
350
5B
  3
ACAD_MLINESTYLE
350
17
  3
ACAD_PLOTSETTINGS
350
19
  3
ACAD_PLOTSTYLENAME
350
E
  3
ACAD_SCALELIST
350
47
  3
ACAD_SECTIONVIEWSTYLE
350
A9
  3
ACAD_TABLESTYLE
350
59
  3
ACAD_VISUALSTYLE
350
2A
  3
ACDB_RECOMPOSE_DATA
350
A5
  3
AcDbVariableDictionary
350
A1
  0
SUN
  5
5D
330
29
100
AcDbSun
 90
        1
290
     0
 63
     7
421
 16777215
 40
1.0
291
     1
 91
  2455826
 92
 54000000
292
     0
 70
     2
 71
   256
280
     1
  0
DICTIONARY
  5
A8
102
{ACAD_REACTORS
330
C
102
}
330
C
100
AcDbDictionary
281
     1
  0
DICTIONARY
  5
D
102
{ACAD_REACTORS
330
C
102
}
330
C
100
AcDbDictionary
281
     1
  0
DICTIONARY
  5
1A
102
{ACAD_REACTORS
330
C
102
}
330
C
100
AcDbDictionary
281
     1
  3
Layout1
350
1E
  3
Layout2
350
26
  3
Model
350
22
  0
DICTIONARY
  5
43
102
{ACAD_REACTORS
330
C
102
}
330
C
100
AcDbDictionary
281
     1
  3
ByBlock
350
45
  3
ByLayer
350
44
  3
Global
350
46
  0
DICTIONARY
  5
5B
102
{ACAD_REACTORS
330
C
102
}
330
C
100
AcDbDictionary
281
     1
  3
Standard
350
5C
  0
DICTIONARY
  5
17
102
{ACAD_REACTORS
330
C
102
}
330
C
100
AcDbDictionary
281
     1
  3
Standard
350
18
  0
DICTIONARY
  5
19
102
{ACAD_REACTORS
330
C
102
}
330
C
100
AcDbDictionary
281
     1
  0
ACDBDICTIONARYWDFLT
  5
E
102
{ACAD_REACTORS
330
C
102
}
330
C
100
AcDbDictionary
281
     1
  3
Normal
350
F
100
AcDbDictionaryWithDefault
340
F
  0
DICTIONARY
  5
47
102
{ACAD_REACTORS
330
C
102
}
330
C
100
AcDbDictionary
281
     1
  3
A0
350
48
  3
A1
350
49
  3
A2
350
4A
  3
A3
350
4B
  3
A4
350
4C
  3
A5
350
4D
  3
A6
350
4E
  3
A7
350
4F
  3
A8
350
50
  3
A9
350
51
  3
B1
350
52
  3
B2
350
53
  3
B3
350
54
  3
B4
350
55
  3
B5
350
56
  3
B6
350
57
  3
B7
350
58
  0
DICTIONARY
  5
A9
102
{ACAD_REACTORS
330
C
102
}
330
C
100
AcDbDictionary
281
     1
  0
DICTIONARY
  5
59
102
{ACAD_REACTORS
330
C
102
}
330
C
100
AcDbDictionary
281
     1
  3
Standard
350
5A
  0
DICTIONARY
  5
2A
102
{ACAD_REACTORS
330
C
102
}
330
C
100
AcDbDictionary
281
     1
  3
2dWireframe
350
2F
  3
Basic
350
32
  3
Brighten
350
36
  3
ColorChange
350
3A
  3
Conceptual
350
34
  3
Dim
350
35
  3
EdgeColorOff
350
3D
  3
Facepattern
350
39
  3
Flat
350
2B
  3
FlatWithEdges
350
2C
  3
Gouraud
350
2D
  3
GouraudWithEdges
350
2E
  3
Hidden
350
31
  3
JitterOff
350
3B
  3
Linepattern
350
38
  3
OverhangOff
350
3C
  3
Realistic
350
33
  3
Shaded
350
42
  3
Shaded with edges
350
41
  3
Shades of Gray
350
3E
  3
Sketchy
350
3F
  3
Thicken
350
37
  3
Wireframe
350
30
  3
X-Ray
350
40
  0
XRECORD
  5
A5
102
{ACAD_REACTORS
330
C
102
}
330
C
100
AcDbXrecord
280
     1
 90
        1
330
5A
  0
DICTIONARY
  5
A1
102
{ACAD_REACTORS
330
C
102
}
330
C
100
AcDbDictionary
281
     1
  3
CANNOSCALE
350
A2
  3
CMLEADERSTYLE
350
A7
  3
CTABLESTYLE
350
A6
  0
LAYOUT
  5
1E
102
{ACAD_REACTORS
330
1A
102
}
330
1A
100
AcDbPlotSettings
  1

  2
none_device
  4

  6

 40
0.0
 41
0.0
 42
0.0
 43
0.0
 44
0.0
 45
0.0
 46
0.0
 47
0.0
 48
0.0
 49
0.0
140
0.0
141
0.0
142
1.0
143
1.0
 70
   688
 72
     0
 73
     0
 74
     5
  7

 75
    16
 76
     0
 77
     2
 78
   300
147
1.0
148
0.0
149
0.0
100
AcDbLayout
  1
Layout1
 70
     1
 71
     1
 10
0.0
 20
0.0
 11
12.0
 21
9.0
 12
0.0
 22
0.0
 32
0.0
 14
1.000000000000000E+20
 24
1.000000000000000E+20
 34
1.000000000000000E+20
 15
-1.000000000000000E+20
 25
-1.000000000000000E+20
 35
-1.000000000000000E+20
146
0.0
 13
0.0
 23
0.0
 33
0.0
 16
1.0
 26
0.0
 36
0.0
 17
0.0
 27
1.0
 37
0.0
 76
     0
330
1B
  0
LAYOUT
  5
26
102
{ACAD_REACTORS
330
1A
102
}
330
1A
100
AcDbPlotSettings
  1

  2
none_device
  4

  6

 40
0.0
 41
0.0
 42
0.0
 43
0.0
 44
0.0
 45
0.0
 46
0.0
 47
0.0
 48
0.0
 49
0.0
140
0.0
141
0.0
142
1.0
143
1.0
 70
   688
 72
     0
 73
     0
 74
     5
  7

 75
    16
 76
     0
 77
     2
 78
   300
147
1.0
148
0.0
149
0.0
100
AcDbLayout
  1
Layout2
 70
     1
 71
     2
 10
0.0
 20
0.0
 11
0.0
 21
0.0
 12
0.0
 22
0.0
 32
0.0
 14
0.0
 24
0.0
 34
0.0
 15
0.0
 25
0.0
 35
0.0
146
0.0
 13
0.0
 23
0.0
 33
0.0
 16
1.0
 26
0.0
 36
0.0
 17
0.0
 27
1.0
 37
0.0
 76
     0
330
23
  0
LAYOUT
  5
22
102
{ACAD_REACTORS
330
1A
102
}
330
1A
100
AcDbPlotSettings
  1

  2
none_device
  4
Letter_(8.50_x_11.00_Inches)
  6

 40
6.35
 41
6.35
 42
6.35000508
 43
6.35000508
 44
215.9
 45
279.4
 46
0.0
 47
0.0
 48
0.0
 49
0.0
140
0.0
141
0.0
142
1.0
143
1.0
 70
  1712
 72
     0
 73
     0
 74
     0
  7

 75
     0
 76
     0
 77
     2
 78
   300
147
1.0
148
0.0
149
0.0
100
AcDbLayout
  1
Model
 70
     1
 71
     0
 10
0.0
 20
0.0
 11
12.0
 21
9.0
 12
0.0
 22
0.0
 32
0.0
 14
-68.11
 24
-80.01
 34
0.0
 15
68.11
 25
80.01
 35
0.0
146
0.0
 13
0.0
 23
0.0
 33
0.0
 16
1.0
 26
0.0
 36
0.0
 17
0.0
 27
1.0
 37
0.0
 76
     0
330
1F
331
29
  0
MATERIAL
  5
45
102
{ACAD_REACTORS
330
43
102
}
330
43
100
AcDbMaterial
  1
ByBlock
 72
     1
 94
      127
  0
MATERIAL
  5
44
102
{ACAD_REACTORS
330
43
102
}
330
43
100
AcDbMaterial
  1
ByLayer
 72
     1
 94
      127
  0
MATERIAL
  5
46
102
{ACAD_REACTORS
330
43
102
}
330
43
100
AcDbMaterial
  1
Global
 72
     1
 94
      127
  0
MLEADERSTYLE
  5
5C
102
{ACAD_REACTORS
330
5B
102
}
330
5B
100
AcDbMLeaderStyle
179
     2
170
     2
171
     1
172
     0
 90
        2
 40
0.0
 41
0.0
173
     1
 91
-1056964608
340
14
 92
       -2
290
     1
 42
0.09
291
     1
 43
0.36
  3
Standard
341
0
 44
0.18
300

342
11
174
     1
178
     6
175
     1
176
     0
 93
-1056964608
 45
0.18
292
     0
297
     0
 46
0.18
343
0
 94
-1056964608
 47
1.0
 49
1.0
140
1.0
293
     1
141
0.0
294
     1
177
     0
142
1.0
295
     0
296
     0
143
0.125
271
     0
272
     9
273
     9
298
     0
  0
MLINESTYLE
  5
18
102
{ACAD_REACTORS
330
17
102
}
330
17
100
AcDbMlineStyle
  2
Standard
 70
     0
  3

 62
   256
 51
90.0
 52
90.0
 71
     2
 49
0.5
 62
   256
  6
BYLAYER
 49
-0.5
 62
   256
  6
BYLAYER
  0
ACDBPLACEHOLDER
  5
F
102
{ACAD_REACTORS
330
E
102
}
330
E
  0
SCALE
  5
48
102
{ACAD_REACTORS
330
47
102
}
330
47
100
AcDbScale
 70
     0
300
1:1
140
1.0
141
1.0
290
     1
  0
SCALE
  5
49
102
{ACAD_REACTORS
330
47
102
}
330
47
100
AcDbScale
 70
     0
300
1/128" = 1'-0"
140
0.0078125
141
12.0
290
     0
  0
SCALE
  5
4A
102
{ACAD_REACTORS
330
47
102
}
330
47
100
AcDbScale
 70
     0
300
1/64" = 1'-0"
140
0.015625
141
12.0
290
     0
  0
SCALE
  5
4B
102
{ACAD_REACTORS
330
47
102
}
330
47
100
AcDbScale
 70
     0
300
1/32" = 1'-0"
140
0.03125
141
12.0
290
     0
  0
SCALE
  5
4C
102
{ACAD_REACTORS
330
47
102
}
330
47
100
AcDbScale
 70
     0
300
1/16" = 1'-0"
140
0.0625
141
12.0
290
     0
  0
SCALE
  5
4D
102
{ACAD_REACTORS
330
47
102
}
330
47
100
AcDbScale
 70
     0
300
3/32" = 1'-0"
140
0.09375
141
12.0
290
     0
  0
SCALE
  5
4E
102
{ACAD_REACTORS
330
47
102
}
330
47
100
AcDbScale
 70
     0
300
1/8" = 1'-0"
140
0.125
141
12.0
290
     0
  0
SCALE
  5
4F
102
{ACAD_REACTORS
330
47
102
}
330
47
100
AcDbScale
 70
     0
300
3/16" = 1'-0"
140
0.1875
141
12.0
290
     0
  0
SCALE
  5
50
102
{ACAD_REACTORS
330
47
102
}
330
47
100
AcDbScale
 70
     0
300
1/4" = 1'-0"
140
0.25
141
12.0
290
     0
  0
SCALE
  5
51
102
{ACAD_REACTORS
330
47
102
}
330
47
100
AcDbScale
 70
     0
300
3/8" = 1'-0"
140
0.375
141
12.0
290
     0
  0
SCALE
  5
52
102
{ACAD_REACTORS
330
47
102
}
330
47
100
AcDbScale
 70
     0
300
1/2" = 1'-0"
140
0.5
141
12.0
290
     0
  0
SCALE
  5
53
102
{ACAD_REACTORS
330
47
102
}
330
47
100
AcDbScale
 70
     0
300
3/4" = 1'-0"
140
0.75
141
12.0
290
     0
  0
SCALE
  5
54
102
{ACAD_REACTORS
330
47
102
}
330
47
100
AcDbScale
 70
     0
300
1" = 1'-0"
140
1.0
141
12.0
290
     0
  0
SCALE
  5
55
102
{ACAD_REACTORS
330
47
102
}
330
47
100
AcDbScale
 70
     0
300
1-1/2" = 1'-0"
140
1.5
141
12.0
290
     0
  0
SCALE
  5
56
102
{ACAD_REACTORS
330
47
102
}
330
47
100
AcDbScale
 70
     0
300
3" = 1'-0"
140
3.0
141
12.0
290
     0
  0
SCALE
  5
57
102
{ACAD_REACTORS
330
47
102
}
330
47
100
AcDbScale
 70
     0
300
6" = 1'-0"
140
6.0
141
12.0
290
     0
  0
SCALE
  5
58
102
{ACAD_REACTORS
330
47
102
}
330
47
100
AcDbScale
 70
     0
300
1'-0" = 1'-0"
140
12.0
141
12.0
290
     0
  0
TABLESTYLE
  5
5A
102
{ACAD_REACTORS
330
59
102
}
102
{ACAD_XDICTIONARY
360
A3
102
}
330
59
100
AcDbTableStyle
  3
Standard
 70
     0
 71
     0
 40
0.06
 41
0.06
280
     0
281
     0
  7
Standard
140
0.18
170
     2
 62
     0
 63
   257
283
     0
 90
        4
 91
        0
  1

274
    -2
284
     1
 64
     0
275
    -2
285
     1
 65
     0
276
    -2
286
     1
 66
     0
277
    -2
287
     1
 67
     0
278
    -2
288
     1
 68
     0
279
    -2
289
     1
 69
     0
  7
Standard
140
0.25
170
     5
 62
     0
 63
   257
283
     0
 90
        4
 91
        0
  1

274
    -2
284
     1
 64
     0
275
    -2
285
     1
 65
     0
276
    -2
286
     1
 66
     0
277
    -2
287
     1
 67
     0
278
    -2
288
     1
 68
     0
279
    -2
289
     1
 69
     0
  7
Standard
140
0.18
170
     5
 62
     0
 63
   257
283
     0
 90
        4
 91
        0
  1

274
    -2
284
     1
 64
     0
275
    -2
285
     1
 65
     0
276
    -2
286
     1
 66
     0
277
    -2
287
     1
 67
     0
278
    -2
288
     1
 68
     0
279
    -2
289
     1
 69
     0
  0
VISUALSTYLE
  5
2F
102
{ACAD_REACTORS
330
2A
102
}
330
2A
100
AcDbVisualStyle
  2
2dWireframe
 70
     4
177
     3
291
     0
 70
    58
 90
        0
176
     1
 90
        2
176
     1
 90
        0
176
     1
 90
        0
176
     1
 40
0.6
176
     1
 40
30.0
176
     1
 62
     7
420
 16777215
176
     1
 90
        1
176
     1
 90
        4
176
     1
 62
     7
176
     1
 62
   257
176
     1
 90
        1
176
     1
 90
        1
176
     1
 40
1.0
176
     1
 90
        0
176
     1
 62
   257
176
     1
 40
1.0
176
     1
 90
        1
176
     1
 90
        6
176
     1
 90
        2
176
     1
 62
     7
176
     1
 90
        5
176
     1
 90
        0
176
     1
 90
        0
176
     1
290
     0
176
     1
 90
        1
176
     1
 40
0.0
176
     1
 90
        0
176
     1
290
     1
176
     1
290
     1
176
     1
290
     0
176
     1
290
     0
176
     1
290
     0
176
     1
290
     0
176
     1
290
     0
176
     1
290
     0
176
     1
290
     0
176
     1
 90
       50
176
     1
 40
0.0
176
     1
 40
1.0
176
     1
 90
        0
176
     1
 62
    18
420
        0
176
     1
 90
       50
176
     1
 90
        3
176
     1
 62
     5
420
      255
176
     1
290
     0
176
     1
 90
       50
176
     1
 90
       50
176
     1
 90
       50
176
     1
290
     0
176
     1
 90
       50
176
     1
 62
   256
176
     0
 40
1.0
176
     0
 90
        2
176
     1
  1
strokes_ogs.tif
176
     1
290
     0
176
     1
 40
1.0
176
     1
 40
1.0
176
     1
  0
VISUALSTYLE
  5
32
102
{ACAD_REACTORS
330
2A
102
}
330
2A
100
AcDbVisualStyle
  2
Basic
 70
     7
177
     3
291
     1
 70
    58
 90
        1
176
     1
 90
        0
176
     1
 90
        1
176
     1
 90
        0
176
     1
 40
0.6
176
     1
 40
30.0
176
     1
 62
     7
420
 16777215
176
     1
 90
        0
176
     1
 90
        4
176
     1
 62
     7
176
     1
 62
   257
176
     1
 90
        1
176
     1
 90
        1
176
     1
 40
1.0
176
     1
 90
        8
176
     1
 62
     7
176
     1
 40
1.0
176
     1
 90
        1
176
     1
 90
        6
176
     1
 90
        2
176
     1
 62
     7
176
     1
 90
        5
176
     1
 90
        0
176
     1
 90
        0
176
     1
290
     0
176
     1
 90
        1
176
     1
 40
0.0
176
     1
 90
        0
176
     1
290
     0
176
     1
290
     1
176
     1
290
     1
176
     1
290
     0
176
     1
290
     0
176
     1
290
     0
176
     1
290
     0
176
     1
290
     0
176
     1
290
     0
176
     1
 90
       50
176
     1
 40
0.0
176
     1
 40
1.0
176
     1
 90
        0
176
     1
 62
    18
420
        0
176
     1
 90
       50
176
     1
 90
        3
176
     1
 62
     5
420
      255
176
     1
290
     0
176
     1
 90
       50
176
     1
 90
       50
176
     1
 90
       50
176
     1
290
     0
176
     1
 90
       50
176
     1
 62
   256
176
     0
 40
1.0
176
     0
 90
        2
176
     1
  1
strokes_ogs.tif
176
     1
290
     0
176
     1
 40
1.0
176
     1
 40
1.0
176
     1
  0
VISUALSTYLE
  5
36
102
{ACAD_REACTORS
330
2A
102
}
330
2A
100
AcDbVisualStyle
  2
Brighten
 70
    12
177
     3
291
     1
 70
    58
 90
        2
176
     1
 90
        2
176
     1
 90
        0
176
     1
 90
        0
176
     1
 40
0.6
176
     1
 40
30.0
176
     1
 62
     7
420
 16777215
176
     1
 90
        1
176
     1
 90
        4
176
     1
 62
     7
176
     1
 62
   257
176
     1
 90
        1
176
     1
 90
        1
176
     1
 40
1.0
176
     1
 90
        8
176
     1
 62
     7
176
     1
 40
1.0
176
     1
 90
        1
176
     1
 90
        6
176
     1
 90
        2
176
     1
 62
     7
176
     1
 90
        5
176
     1
 90
        0
176
     1
 90
        0
176
     1
290
     0
176
     1
 90
        1
176
     1
 40
50.0
176
     1
 90
        0
176
     1
290
     0
176
     1
290
     1
176
     1
290
     1
176
     1
290
     0
176
     1
290
     0
176
     1
290
     0
176
     1
290
     0
176
     1
290
     0
176
     1
290
     0
176
     1
 90
       50
176
     1
 40
0.0
176
     1
 40
1.0
176
     1
 90
        0
176
     1
 62
    18
420
        0
176
     1
 90
       50
176
     1
 90
        3
176
     1
 62
     5
420
      255
176
     1
290
     0
176
     1
 90
       50
176
     1
 90
       50
176
     1
 90
       50
176
     1
290
     0
176
     1
 90
       50
176
     1
 62
   256
176
     0
 40
1.0
176
     0
 90
        2
176
     1
  1
strokes_ogs.tif
176
     1
290
     0
176
     1
 40
1.0
176
     1
 40
1.0
176
     1
  0
VISUALSTYLE
  5
3A
102
{ACAD_REACTORS
330
2A
102
}
330
2A
100
AcDbVisualStyle
  2
ColorChange
 70
    16
177
     3
291
     1
 70
    58
 90
        2
176
     1
 90
        2
176
     1
 90
        3
176
     1
 90
        0
176
     1
 40
0.6
176
     1
 40
30.0
176
     1
 62
     8
420
  8421504
176
     1
 90
        1
176
     1
 90
        4
176
     1
 62
     7
176
     1
 62
   257
176
     1
 90
        1
176
     1
 90
        1
176
     1
 40
1.0
176
     1
 90
        8
176
     1
 62
     8
420
  8421504
176
     1
 40
1.0
176
     1
 90
        1
176
     1
 90
        6
176
     1
 90
        2
176
     1
 62
     7
176
     1
 90
        5
176
     1
 90
        0
176
     1
 90
        0
176
     1
290
     0
176
     1
 90
        1
176
     1
 40
0.0
176
     1
 90
        0
176
     1
290
     0
176
     1
290
     1
176
     1
290
     1
176
     1
290
     0
176
     1
290
     0
176
     1
290
     0
176
     1
290
     0
176
     1
290
     0
176
     1
290
     0
176
     1
 90
       50
176
     1
 40
0.0
176
     1
 40
1.0
176
     1
 90
        0
176
     1
 62
    18
420
        0
176
     1
 90
       50
176
     1
 90
        3
176
     1
 62
     5
420
      255
176
     1
290
     0
176
     1
 90
       50
176
     1
 90
       50
176
     1
 90
       50
176
     1
290
     0
176
     1
 90
       50
176
     1
 62
   256
176
     0
 40
1.0
176
     0
 90
        2
176
     1
  1
strokes_ogs.tif
176
     1
290
     0
176
     1
 40
1.0
176
     1
 40
1.0
176
     1
  0
VISUALSTYLE
  5
34
102
{ACAD_REACTORS
330
2A
102
}
330
2A
100
AcDbVisualStyle
  2
Conceptual
 70
     9
177
     3
291
     0
 70
    58
 90
        3
176
     1
 90
        2
176
     1
 90
        0
176
     1
 90
        0
176
     1
 40
0.6
176
     1
 40
30.0
176
     1
 62
     7
420
 16777215
176
     1
 90
        2
176
     1
 90
        2
176
     1
 62
     7
176
     1
 62
   257
176
     1
 90
        1
176
     1
 90
        1
176
     1
 40
179.0
176
     1
 90
        8
176
     1
 62
     7
176
     1
 40
1.0
176
     1
 90
        1
176
     1
 90
        6
176
     1
 90
        2
176
     1
 62
     7
176
     1
 90
        3
176
     1
 90
        0
176
     1
 90
        0
176
     1
290
     0
176
     1
 90
        1
176
     1
 40
0.0
176
     1
 90
        0
176
     1
290
     0
176
     1
290
     1
176
     1
290
     1
176
     1
290
     0
176
     1
290
     0
176
     1
290
     0
176
     1
290
     0
176
     1
290
     0
176
     1
290
     0
176
     1
 90
       50
176
     1
 40
0.0
176
     1
 40
1.0
176
     1
 90
        0
176
     1
 62
    18
420
        0
176
     1
 90
       50
176
     1
 90
        3
176
     1
 62
     5
420
      255
176
     1
290
     0
176
     1
 90
       50
176
     1
 90
       50
176
     1
 90
       50
176
     1
290
     0
176
     1
 90
       50
176
     1
 62
   256
176
     0
 40
1.0
176
     0
 90
        2
176
     1
  1
strokes_ogs.tif
176
     1
290
     0
176
     1
 40
1.0
176
     1
 40
1.0
176
     1
  0
VISUALSTYLE
  5
35
102
{ACAD_REACTORS
330
2A
102
}
330
2A
100
AcDbVisualStyle
  2
Dim
 70
    11
177
     3
291
     1
 70
    58
 90
        2
176
     1
 90
        2
176
     1
 90
        0
176
     1
 90
        0
176
     1
 40
0.6
176
     1
 40
30.0
176
     1
 62
     7
420
 16777215
176
     1
 90
        1
176
     1
 90
        4
176
     1
 62
     7
176
     1
 62
   257
176
     1
 90
        1
176
     1
 90
        1
176
     1
 40
1.0
176
     1
 90
        8
176
     1
 62
     7
176
     1
 40
1.0
176
     1
 90
        1
176
     1
 90
        6
176
     1
 90
        2
176
     1
 62
     7
176
     1
 90
        5
176
     1
 90
        0
176
     1
 90
        0
176
     1
290
     0
176
     1
 90
        1
176
     1
 40
-50.0
176
     1
 90
        0
176
     1
290
     0
176
     1
290
     1
176
     1
290
     1
176
     1
290
     0
176
     1
290
     0
176
     1
290
     0
176
     1
290
     0
176
     1
290
     0
176
     1
290
     0
176
     1
 90
       50
176
     1
 40
0.0
176
     1
 40
1.0
176
     1
 90
        0
176
     1
 62
    18
420
        0
176
     1
 90
       50
176
     1
 90
        3
176
     1
 62
     5
420
      255
176
     1
290
     0
176
     1
 90
       50
176
     1
 90
       50
176
     1
 90
       50
176
     1
290
     0
176
     1
 90
       50
176
     1
 62
   256
176
     0
 40
1.0
176
     0
 90
        2
176
     1
  1
strokes_ogs.tif
176
     1
290
     0
176
     1
 40
1.0
176
     1
 40
1.0
176
     1
  0
VISUALSTYLE
  5
3D
102
{ACAD_REACTORS
330
2A
102
}
330
2A
100
AcDbVisualStyle
  2
EdgeColorOff
 70
    22
177
     3
291
     1
 70
    58
 90
        2
176
     0
 90
        2
176
     0
 90
        0
176
     0
 90
        0
176
     0
 40
0.6
176
     0
 40
30.0
176
     0
 62
     7
420
 16777215
176
     0
 90
        1
176
     0
 90
        4
176
     0
 62
     7
176
     0
 62
   257
176
     0
 90
        1
176
     0
 90
        1
176
     0
 40
1.0
176
     0
 90
        8
176
     2
 62
     7
176
     0
 40
1.0
176
     0
 90
        1
176
     0
 90
        6
176
     0
 90
        2
176
     0
 62
     7
176
     0
 90
        5
176
     0
 90
        0
176
     0
 90
        0
176
     0
290
     0
176
     0
 90
        1
176
     0
 40
0.0
176
     0
 90
        0
176
     0
290
     0
176
     0
290
     1
176
     0
290
     1
176
     0
290
     0
176
     0
290
     0
176
     0
290
     0
176
     0
290
     0
176
     0
290
     0
176
     0
290
     0
176
     0
 90
       50
176
     0
 40
0.0
176
     0
 40
1.0
176
     0
 90
        0
176
     0
 62
    18
420
        0
176
     0
 90
       50
176
     0
 90
        3
176
     0
 62
     5
420
      255
176
     0
290
     0
176
     0
 90
       50
176
     0
 90
       50
176
     0
 90
       50
176
     0
290
     0
176
     0
 90
       50
176
     0
 62
   256
176
     0
 40
1.0
176
     0
 90
        2
176
     0
  1
strokes_ogs.tif
176
     0
290
     0
176
     0
 40
1.0
176
     0
 40
1.0
176
     0
  0
VISUALSTYLE
  5
39
102
{ACAD_REACTORS
330
2A
102
}
330
2A
100
AcDbVisualStyle
  2
Facepattern
 70
    15
177
     3
291
     1
 70
    58
 90
        2
176
     1
 90
        2
176
     1
 90
        0
176
     1
 90
        0
176
     1
 40
0.6
176
     1
 40
30.0
176
     1
 62
     7
420
 16777215
176
     1
 90
        1
176
     1
 90
        4
176
     1
 62
     7
176
     1
 62
   257
176
     1
 90
        1
176
     1
 90
        1
176
     1
 40
1.0
176
     1
 90
        8
176
     1
 62
     7
176
     1
 40
1.0
176
     1
 90
        1
176
     1
 90
        6
176
     1
 90
        2
176
     1
 62
     7
176
     1
 90
        5
176
     1
 90
        0
176
     1
 90
        0
176
     1
290
     0
176
     1
 90
        1
176
     1
 40
0.0
176
     1
 90
        0
176
     1
290
     0
176
     1
290
     1
176
     1
290
     1
176
     1
290
     0
176
     1
290
     0
176
     1
290
     0
176
     1
290
     0
176
     1
290
     0
176
     1
290
     0
176
     1
 90
       50
176
     1
 40
0.0
176
     1
 40
1.0
176
     1
 90
        0
176
     1
 62
    18
420
        0
176
     1
 90
       50
176
     1
 90
        3
176
     1
 62
     5
420
      255
176
     1
290
     0
176
     1
 90
       50
176
     1
 90
       50
176
     1
 90
       50
176
     1
290
     0
176
     1
 90
       50
176
     1
 62
   256
176
     0
 40
1.0
176
     0
 90
        2
176
     1
  1
strokes_ogs.tif
176
     1
290
     0
176
     1
 40
1.0
176
     1
 40
1.0
176
     1
  0
VISUALSTYLE
  5
2B
102
{ACAD_REACTORS
330
2A
102
}
330
2A
100
AcDbVisualStyle
  2
Flat
 70
     0
177
     3
291
     1
 70
    58
 90
        2
176
     1
 90
        1
176
     1
 90
        1
176
     1
 90
        2
176
     1
 40
0.6
176
     1
 40
30.0
176
     1
 62
     7
420
 16777215
176
     1
 90
        0
176
     1
 90
        0
176
     1
 62
     7
176
     1
 62
   257
176
     1
 90
        1
176
     1
 90
        1
176
     1
 40
1.0
176
     1
 90
        8
176
     1
 62
     7
176
     1
 40
1.0
176
     1
 90
        1
176
     1
 90
        6
176
     1
 90
        2
176
     1
 62
     7
176
     1
 90
        5
176
     1
 90
        0
176
     1
 90
        0
176
     1
290
     0
176
     1
 90
       13
176
     1
 40
0.0
176
     1
 90
        0
176
     1
290
     0
176
     1
290
     1
176
     1
290
     1
176
     1
290
     0
176
     1
290
     0
176
     1
290
     0
176
     1
290
     0
176
     1
290
     0
176
     1
290
     0
176
     1
 90
       50
176
     1
 40
0.0
176
     1
 40
1.0
176
     1
 90
        0
176
     1
 62
    18
420
        0
176
     1
 90
       50
176
     1
 90
        3
176
     1
 62
     5
420
      255
176
     1
290
     0
176
     1
 90
       50
176
     1
 90
       50
176
     1
 90
       50
176
     1
290
     0
176
     1
 90
       50
176
     1
 62
   256
176
     0
 40
1.0
176
     0
 90
        2
176
     1
  1
strokes_ogs.tif
176
     1
290
     0
176
     1
 40
1.0
176
     1
 40
1.0
176
     1
  0
VISUALSTYLE
  5
2C
102
{ACAD_REACTORS
330
2A
102
}
330
2A
100
AcDbVisualStyle
  2
FlatWithEdges
 70
     1
177
     3
291
     1
 70
    58
 90
        2
176
     1
 90
        1
176
     1
 90
        1
176
     1
 90
        2
176
     1
 40
0.6
176
     1
 40
30.0
176
     1
 62
     7
420
 16777215
176
     1
 90
        1
176
     1
 90
        0
176
     1
 62
     7
176
     1
 62
   257
176
     1
 90
        1
176
     1
 90
        1
176
     1
 40
1.0
176
     1
 90
        0
176
     1
 62
   257
176
     1
 40
1.0
176
     1
 90
        1
176
     1
 90
        6
176
     1
 90
        2
176
     1
 62
     7
176
     1
 90
        5
176
     1
 90
        0
176
     1
 90
        0
176
     1
290
     0
176
     1
 90
       13
176
     1
 40
0.0
176
     1
 90
        0
176
     1
290
     0
176
     1
290
     1
176
     1
290
     1
176
     1
290
     0
176
     1
290
     0
176
     1
290
     0
176
     1
290
     0
176
     1
290
     0
176
     1
290
     0
176
     1
 90
       50
176
     1
 40
0.0
176
     1
 40
1.0
176
     1
 90
        0
176
     1
 62
    18
420
        0
176
     1
 90
       50
176
     1
 90
        3
176
     1
 62
     5
420
      255
176
     1
290
     0
176
     1
 90
       50
176
     1
 90
       50
176
     1
 90
       50
176
     1
290
     0
176
     1
 90
       50
176
     1
 62
   256
176
     0
 40
1.0
176
     0
 90
        2
176
     1
  1
strokes_ogs.tif
176
     1
290
     0
176
     1
 40
1.0
176
     1
 40
1.0
176
     1
  0
VISUALSTYLE
  5
2D
102
{ACAD_REACTORS
330
2A
102
}
330
2A
100
AcDbVisualStyle
  2
Gouraud
 70
     2
177
     3
291
     1
 70
    58
 90
        2
176
     1
 90
        2
176
     1
 90
        1
176
     1
 90
        2
176
     1
 40
0.6
176
     1
 40
30.0
176
     1
 62
     7
420
 16777215
176
     1
 90
        0
176
     1
 90
        0
176
     1
 62
     7
176
     1
 62
   257
176
     1
 90
        1
176
     1
 90
        1
176
     1
 40
1.0
176
     1
 90
        0
176
     1
 62
     7
176
     1
 40
1.0
176
     1
 90
        1
176
     1
 90
        6
176
     1
 90
        2
176
     1
 62
     7
176
     1
 90
        5
176
     1
 90
        0
176
     1
 90
        0
176
     1
290
     0
176
     1
 90
       13
176
     1
 40
0.0
176
     1
 90
        0
176
     1
290
     0
176
     1
290
     1
176
     1
290
     1
176
     1
290
     0
176
     1
290
     0
176
     1
290
     0
176
     1
290
     0
176
     1
290
     0
176
     1
290
     0
176
     1
 90
       50
176
     1
 40
0.0
176
     1
 40
1.0
176
     1
 90
        0
176
     1
 62
    18
420
        0
176
     1
 90
       50
176
     1
 90
        3
176
     1
 62
     5
420
      255
176
     1
290
     0
176
     1
 90
       50
176
     1
 90
       50
176
     1
 90
       50
176
     1
290
     0
176
     1
 90
       50
176
     1
 62
   256
176
     0
 40
1.0
176
     0
 90
        2
176
     1
  1
strokes_ogs.tif
176
     1
290
     0
176
     1
 40
1.0
176
     1
 40
1.0
176
     1
  0
VISUALSTYLE
  5
2E
102
{ACAD_REACTORS
330
2A
102
}
330
2A
100
AcDbVisualStyle
  2
GouraudWithEdges
 70
     3
177
     3
291
     1
 70
    58
 90
        2
176
     1
 90
        2
176
     1
 90
        1
176
     1
 90
        2
176
     1
 40
0.6
176
     1
 40
30.0
176
     1
 62
     7
420
 16777215
176
     1
 90
        1
176
     1
 90
        0
176
     1
 62
     7
176
     1
 62
   257
176
     1
 90
        1
176
     1
 90
        1
176
     1
 40
1.0
176
     1
 90
        0
176
     1
 62
   257
176
     1
 40
1.0
176
     1
 90
        1
176
     1
 90
        6
176
     1
 90
        2
176
     1
 62
     7
176
     1
 90
        5
176
     1
 90
        0
176
     1
 90
        0
176
     1
290
     0
176
     1
 90
       13
176
     1
 40
0.0
176
     1
 90
        0
176
     1
290
     0
176
     1
290
     1
176
     1
290
     1
176
     1
290
     0
176
     1
290
     0
176
     1
290
     0
176
     1
290
     0
176
     1
290
     0
176
     1
290
     0
176
     1
 90
       50
176
     1
 40
0.0
176
     1
 40
1.0
176
     1
 90
        0
176
     1
 62
    18
420
        0
176
     1
 90
       50
176
     1
 90
        3
176
     1
 62
     5
420
      255
176
     1
290
     0
176
     1
 90
       50
176
     1
 90
       50
176
     1
 90
       50
176
     1
290
     0
176
     1
 90
       50
176
     1
 62
   256
176
     0
 40
1.0
176
     0
 90
        2
176
     1
  1
strokes_ogs.tif
176
     1
290
     0
176
     1
 40
1.0
176
     1
 40
1.0
176
     1
  0
VISUALSTYLE
  5
31
102
{ACAD_REACTORS
330
2A
102
}
330
2A
100
AcDbVisualStyle
  2
Hidden
 70
     6
177
     3
291
     0
 70
    58
 90
        1
176
     1
 90
        2
176
     1
 90
        2
176
     1
 90
        0
176
     1
 40
0.6
176
     1
 40
30.0
176
     1
 62
     7
420
 16777215
176
     1
 90
        2
176
     1
 90
        2
176
     1
 62
     7
176
     1
 62
   257
176
     1
 90
        2
176
     1
 90
        1
176
     1
 40
40.0
176
     1
 90
        0
176
     1
 62
   257
176
     1
 40
1.0
176
     1
 90
        1
176
     1
 90
        6
176
     1
 90
        2
176
     1
 62
     7
176
     1
 90
        3
176
     1
 90
        0
176
     1
 90
        0
176
     1
290
     0
176
     1
 90
        1
176
     1
 40
0.0
176
     1
 90
        0
176
     1
290
     0
176
     1
290
     1
176
     1
290
     1
176
     1
290
     0
176
     1
290
     0
176
     1
290
     0
176
     1
290
     0
176
     1
290
     0
176
     1
290
     0
176
     1
 90
       50
176
     1
 40
0.0
176
     1
 40
1.0
176
     1
 90
        0
176
     1
 62
    18
420
        0
176
     1
 90
       50
176
     1
 90
        3
176
     1
 62
     5
420
      255
176
     1
290
     0
176
     1
 90
       50
176
     1
 90
       50
176
     1
 90
       50
176
     1
290
     0
176
     1
 90
       50
176
     1
 62
   256
176
     0
 40
1.0
176
     0
 90
        2
176
     1
  1
strokes_ogs.tif
176
     1
290
     0
176
     1
 40
1.0
176
     1
 40
1.0
176
     1
  0
VISUALSTYLE
  5
3B
102
{ACAD_REACTORS
330
2A
102
}
330
2A
100
AcDbVisualStyle
  2
JitterOff
 70
    20
177
     3
291
     1
 70
    58
 90
        2
176
     0
 90
        2
176
     0
 90
        0
176
     0
 90
        0
176
     0
 40
0.6
176
     0
 40
30.0
176
     0
 62
     7
420
 16777215
176
     0
 90
        1
176
     0
 90
        4
176
     0
 62
     7
176
     0
 62
   257
176
     0
 90
        1
176
     0
 90
        1
176
     0
 40
1.0
176
     0
 90
       10
176
     2
 62
     7
176
     0
 40
1.0
176
     0
 90
        1
176
     0
 90
        6
176
     0
 90
        2
176
     0
 62
     7
176
     0
 90
        5
176
     0
 90
        0
176
     0
 90
        0
176
     0
290
     0
176
     0
 90
        1
176
     0
 40
0.0
176
     0
 90
        0
176
     0
290
     0
176
     0
290
     1
176
     0
290
     1
176
     0
290
     0
176
     0
290
     0
176
     0
290
     0
176
     0
290
     0
176
     0
290
     0
176
     0
290
     0
176
     0
 90
       50
176
     0
 40
0.0
176
     0
 40
1.0
176
     0
 90
        0
176
     0
 62
    18
420
        0
176
     0
 90
       50
176
     0
 90
        3
176
     0
 62
     5
420
      255
176
     0
290
     0
176
     0
 90
       50
176
     0
 90
       50
176
     0
 90
       50
176
     0
290
     0
176
     0
 90
       50
176
     0
 62
   256
176
     0
 40
1.0
176
     0
 90
        2
176
     0
  1
strokes_ogs.tif
176
     0
290
     0
176
     0
 40
1.0
176
     0
 40
1.0
176
     0
  0
VISUALSTYLE
  5
38
102
{ACAD_REACTORS
330
2A
102
}
330
2A
100
AcDbVisualStyle
  2
Linepattern
 70
    14
177
     3
291
     1
 70
    58
 90
        2
176
     1
 90
        2
176
     1
 90
        0
176
     1
 90
        0
176
     1
 40
0.6
176
     1
 40
30.0
176
     1
 62
     7
420
 16777215
176
     1
 90
        1
176
     1
 90
        4
176
     1
 62
     7
176
     1
 62
   257
176
     1
 90
        7
176
     1
 90
        7
176
     1
 40
1.0
176
     1
 90
        8
176
     1
 62
     7
176
     1
 40
1.0
176
     1
 90
        1
176
     1
 90
        6
176
     1
 90
        2
176
     1
 62
     7
176
     1
 90
        5
176
     1
 90
        0
176
     1
 90
        0
176
     1
290
     0
176
     1
 90
        1
176
     1
 40
0.0
176
     1
 90
        0
176
     1
290
     0
176
     1
290
     1
176
     1
290
     1
176
     1
290
     0
176
     1
290
     0
176
     1
290
     0
176
     1
290
     0
176
     1
290
     0
176
     1
290
     0
176
     1
 90
       50
176
     1
 40
0.0
176
     1
 40
1.0
176
     1
 90
        0
176
     1
 62
    18
420
        0
176
     1
 90
       50
176
     1
 90
        3
176
     1
 62
     5
420
      255
176
     1
290
     0
176
     1
 90
       50
176
     1
 90
       50
176
     1
 90
       50
176
     1
290
     0
176
     1
 90
       50
176
     1
 62
   256
176
     0
 40
1.0
176
     0
 90
        2
176
     1
  1
strokes_ogs.tif
176
     1
290
     0
176
     1
 40
1.0
176
     1
 40
1.0
176
     1
  0
VISUALSTYLE
  5
3C
102
{ACAD_REACTORS
330
2A
102
}
330
2A
100
AcDbVisualStyle
  2
OverhangOff
 70
    21
177
     3
291
     1
 70
    58
 90
        2
176
     0
 90
        2
176
     0
 90
        0
176
     0
 90
        0
176
     0
 40
0.6
176
     0
 40
30.0
176
     0
 62
     7
420
 16777215
176
     0
 90
        1
176
     0
 90
        4
176
     0
 62
     7
176
     0
 62
   257
176
     0
 90
        1
176
     0
 90
        1
176
     0
 40
1.0
176
     0
 90
        9
176
     2
 62
     7
176
     0
 40
1.0
176
     0
 90
        1
176
     0
 90
        6
176
     0
 90
        2
176
     0
 62
     7
176
     0
 90
        5
176
     0
 90
        0
176
     0
 90
        0
176
     0
290
     0
176
     0
 90
        1
176
     0
 40
0.0
176
     0
 90
        0
176
     0
290
     0
176
     0
290
     1
176
     0
290
     1
176
     0
290
     0
176
     0
290
     0
176
     0
290
     0
176
     0
290
     0
176
     0
290
     0
176
     0
290
     0
176
     0
 90
       50
176
     0
 40
0.0
176
     0
 40
1.0
176
     0
 90
        0
176
     0
 62
    18
420
        0
176
     0
 90
       50
176
     0
 90
        3
176
     0
 62
     5
420
      255
176
     0
290
     0
176
     0
 90
       50
176
     0
 90
       50
176
     0
 90
       50
176
     0
290
     0
176
     0
 90
       50
176
     0
 62
   256
176
     0
 40
1.0
176
     0
 90
        2
176
     0
  1
strokes_ogs.tif
176
     0
290
     0
176
     0
 40
1.0
176
     0
 40
1.0
176
     0
  0
VISUALSTYLE
  5
33
102
{ACAD_REACTORS
330
2A
102
}
330
2A
100
AcDbVisualStyle
  2
Realistic
 70
     8
177
     3
291
     0
 70
    58
 90
        2
176
     1
 90
        3
176
     1
 90
        0
176
     1
 90
        2
176
     1
 40
0.6
176
     1
 40
30.0
176
     1
 62
     7
420
 16777215
176
     1
 90
        0
176
     1
 90
        0
176
     1
 62
     7
176
     1
 62
   257
176
     1
 90
        1
176
     1
 90
        1
176
     1
 40
1.0
176
     1
 90
        8
176
     1
 62
   257
176
     1
 40
1.0
176
     1
 90
        1
176
     1
 90
        6
176
     1
 90
        2
176
     1
 62
     7
176
     1
 90
        3
176
     1
 90
        0
176
     1
 90
        0
176
     1
290
     0
176
     1
 90
       13
176
     1
 40
0.0
176
     1
 90
        0
176
     1
290
     0
176
     1
290
     1
176
     1
290
     1
176
     1
290
     0
176
     1
290
     0
176
     1
290
     0
176
     1
290
     0
176
     1
290
     0
176
     1
290
     0
176
     1
 90
       50
176
     1
 40
0.0
176
     1
 40
1.0
176
     1
 90
        0
176
     1
 62
    18
420
        0
176
     1
 90
       50
176
     1
 90
        3
176
     1
 62
     5
420
      255
176
     1
290
     0
176
     1
 90
       50
176
     1
 90
       50
176
     1
 90
       50
176
     1
290
     0
176
     1
 90
       50
176
     1
 62
   256
176
     0
 40
1.0
176
     0
 90
        2
176
     1
  1
strokes_ogs.tif
176
     1
290
     0
176
     1
 40
1.0
176
     1
 40
1.0
176
     1
  0
VISUALSTYLE
  5
42
102
{ACAD_REACTORS
330
2A
102
}
330
2A
100
AcDbVisualStyle
  2
Shaded
 70
    27
177
     3
291
     0
 70
    58
 90
        2
176
     1
 90
        2
176
     1
 90
        1
176
     1
 90
        2
176
     1
 40
0.6
176
     1
 40
30.0
176
     1
 62
     7
420
 16777215
176
     1
 90
        0
176
     1
 90
        4
176
     1
 62
     7
176
     1
 62
   257
176
     1
 90
        1
176
     1
 90
        1
176
     1
 40
1.0
176
     1
 90
        8
176
     1
 62
   257
176
     1
 40
1.0
176
     1
 90
        1
176
     1
 90
        6
176
     1
 90
        2
176
     1
 62
     8
420
  7895160
176
     1
 90
        3
176
     1
 90
        0
176
     1
 90
        0
176
     1
290
     0
176
     1
 90
        5
176
     1
 40
0.0
176
     1
 90
        0
176
     1
290
     0
176
     1
290
     1
176
     1
290
     1
176
     1
290
     0
176
     1
290
     0
176
     1
290
     0
176
     1
290
     0
176
     1
290
     0
176
     1
290
     0
176
     1
 90
       50
176
     1
 40
0.0
176
     1
 40
1.0
176
     1
 90
        0
176
     1
 62
    18
420
        0
176
     1
 90
       50
176
     1
 90
        3
176
     1
 62
     5
420
      255
176
     1
290
     0
176
     1
 90
       50
176
     1
 90
       50
176
     1
 90
       50
176
     1
290
     0
176
     1
 90
       50
176
     1
 62
   256
176
     0
 40
1.0
176
     0
 90
        2
176
     1
  1
strokes_ogs.tif
176
     1
290
     0
176
     1
 40
1.0
176
     1
 40
1.0
176
     1
  0
VISUALSTYLE
  5
41
102
{ACAD_REACTORS
330
2A
102
}
330
2A
100
AcDbVisualStyle
  2
Shaded with edges
 70
    26
177
     3
291
     0
 70
    58
 90
        2
176
     1
 90
        2
176
     1
 90
        1
176
     1
 90
        2
176
     1
 40
0.6
176
     1
 40
30.0
176
     1
 62
     7
420
 16777215
176
     1
 90
        1
176
     1
 90
       10
176
     1
 62
     7
176
     1
 62
   257
176
     1
 90
        2
176
     1
 90
        1
176
     1
 40
1.0
176
     1
 90
        8
176
     1
 62
   257
176
     1
 40
1.0
176
     1
 90
        1
176
     1
 90
        6
176
     1
 90
        2
176
     1
 62
     7
176
     1
 90
        3
176
     1
 90
        0
176
     1
 90
        0
176
     1
290
     0
176
     1
 90
        5
176
     1
 40
0.0
176
     1
 90
        0
176
     1
290
     0
176
     1
290
     1
176
     1
290
     1
176
     1
290
     0
176
     1
290
     0
176
     1
290
     0
176
     1
290
     0
176
     1
290
     0
176
     1
290
     0
176
     1
 90
       50
176
     1
 40
0.0
176
     1
 40
1.0
176
     1
 90
        0
176
     1
 62
    18
420
        0
176
     1
 90
       50
176
     1
 90
        3
176
     1
 62
     5
420
      255
176
     1
290
     0
176
     1
 90
       50
176
     1
 90
       50
176
     1
 90
       50
176
     1
290
     0
176
     1
 90
       50
176
     1
 62
   256
176
     0
 40
1.0
176
     0
 90
        2
176
     1
  1
strokes_ogs.tif
176
     1
290
     0
176
     1
 40
1.0
176
     1
 40
1.0
176
     1
  0
VISUALSTYLE
  5
3E
102
{ACAD_REACTORS
330
2A
102
}
330
2A
100
AcDbVisualStyle
  2
Shades of Gray
 70
    23
177
     3
291
     0
 70
    58
 90
        2
176
     1
 90
        2
176
     1
 90
        3
176
     1
 90
        0
176
     1
 40
0.6
176
     1
 40
30.0
176
     1
 62
     7
420
 16777215
176
     1
 90
        2
176
     1
 90
        2
176
     1
 62
     7
176
     1
 62
     7
176
     1
 90
        1
176
     1
 90
        1
176
     1
 40
40.0
176
     1
 90
        8
176
     1
 62
     7
176
     1
 40
1.0
176
     1
 90
        1
176
     1
 90
        6
176
     1
 90
        2
176
     1
 62
     7
176
     1
 90
        3
176
     1
 90
        0
176
     1
 90
        0
176
     1
290
     0
176
     1
 90
        1
176
     1
 40
0.0
176
     1
 90
        0
176
     1
290
     0
176
     1
290
     1
176
     1
290
     1
176
     1
290
     0
176
     1
290
     0
176
     1
290
     0
176
     1
290
     0
176
     1
290
     0
176
     1
290
     0
176
     1
 90
       50
176
     1
 40
0.0
176
     1
 40
1.0
176
     1
 90
        0
176
     1
 62
    18
420
        0
176
     1
 90
       50
176
     1
 90
        3
176
     1
 62
     5
420
      255
176
     1
290
     0
176
     1
 90
       50
176
     1
 90
       50
176
     1
 90
       50
176
     1
290
     0
176
     1
 90
       50
176
     1
 62
   256
176
     0
 40
1.0
176
     0
 90
        2
176
     1
  1
strokes_ogs.tif
176
     1
290
     0
176
     1
 40
1.0
176
     1
 40
1.0
176
     1
  0
VISUALSTYLE
  5
3F
102
{ACAD_REACTORS
330
2A
102
}
330
2A
100
AcDbVisualStyle
  2
Sketchy
 70
    24
177
     3
291
     0
 70
    58
 90
        1
176
     1
 90
        2
176
     1
 90
        2
176
     1
 90
        0
176
     1
 40
0.6
176
     1
 40
30.0
176
     1
 62
     7
420
 16777215
176
     1
 90
        2
176
     1
 90
        2
176
     1
 62
     7
176
     1
 62
     7
176
     1
 90
        1
176
     1
 90
        1
176
     1
 40
40.0
176
     1
 90
       11
176
     1
 62
     7
176
     1
 40
1.0
176
     1
 90
        1
176
     1
 90
        6
176
     1
 90
        2
176
     1
 62
     7
176
     1
 90
        6
176
     1
 90
        0
176
     1
 90
        0
176
     1
290
     0
176
     1
 90
        1
176
     1
 40
0.0
176
     1
 90
        0
176
     1
290
     0
176
     1
290
     1
176
     1
290
     1
176
     1
290
     0
176
     1
290
     0
176
     1
290
     0
176
     1
290
     0
176
     1
290
     0
176
     1
290
     0
176
     1
 90
       50
176
     1
 40
0.0
176
     1
 40
1.0
176
     1
 90
        0
176
     1
 62
    18
420
        0
176
     1
 90
       50
176
     1
 90
        3
176
     1
 62
     5
420
      255
176
     1
290
     0
176
     1
 90
       50
176
     1
 90
       50
176
     1
 90
       50
176
     1
290
     0
176
     1
 90
       50
176
     1
 62
   256
176
     0
 40
1.0
176
     0
 90
        2
176
     1
  1
strokes_ogs.tif
176
     1
290
     0
176
     1
 40
1.0
176
     1
 40
1.0
176
     1
  0
VISUALSTYLE
  5
37
102
{ACAD_REACTORS
330
2A
102
}
330
2A
100
AcDbVisualStyle
  2
Thicken
 70
    13
177
     3
291
     1
 70
    58
 90
        2
176
     1
 90
        2
176
     1
 90
        0
176
     1
 90
        0
176
     1
 40
0.6
176
     1
 40
30.0
176
     1
 62
     7
420
 16777215
176
     1
 90
        1
176
     1
 90
        4
176
     1
 62
     7
176
     1
 62
   257
176
     1
 90
        1
176
     1
 90
        1
176
     1
 40
1.0
176
     1
 90
       12
176
     1
 62
     7
176
     1
 40
1.0
176
     1
 90
        1
176
     1
 90
        6
176
     1
 90
        2
176
     1
 62
     7
176
     1
 90
        5
176
     1
 90
        0
176
     1
 90
        0
176
     1
290
     0
176
     1
 90
        1
176
     1
 40
0.0
176
     1
 90
        0
176
     1
290
     0
176
     1
290
     1
176
     1
290
     1
176
     1
290
     0
176
     1
290
     0
176
     1
290
     0
176
     1
290
     0
176
     1
290
     0
176
     1
290
     0
176
     1
 90
       50
176
     1
 40
0.0
176
     1
 40
1.0
176
     1
 90
        0
176
     1
 62
    18
420
        0
176
     1
 90
       50
176
     1
 90
        3
176
     1
 62
     5
420
      255
176
     1
290
     0
176
     1
 90
       50
176
     1
 90
       50
176
     1
 90
       50
176
     1
290
     0
176
     1
 90
       50
176
     1
 62
   256
176
     0
 40
1.0
176
     0
 90
        2
176
     1
  1
strokes_ogs.tif
176
     1
290
     0
176
     1
 40
1.0
176
     1
 40
1.0
176
     1
  0
VISUALSTYLE
  5
30
102
{ACAD_REACTORS
330
2A
102
}
330
2A
100
AcDbVisualStyle
  2
Wireframe
 70
     5
177
     3
291
     0
 70
    58
 90
        0
176
     1
 90
        2
176
     1
 90
        0
176
     1
 90
        0
176
     1
 40
0.6
176
     1
 40
30.0
176
     1
 62
     7
420
 16777215
176
     1
 90
        1
176
     1
 90
        4
176
     1
 62
     7
176
     1
 62
   257
176
     1
 90
        1
176
     1
 90
        1
176
     1
 40
1.0
176
     1
 90
        0
176
     1
 62
   257
176
     1
 40
1.0
176
     1
 90
        1
176
     1
 90
        6
176
     1
 90
        2
176
     1
 62
     7
176
     1
 90
        3
176
     1
 90
        0
176
     1
 90
        0
176
     1
290
     0
176
     1
 90
        1
176
     1
 40
0.0
176
     1
 90
        0
176
     1
290
     0
176
     1
290
     1
176
     1
290
     1
176
     1
290
     0
176
     1
290
     0
176
     1
290
     0
176
     1
290
     0
176
     1
290
     0
176
     1
290
     0
176
     1
 90
       50
176
     1
 40
0.0
176
     1
 40
1.0
176
     1
 90
        0
176
     1
 62
    18
420
        0
176
     1
 90
       50
176
     1
 90
        3
176
     1
 62
     5
420
      255
176
     1
290
     0
176
     1
 90
       50
176
     1
 90
       50
176
     1
 90
       50
176
     1
290
     0
176
     1
 90
       50
176
     1
 62
   256
176
     0
 40
1.0
176
     0
 90
        2
176
     1
  1
strokes_ogs.tif
176
     1
290
     0
176
     1
 40
1.0
176
     1
 40
1.0
176
     1
  0
VISUALSTYLE
  5
40
102
{ACAD_REACTORS
330
2A
102
}
330
2A
100
AcDbVisualStyle
  2
X-Ray
 70
    25
177
     3
291
     0
 70
    58
 90
        2
176
     1
 90
        2
176
     1
 90
        1
176
     1
 90
        1
176
     1
 40
0.5
176
     1
 40
30.0
176
     1
 62
     7
420
 16777215
176
     1
 90
        1
176
     1
 90
        0
176
     1
 62
     7
176
     1
 62
   257
176
     1
 90
        1
176
     1
 90
        1
176
     1
 40
1.0
176
     1
 90
        8
176
     1
 62
     7
176
     1
 40
1.0
176
     1
 90
        1
176
     1
 90
        6
176
     1
 90
        2
176
     1
 62
     7
176
     1
 90
        3
176
     1
 90
        0
176
     1
 90
        0
176
     1
290
     0
176
     1
 90
       13
176
     1
 40
0.0
176
     1
 90
        0
176
     1
290
     0
176
     1
290
     1
176
     1
290
     1
176
     1
290
     0
176
     1
290
     0
176
     1
290
     0
176
     1
290
     0
176
     1
290
     0
176
     1
290
     0
176
     1
 90
       50
176
     1
 40
0.0
176
     1
 40
1.0
176
     1
 90
        0
176
     1
 62
    18
420
        0
176
     1
 90
       50
176
     1
 90
        3
176
     1
 62
     5
420
      255
176
     1
290
     0
176
     1
 90
       50
176
     1
 90
       50
176
     1
 90
       50
176
     1
290
     0
176
     1
 90
       50
176
     1
 62
   256
176
     0
 40
1.0
176
     0
 90
        2
176
     1
  1
strokes_ogs.tif
176
     1
290
     0
176
     1
 40
1.0
176
     1
 40
1.0
176
     1
  0
DICTIONARYVAR
  5
A2
102
{ACAD_REACTORS
330
A1
102
}
330
A1
100
DictionaryVariables
280
     0
  1
1:1
  0
DICTIONARYVAR
  5
A7
102
{ACAD_REACTORS
330
A1
102
}
330
A1
100
DictionaryVariables
280
     0
  1
Standard
  0
DICTIONARYVAR
  5
A6
102
{ACAD_REACTORS
330
A1
102
}
330
A1
100
DictionaryVariables
280
     0
  1
Standard
  0
DICTIONARY
  5
A3
330
5A
100
AcDbDictionary
280
     1
281
     1
  3
ACAD_ROUNDTRIP_2008_TABLESTYLE_CELLSTYLEMAP
360
A4
  0
CELLSTYLEMAP
  5
A4
102
{ACAD_REACTORS
330
A3
102
}
330
A3
100
AcDbCellStyleMap
 90
        3
300
CELLSTYLE
  1
TABLEFORMAT_BEGIN
 90
        5
170
     1
 91
        0
 92
    32768
 62
   257
 93
        1
300
CONTENTFORMAT
  1
CONTENTFORMAT_BEGIN
 90
        0
 91
        0
 92
        4
 93
        0
300

 40
0.0
140
1.0
 94
        5
 62
     0
340
11
144
0.25
309
CONTENTFORMAT_END
171
     1
301
MARGIN
  1
CELLMARGIN_BEGIN
 40
0.06
 40
0.06
 40
0.06
 40
0.06
 40
0.06
 40
0.06
309
CELLMARGIN_END
 94
        6
 95
        1
302
GRIDFORMAT
  1
GRIDFORMAT_BEGIN
 90
        0
 91
        1
 62
     0
 92
       -2
340
14
 93
        0
 40
0.045
309
GRIDFORMAT_END
 95
        2
302
GRIDFORMAT
  1
GRIDFORMAT_BEGIN
 90
        0
 91
        1
 62
     0
 92
       -2
340
14
 93
        0
 40
0.045
309
GRIDFORMAT_END
 95
        4
302
GRIDFORMAT
  1
GRIDFORMAT_BEGIN
 90
        0
 91
        1
 62
     0
 92
       -2
340
14
 93
        0
 40
0.045
309
GRIDFORMAT_END
 95
        8
302
GRIDFORMAT
  1
GRIDFORMAT_BEGIN
 90
        0
 91
        1
 62
     0
 92
       -2
340
14
 93
        0
 40
0.045
309
GRIDFORMAT_END
 95
       16
302
GRIDFORMAT
  1
GRIDFORMAT_BEGIN
 90
        0
 91
        1
 62
     0
 92
       -2
340
14
 93
        0
 40
0.045
309
GRIDFORMAT_END
 95
       32
302
GRIDFORMAT
  1
GRIDFORMAT_BEGIN
 90
        0
 91
        1
 62
     0
 92
       -2
340
14
 93
        0
 40
0.045
309
GRIDFORMAT_END
309
TABLEFORMAT_END
  1
CELLSTYLE_BEGIN
 90
        1
 91
        1
300
_TITLE
309
CELLSTYLE_END
300
CELLSTYLE
  1
TABLEFORMAT_BEGIN
 90
        5
170
     1
 91
        0
 92
        0
 62
   257
 93
        1
300
CONTENTFORMAT
  1
CONTENTFORMAT_BEGIN
 90
        0
 91
        0
 92
        4
 93
        0
300

 40
0.0
140
1.0
 94
        5
 62
     0
340
11
144
0.18
309
CONTENTFORMAT_END
171
     1
301
MARGIN
  1
CELLMARGIN_BEGIN
 40
0.06
 40
0.06
 40
0.06
 40
0.06
 40
0.06
 40
0.06
309
CELLMARGIN_END
 94
        6
 95
        1
302
GRIDFORMAT
  1
GRIDFORMAT_BEGIN
 90
        0
 91
        1
 62
     0
 92
       -2
340
14
 93
        0
 40
0.045
309
GRIDFORMAT_END
 95
        2
302
GRIDFORMAT
  1
GRIDFORMAT_BEGIN
 90
        0
 91
        1
 62
     0
 92
       -2
340
14
 93
        0
 40
0.045
309
GRIDFORMAT_END
 95
        4
302
GRIDFORMAT
  1
GRIDFORMAT_BEGIN
 90
        0
 91
        1
 62
     0
 92
       -2
340
14
 93
        0
 40
0.045
309
GRIDFORMAT_END
 95
        8
302
GRIDFORMAT
  1
GRIDFORMAT_BEGIN
 90
        0
 91
        1
 62
     0
 92
       -2
340
14
 93
        0
 40
0.045
309
GRIDFORMAT_END
 95
       16
302
GRIDFORMAT
  1
GRIDFORMAT_BEGIN
 90
        0
 91
        1
 62
     0
 92
       -2
340
14
 93
        0
 40
0.045
309
GRIDFORMAT_END
 95
       32
302
GRIDFORMAT
  1
GRIDFORMAT_BEGIN
 90
        0
 91
        1
 62
     0
 92
       -2
340
14
 93
        0
 40
0.045
309
GRIDFORMAT_END
309
TABLEFORMAT_END
  1
CELLSTYLE_BEGIN
 90
        2
 91
        1
300
_HEADER
309
CELLSTYLE_END
300
CELLSTYLE
  1
TABLEFORMAT_BEGIN
 90
        5
170
     1
 91
        0
 92
        0
 62
   257
 93
        1
300
CONTENTFORMAT
  1
CONTENTFORMAT_BEGIN
 90
        0
 91
        0
 92
        4
 93
        0
300

 40
0.0
140
1.0
 94
        2
 62
     0
340
11
144
0.18
309
CONTENTFORMAT_END
171
     1
301
MARGIN
  1
CELLMARGIN_BEGIN
 40
0.06
 40
0.06
 40
0.06
 40
0.06
 40
0.06
 40
0.06
309
CELLMARGIN_END
 94
        6
 95
        1
302
GRIDFORMAT
  1
GRIDFORMAT_BEGIN
 90
        0
 91
        1
 62
     0
 92
       -2
340
14
 93
        0
 40
0.045
309
GRIDFORMAT_END
 95
        2
302
GRIDFORMAT
  1
GRIDFORMAT_BEGIN
 90
        0
 91
        1
 62
     0
 92
       -2
340
14
 93
        0
 40
0.045
309
GRIDFORMAT_END
 95
        4
302
GRIDFORMAT
  1
GRIDFORMAT_BEGIN
 90
        0
 91
        1
 62
     0
 92
       -2
340
14
 93
        0
 40
0.045
309
GRIDFORMAT_END
 95
        8
302
GRIDFORMAT
  1
GRIDFORMAT_BEGIN
 90
        0
 91
        1
 62
     0
 92
       -2
340
14
 93
        0
 40
0.045
309
GRIDFORMAT_END
 95
       16
302
GRIDFORMAT
  1
GRIDFORMAT_BEGIN
 90
        0
 91
        1
 62
     0
 92
       -2
340
14
 93
        0
 40
0.045
309
GRIDFORMAT_END
 95
       32
302
GRIDFORMAT
  1
GRIDFORMAT_BEGIN
 90
        0
 91
        1
 62
     0
 92
       -2
340
14
 93
        0
 40
0.045
309
GRIDFORMAT_END
309
TABLEFORMAT_END
  1
CELLSTYLE_BEGIN
 90
        3
 91
        2
300
_DATA
309
CELLSTYLE_END
  0
ENDSEC
  0
EOF
