  0
SECTION
  2
HEADER
  9
$ACADVER
  1
AC1032
  9
$ACADMAINTVER
 90
       55
  9
$DWGCODEPAGE
  3
ANSI_1251
  9
$LASTSAVEDBY
  1
torde
  9
$REQUIREDVERSIONS
160
                 0
  9
$INSBASE
 10
0.0
 20
0.0
 30
0.0
  9
$EXTMIN
 10
-7.04333
 20
-19.1168
 30
0.0
  9
$EXTMAX
 10
7.02914
 20
19.10656
 30
0.0
  9
$LIMMIN
 10
0.0
 20
0.0
  9
$LIMMAX
 10
12.0
 20
9.0
  9
$ORTHOMODE
 70
     0
  9
$REGENMODE
 70
     1
  9
$FILLMODE
 70
     1
  9
$QTEXTMODE
 70
     0
  9
$MIRRTEXT
 70
     1
  9
$LTSCALE
 40
1.0
  9
$ATTMODE
 70
     1
  9
$TEXTSIZE
 40
0.2
  9
$TRACEWID
 40
0.05
  9
$TEXTSTYLE
  7
Standard
  9
$CLAYER
  8
0
  9
$CELTYPE
  6
ByLayer
  9
$CECOLOR
 62
   256
  9
$CELTSCALE
 40
1.0
  9
$DISPSILH
 70
     0
  9
$DIMSCALE
 40
1.0
  9
$DIMASZ
 40
0.18
  9
$DIMEXO
 40
0.0625
  9
$DIMDLI
 40
0.38
  9
$DIMRND
 40
0.0
  9
$DIMDLE
 40
0.0
  9
$DIMEXE
 40
0.18
  9
$DIMTP
 40
0.0
  9
$DIMTM
 40
0.0
  9
$DIMTXT
 40
0.18
  9
$DIMCEN
 40
0.09
  9
$DIMTSZ
 40
0.0
  9
$DIMTOL
 70
     0
  9
$DIMLIM
 70
     0
  9
$DIMTIH
 70
     1
  9
$DIMTOH
 70
     1
  9
$DIMSE1
 70
     0
  9
$DIMSE2
 70
     0
  9
$DIMTAD
 70
     0
  9
$DIMZIN
 70
     0
  9
$DIMBLK
  1

  9
$DIMASO
 70
     1
  9
$DIMSHO
 70
     1
  9
$DIMPOST
  1

  9
$DIMAPOST
  1

  9
$DIMALT
 70
     0
  9
$DIMALTD
 70
     2
  9
$DIMALTF
 40
25.4
  9
$DIMLFAC
 40
1.0
  9
$DIMTOFL
 70
     0
  9
$DIMTVP
 40
0.0
  9
$DIMTIX
 70
     0
  9
$DIMSOXD
 70
     0
  9
$DIMSAH
 70
     0
  9
$DIMBLK1
  1

  9
$DIMBLK2
  1

  9
$DIMSTYLE
  2
Standard
  9
$DIMCLRD
 70
     0
  9
$DIMCLRE
 70
     0
  9
$DIMCLRT
 70
     0
  9
$DIMTFAC
 40
1.0
  9
$DIMGAP
 40
0.09
  9
$DIMJUST
 70
     0
  9
$DIMSD1
 70
     0
  9
$DIMSD2
 70
     0
  9
$DIMTOLJ
 70
     1
  9
$DIMTZIN
 70
     0
  9
$DIMALTZ
 70
     0
  9
$DIMALTTZ
 70
     0
  9
$DIMUPT
 70
     0
  9
$DIMDEC
 70
     4
  9
$DIMTDEC
 70
     4
  9
$DIMALTU
 70
     2
  9
$DIMALTTD
 70
     2
  9
$DIMTXSTY
  7
Standard
  9
$DIMAUNIT
 70
     0
  9
$DIMADEC
 70
     0
  9
$DIMALTRND
 40
0.0
  9
$DIMAZIN
 70
     0
  9
$DIMDSEP
 70
    46
  9
$DIMATFIT
 70
     3
  9
$DIMFRAC
 70
     0
  9
$DIMLDRBLK
  1

  9
$DIMLUNIT
 70
     2
  9
$DIMLWD
 70
    -2
  9
$DIMLWE
 70
    -2
  9
$DIMTMOVE
 70
     0
  9
$DIMFXL
 40
1.0
  9
$DIMFXLON
 70
     0
  9
$DIMJOGANG
 40
0.7853981633974483
  9
$DIMTFILL
 70
     0
  9
$DIMTFILLCLR
 70
     0
  9
$DIMARCSYM
 70
     0
  9
$DIMLTYPE
  6

  9
$DIMLTEX1
  6

  9
$DIMLTEX2
  6

  9
$DIMTXTDIRECTION
 70
     0
  9
$LUNITS
 70
     2
  9
$LUPREC
 70
     4
  9
$SKETCHINC
 40
0.1
  9
$FILLETRAD
 40
0.0
  9
$AUNITS
 70
     0
  9
$AUPREC
 70
     0
  9
$MENU
  1
.
  9
$ELEVATION
 40
0.0
  9
$PELEVATION
 40
0.0
  9
$THICKNESS
 40
0.0
  9
$LIMCHECK
 70
     0
  9
$CHAMFERA
 40
0.0
  9
$CHAMFERB
 40
0.0
  9
$CHAMFERC
 40
0.0
  9
$CHAMFERD
 40
0.0
  9
$SKPOLY
 70
     0
  9
$TDCREATE
 40
2461096.631573206
  9
$TDUCREATE
 40
2461096.506573206
  9
$TDUPDATE
 40
2461096.631573391
  9
$TDUUPDATE
 40
2461096.506573391
  9
$TDINDWG
 40
0.0000000116
  9
$TDUSRTIMER
 40
0.0000000116
  9
$USRTIMER
 70
     1
  9
$ANGBASE
 50
0.0
  9
$ANGDIR
 70
     0
  9
$PDMODE
 70
     0
  9
$PDSIZE
 40
0.0
  9
$PLINEWID
 40
0.0
  9
$SPLFRAME
 70
     0
  9
$SPLINETYPE
 70
     6
  9
$SPLINESEGS
 70
     8
  9
$HANDSEED
  5
B0
  9
$SURFTAB1
 70
     6
  9
$SURFTAB2
 70
     6
  9
$SURFTYPE
 70
     6
  9
$SURFU
 70
     6
  9
$SURFV
 70
     6
  9
$UCSBASE
  2

  9
$UCSNAME
  2

  9
$UCSORG
 10
0.0
 20
0.0
 30
0.0
  9
$UCSXDIR
 10
1.0
 20
0.0
 30
0.0
  9
$UCSYDIR
 10
0.0
 20
1.0
 30
0.0
  9
$UCSORTHOREF
  2

  9
$UCSORTHOVIEW
 70
     0
  9
$UCSORGTOP
 10
0.0
 20
0.0
 30
0.0
  9
$UCSORGBOTTOM
 10
0.0
 20
0.0
 30
0.0
  9
$UCSORGLEFT
 10
0.0
 20
0.0
 30
0.0
  9
$UCSORGRIGHT
 10
0.0
 20
0.0
 30
0.0
  9
$UCSORGFRONT
 10
0.0
 20
0.0
 30
0.0
  9
$UCSORGBACK
 10
0.0
 20
0.0
 30
0.0
  9
$PUCSBASE
  2

  9
$PUCSNAME
  2

  9
$PUCSORG
 10
0.0
 20
0.0
 30
0.0
  9
$PUCSXDIR
 10
1.0
 20
0.0
 30
0.0
  9
$PUCSYDIR
 10
0.0
 20
1.0
 30
0.0
  9
$PUCSORTHOREF
  2

  9
$PUCSORTHOVIEW
 70
     0
  9
$PUCSORGTOP
 10
0.0
 20
0.0
 30
0.0
  9
$PUCSORGBOTTOM
 10
0.0
 20
0.0
 30
0.0
  9
$PUCSORGLEFT
 10
0.0
 20
0.0
 30
0.0
  9
$PUCSORGRIGHT
 10
0.0
 20
0.0
 30
0.0
  9
$PUCSORGFRONT
 10
0.0
 20
0.0
 30
0.0
  9
$PUCSORGBACK
 10
0.0
 20
0.0
 30
0.0
  9
$USERI1
 70
     0
  9
$USERI2
 70
     0
  9
$USERI3
 70
     0
  9
$USERI4
 70
     0
  9
$USERI5
 70
     0
  9
$USERR1
 40
0.0
  9
$USERR2
 40
0.0
  9
$USERR3
 40
0.0
  9
$USERR4
 40
0.0
  9
$USERR5
 40
0.0
  9
$WORLDVIEW
 70
     1
  9
$SHADEDGE
 70
     3
  9
$SHADEDIF
 70
    70
  9
$TILEMODE
 70
     1
  9
$MAXACTVP
 70
    64
  9
$PINSBASE
 10
0.0
 20
0.0
 30
0.0
  9
$PLIMCHECK
 70
     0
  9
$PEXTMIN
 10
1.000000000000000E+20
 20
1.000000000000000E+20
 30
1.000000000000000E+20
  9
$PEXTMAX
 10
-1.000000000000000E+20
 20
-1.000000000000000E+20
 30
-1.000000000000000E+20
  9
$PLIMMIN
 10
0.0
 20
0.0
  9
$PLIMMAX
 10
12.0
 20
9.0
  9
$UNITMODE
 70
     0
  9
$VISRETAIN
 70
     1
  9
$PLINEGEN
 70
     0
  9
$PSLTSCALE
 70
     1
  9
$TREEDEPTH
 70
  3020
  9
$CMLSTYLE
  2
Standard
  9
$CMLJUST
 70
     0
  9
$CMLSCALE
 40
1.0
  9
$PROXYGRAPHICS
 70
     1
  9
$MEASUREMENT
 70
     0
  9
$CELWEIGHT
370
    -1
  9
$ENDCAPS
280
     0
  9
$JOINSTYLE
280
     0
  9
$LWDISPLAY
290
     0
  9
$INSUNITS
 70
     5
  9
$HYPERLINKBASE
  1

  9
$STYLESHEET
  1

  9
$XEDIT
290
     1
  9
$CEPSNTYPE
380
     0
  9
$PSTYLEMODE
290
     1
  9
$FINGERPRINTGUID
  2
{7998ee78-f229-4986-bf25-402e2433ac92}
  9
$VERSIONGUID
  2
{FAEB1C32-E019-11D5-929B-00C0DF256EC4}
  9
$EXTNAMES
290
     1
  9
$PSVPSCALE
 40
0.0
  9
$OLESTARTUP
290
     0
  9
$SORTENTS
280
   127
  9
$INDEXCTL
280
     0
  9
$HIDETEXT
280
     1
  9
$XCLIPFRAME
280
     2
  9
$HALOGAP
280
     0
  9
$OBSCOLOR
 70
   257
  9
$OBSLTYPE
280
     0
  9
$INTERSECTIONDISPLAY
280
     0
  9
$INTERSECTIONCOLOR
 70
   257
  9
$DIMASSOC
280
     2
  9
$PROJECTNAME
  1

  9
$CAMERADISPLAY
290
     0
  9
$LENSLENGTH
 40
50.0
  9
$CAMERAHEIGHT
 40
0.0
  9
$STEPSPERSEC
 40
2.0
  9
$STEPSIZE
 40
6.0
  9
$3DDWFPREC
 40
2.0
  9
$PSOLWIDTH
 40
0.25
  9
$PSOLHEIGHT
 40
4.0
  9
$LOFTANG1
 40
1.570796326794897
  9
$LOFTANG2
 40
1.570796326794897
  9
$LOFTMAG1
 40
0.0
  9
$LOFTMAG2
 40
0.0
  9
$LOFTPARAM
 70
     7
  9
$LOFTNORMALS
280
     1
  9
$LATITUDE
 40
37.795
  9
$LONGITUDE
 40
-122.394
  9
$NORTHDIRECTION
 40
0.0
  9
$TIMEZONE
 70
 -8000
  9
$LIGHTGLYPHDISPLAY
280
     1
  9
$TILEMODELIGHTSYNCH
280
     1
  9
$CMATERIAL
347
44
  9
$SOLIDHIST
280
     0
  9
$SHOWHIST
280
     1
  9
$DWFFRAME
280
     2
  9
$DGNFRAME
280
     2
  9
$REALWORLDSCALE
290
     1
  9
$INTERFERECOLOR
 62
   256
  9
$CSHADOW
280
     0
  9
$SHADOWPLANELOCATION
 40
0.0
  0
ENDSEC
  0
SECTION
  2
CLASSES
  0
CLASS
  1
ACDBDICTIONARYWDFLT
  2
AcDbDictionaryWithDefault
  3
ObjectDBX Classes
 90
        0
 91
        3
280
     0
281
     0
  0
CLASS
  1
VISUALSTYLE
  2
AcDbVisualStyle
  3
ObjectDBX Classes
 90
     4095
 91
        3
280
     0
281
     0
  0
CLASS
  1
MATERIAL
  2
AcDbMaterial
  3
ObjectDBX Classes
 90
     1153
 91
        3
280
     0
281
     0
  0
CLASS
  1
SCALE
  2
AcDbScale
  3
ObjectDBX Classes
 90
     1153
 91
        3
280
     0
281
     0
  0
CLASS
  1
TABLESTYLE
  2
AcDbTableStyle
  3
ObjectDBX Classes
 90
     4095
 91
        3
280
     0
281
     0
  0
CLASS
  1
MLEADERSTYLE
  2
AcDbMLeaderStyle
  3
ACDB_MLEADERSTYLE_CLASS
 90
     4095
 91
        3
280
     0
281
     0
  0
CLASS
  1
SUN
  2
AcDbSun
  3
SCENEOE
 90
     1153
 91
        3
280
     0
281
     0
  0
CLASS
  1
DICTIONARYVAR
  2
AcDbDictionaryVar
  3
ObjectDBX Classes
 90
        0
 91
        3
280
     0
281
     0
  0
CLASS
  1
CELLSTYLEMAP
  2
AcDbCellStyleMap
  3
ObjectDBX Classes
 90
     1152
 91
        3
280
     0
281
     0
  0
ENDSEC
  0
SECTION
  2
TABLES
  0
TABLE
  2
VPORT
  5
8
330
0
100
AcDbSymbolTable
 70
     1
  0
VPORT
  5
29
330
8
100
AcDbSymbolTableRecord
100
AcDbViewportTableRecord
  2
*Active
 70
     0
 10
0.0
 20
0.0
 11
1.0
 21
1.0
 12
10.42990654205607
 22
4.5
 13
0.0
 23
0.0
 14
0.5
 24
0.5
 15
0.5
 25
0.5
 16
0.0
 26
0.0
 36
1.0
 17
0.0
 27
0.0
 37
0.0
 40
9.0
 41
1.972972972850329
 42
50.0
 43
0.0
 44
0.0
 50
0.0
 51
0.0
 71
     0
 72
   100
 73
     1
 74
     3
 75
     0
 76
     0
 77
     0
 78
     0
281
     0
 65
     1
110
0.0
120
0.0
130
0.0
111
1.0
121
0.0
131
0.0
112
0.0
122
1.0
132
0.0
 79
     0
146
0.0
348
2F
 60
     3
 61
     5
292
     1
282
     1
141
0.0
142
0.0
 63
   250
361
5D
  0
ENDTAB
  0
TABLE
  2
LTYPE
  5
5
330
0
100
AcDbSymbolTable
 70
     1
  0
LTYPE
  5
14
330
5
100
AcDbSymbolTableRecord
100
AcDbLinetypeTableRecord
  2
ByBlock
 70
     0
  3

 72
    65
 73
     0
 40
0.0
  0
LTYPE
  5
15
330
5
100
AcDbSymbolTableRecord
100
AcDbLinetypeTableRecord
  2
ByLayer
 70
     0
  3

 72
    65
 73
     0
 40
0.0
  0
LTYPE
  5
16
330
5
100
AcDbSymbolTableRecord
100
AcDbLinetypeTableRecord
  2
Continuous
 70
     0
  3
Solid line
 72
    65
 73
     0
 40
0.0
  0
ENDTAB
  0
TABLE
  2
LAYER
  5
2
330
0
100
AcDbSymbolTable
 70
     2
  0
LAYER
  5
10
330
2
100
AcDbSymbolTableRecord
100
AcDbLayerTableRecord
  2
0
 70
     0
 62
     7
  6
Continuous
370
    -3
390
F
347
46
348
0
  0
LAYER
  5
5F
330
2
100
AcDbSymbolTableRecord
100
AcDbLayerTableRecord
  2
Layer 1
 70
     0
 62
     7
  6
Continuous
370
    -3
390
F
347
46
348
0
  0
ENDTAB
  0
TABLE
  2
STYLE
  5
3
330
0
100
AcDbSymbolTable
 70
     1
  0
STYLE
  5
11
330
3
100
AcDbSymbolTableRecord
100
AcDbTextStyleTableRecord
  2
Standard
 70
     0
 40
0.0
 41
1.0
 50
0.0
 71
     0
 42
0.2
  3
txt
  4

  0
ENDTAB
  0
TABLE
  2
VIEW
  5
6
330
0
100
AcDbSymbolTable
 70
     0
  0
ENDTAB
  0
TABLE
  2
UCS
  5
7
330
0
100
AcDbSymbolTable
 70
     0
  0
ENDTAB
  0
TABLE
  2
APPID
  5
9
330
0
100
AcDbSymbolTable
 70
     2
  0
APPID
  5
12
330
9
100
AcDbSymbolTableRecord
100
AcDbRegAppTableRecord
  2
ACAD
 70
     0
  0
APPID
  5
5E
330
9
100
AcDbSymbolTableRecord
100
AcDbRegAppTableRecord
  2
ODA
 70
     0
  0
ENDTAB
  0
TABLE
  2
DIMSTYLE
  5
A
330
0
100
AcDbSymbolTable
 70
     1
100
AcDbDimStyleTable
  0
DIMSTYLE
105
27
330
A
100
AcDbSymbolTableRecord
100
AcDbDimStyleTableRecord
  2
Standard
 70
     0
178
     0
340
11
  0
ENDTAB
  0
TABLE
  2
BLOCK_RECORD
  5
1
330
0
100
AcDbSymbolTable
 70
     1
  0
BLOCK_RECORD
  5
1F
330
1
100
AcDbSymbolTableRecord
100
AcDbBlockTableRecord
  2
*Model_Space
340
22
 70
     0
280
     1
281
     0
  0
BLOCK_RECORD
  5
1B
330
1
100
AcDbSymbolTableRecord
100
AcDbBlockTableRecord
  2
*Paper_Space
340
1E
 70
     0
280
     1
281
     0
  0
BLOCK_RECORD
  5
23
330
1
100
AcDbSymbolTableRecord
100
AcDbBlockTableRecord
  2
*Paper_Space0
340
26
 70
     0
280
     1
281
     0
  0
ENDTAB
  0
ENDSEC
  0
SECTION
  2
BLOCKS
  0
BLOCK
  5
20
330
1F
100
AcDbEntity
  8
0
100
AcDbBlockBegin
  2
*Model_Space
 70
     0
 10
0.0
 20
0.0
 30
0.0
  3
*Model_Space
  1

  0
ENDBLK
  5
21
330
1F
100
AcDbEntity
  8
0
100
AcDbBlockEnd
  0
BLOCK
  5
1C
330
1B
100
AcDbEntity
 67
     1
  8
0
100
AcDbBlockBegin
  2
*Paper_Space
 70
     0
 10
0.0
 20
0.0
 30
0.0
  3
*Paper_Space
  1

  0
ENDBLK
  5
1D
330
1B
100
AcDbEntity
 67
     1
  8
0
100
AcDbBlockEnd
  0
BLOCK
  5
24
330
23
100
AcDbEntity
  8
0
100
AcDbBlockBegin
  2
*Paper_Space0
 70
     0
 10
0.0
 20
0.0
 30
0.0
  3
*Paper_Space0
  1

  0
ENDBLK
  5
25
330
23
100
AcDbEntity
  8
0
100
AcDbBlockEnd
  0
ENDSEC
  0
SECTION
  2
ENTITIES
  0
SPLINE
  5
60
330
1F
100
AcDbEntity
  8
Layer 1
370
     9
100
AcDbSpline
210
0.0
220
0.0
230
1.0
 70
    11
 71
     3
 72
    29
 73
    25
 74
     0
 42
0.0000000001
 43
0.0000000001
 40
0.0
 40
0.0
 40
0.0
 40
0.0
 40
0.125
 40
0.125
 40
0.125
 40
0.25
 40
0.25
 40
0.25
 40
0.375
 40
0.375
 40
0.375
 40
0.5
 40
0.5
 40
0.5
 40
0.625
 40
0.625
 40
0.625
 40
0.75
 40
0.75
 40
0.75
 40
0.875
 40
0.875
 40
0.875
 40
1.0
 40
1.0
 40
1.0
 40
1.0
 10
0.73942
 20
1.83097
 30
0.0
 10
0.74331
 20
1.87297
 30
0.0
 10
0.73956
 20
1.90589
 30
0.0
 10
0.74747
 20
1.94699
 30
0.0
 10
0.77138
 20
2.07114
 30
0.0
 10
0.82089
 20
2.01206
 30
0.0
 10
0.56454
 20
2.21659
 30
0.0
 10
0.48676
 20
2.27864
 30
0.0
 10
0.43392
 20
2.32384
 30
0.0
 10
0.35226
 20
2.38814
 30
0.0
 10
0.35226
 20
2.38814
 30
0.0
 10
0.04788
 20
2.63978
 30
0.0
 10
0.04788
 20
2.63978
 30
0.0
 10
0.01054
 20
2.66635
 30
0.0
 10
-0.02204
 20
2.70653
 30
0.0
 10
-0.06643
 20
2.71746
 30
0.0
 10
-0.03491
 20
2.65331
 30
0.0
 10
0.24794
 20
2.3374
 30
0.0
 10
0.3161
 20
2.25946
 30
0.0
 10
0.3161
 20
2.25946
 30
0.0
 10
0.62366
 20
1.93147
 30
0.0
 10
0.62366
 20
1.93147
 30
0.0
 10
0.7093
 20
1.84595
 30
0.0
 10
0.67838
 20
1.84535
 30
0.0
 10
0.73942
 20
1.83097
 30
0.0
  0
SPLINE
  5
61
330
1F
100
AcDbEntity
  8
Layer 1
370
     9
100
AcDbSpline
210
0.0
220
0.0
230
1.0
 70
    11
 71
     3
 72
    20
 73
    16
 74
     0
 42
0.0000000001
 43
0.0000000001
 40
0.0
 40
0.0
 40
0.0
 40
0.0
 40
0.2
 40
0.2
 40
0.2
 40
0.4
 40
0.4
 40
0.4
 40
0.6000000000000001
 40
0.6000000000000001
 40
0.6000000000000001
 40
0.8
 40
0.8
 40
0.8
 40
1.0
 40
1.0
 40
1.0
 40
1.0
 10
2.14351
 20
1.63143
 30
0.0
 10
2.13133
 20
1.58845
 30
0.0
 10
2.12513
 20
1.5515
 30
0.0
 10
2.10224
 20
1.51269
 30
0.0
 10
2.08222
 20
1.47876
 30
0.0
 10
2.05504
 20
1.45652
 30
0.0
 10
2.04868
 20
1.41077
 30
0.0
 10
2.13866
 20
1.40722
 30
0.0
 10
3.18593
 20
1.68368
 30
0.0
 10
3.26356
 20
1.72758
 30
0.0
 10
3.2008
 20
1.76655
 30
0.0
 10
3.07345
 20
1.72061
 30
0.0
 10
2.99996
 20
1.7153
 30
0.0
 10
2.99996
 20
1.7153
 30
0.0
 10
2.14351
 20
1.63143
 30
0.0
 10
2.14351
 20
1.63143
 30
0.0
  0
SPLINE
  5
62
330
1F
100
AcDbEntity
  8
Layer 1
370
     9
100
AcDbSpline
210
0.0
220
0.0
230
1.0
 70
    11
 71
     3
 72
    35
 73
    31
 74
     0
 42
0.0000000001
 43
0.0000000001
 40
0.0
 40
0.0
 40
0.0
 40
0.0
 40
0.1
 40
0.1
 40
0.1
 40
0.2
 40
0.2
 40
0.2
 40
0.3
 40
0.3
 40
0.3
 40
0.4
 40
0.4
 40
0.4
 40
0.5
 40
0.5
 40
0.5
 40
0.6000000000000001
 40
0.6000000000000001
 40
0.6000000000000001
 40
0.7000000000000001
 40
0.7000000000000001
 40
0.7000000000000001
 40
0.8
 40
0.8
 40
0.8
 40
0.9
 40
0.9
 40
0.9
 40
1.0
 40
1.0
 40
1.0
 40
1.0
 10
-1.54751
 20
2.15104
 30
0.0
 10
-1.5343
 20
2.13902
 30
0.0
 10
-1.53838
 20
2.14174
 30
0.0
 10
-1.51958
 20
2.1295
 30
0.0
 10
-1.47196
 20
2.09854
 30
0.0
 10
-1.36472
 20
2.05044
 30
0.0
 10
-1.33063
 20
2.01551
 30
0.0
 10
-1.27273
 20
1.9562
 30
0.0
 10
-1.25128
 20
1.84706
 30
0.0
 10
-1.19483
 20
1.79524
 30
0.0
 10
-1.13606
 20
1.84967
 30
0.0
 10
-1.1169
 20
1.95834
 30
0.0
 10
-1.06005
 20
2.01672
 30
0.0
 10
-1.00573
 20
2.07254
 30
0.0
 10
-0.88433
 20
2.09883
 30
0.0
 10
-0.83849
 20
2.15104
 30
0.0
 10
-0.86637
 20
2.20665
 30
0.0
 10
-0.97475
 20
2.22281
 30
0.0
 10
-1.05068
 20
2.28198
 30
0.0
 10
-1.1182
 20
2.33459
 30
0.0
 10
-1.1235
 20
2.45405
 30
0.0
 10
-1.19483
 20
2.50472
 30
0.0
 10
-1.21685
 20
2.48279
 30
0.0
 10
-1.19578
 20
2.50817
 30
0.0
 10
-1.21754
 20
2.47867
 30
0.0
 10
-1.25979
 20
2.42138
 30
0.0
 10
-1.30125
 20
2.31545
 30
0.0
 10
-1.32996
 20
2.28678
 30
0.0
 10
-1.38854
 20
2.22828
 30
0.0
 10
-1.50408
 20
2.21682
 30
0.0
 10
-1.54751
 20
2.15104
 30
0.0
  0
SPLINE
  5
63
330
1F
100
AcDbEntity
  8
Layer 1
370
     9
100
AcDbSpline
210
0.0
220
0.0
230
1.0
 70
    11
 71
     3
 72
    29
 73
    25
 74
     0
 42
0.0000000001
 43
0.0000000001
 40
0.0
 40
0.0
 40
0.0
 40
0.0
 40
0.125
 40
0.125
 40
0.125
 40
0.25
 40
0.25
 40
0.25
 40
0.375
 40
0.375
 40
0.375
 40
0.5
 40
0.5
 40
0.5
 40
0.625
 40
0.625
 40
0.625
 40
0.75
 40
0.75
 40
0.75
 40
0.875
 40
0.875
 40
0.875
 40
1.0
 40
1.0
 40
1.0
 40
1.0
 10
-2.36679
 20
1.95254
 30
0.0
 10
-2.28284
 20
1.84388
 30
0.0
 10
-2.1937
 20
1.93822
 30
0.0
 10
-2.06865
 20
1.70195
 30
0.0
 10
-2.01723
 20
1.60481
 30
0.0
 10
-2.04314
 20
1.61346
 30
0.0
 10
-1.98881
 20
1.58953
 30
0.0
 10
-1.94719
 20
1.63496
 30
0.0
 10
-1.88999
 20
1.77566
 30
0.0
 10
-1.85074
 20
1.81447
 30
0.0
 10
-1.80348
 20
1.86122
 30
0.0
 10
-1.66086
 20
1.90387
 30
0.0
 10
-1.62714
 20
1.95254
 30
0.0
 10
-1.66572
 20
2.00653
 30
0.0
 10
-1.79859
 20
2.04161
 30
0.0
 10
-1.85116
 20
2.09013
 30
0.0
 10
-1.90291
 20
2.13788
 30
0.0
 10
-1.93295
 20
2.26498
 30
0.0
 10
-1.98881
 20
2.32321
 30
0.0
 10
-2.04653
 20
2.29638
 30
0.0
 10
-2.08298
 20
2.15171
 30
0.0
 10
-2.13295
 20
2.09683
 30
0.0
 10
-2.18023
 20
2.04493
 30
0.0
 10
-2.31721
 20
2.01432
 30
0.0
 10
-2.36679
 20
1.95254
 30
0.0
  0
SPLINE
  5
64
330
1F
100
AcDbEntity
  8
Layer 1
370
     9
100
AcDbSpline
210
0.0
220
0.0
230
1.0
 70
     8
 71
     3
 72
    14
 73
    10
 74
     0
 42
0.0000000001
 43
0.0000000001
 40
0.0
 40
0.0
 40
0.0
 40
0.0
 40
0.3333333333333333
 40
0.3333333333333333
 40
0.3333333333333333
 40
0.6666666666666666
 40
0.6666666666666666
 40
0.6666666666666666
 40
1.0
 40
1.0
 40
1.0
 40
1.0
 10
2.20574
 20
5.21207
 30
0.0
 10
2.20574
 20
5.21207
 30
0.0
 10
2.2685
 20
5.14971
 30
0.0
 10
2.2685
 20
5.14971
 30
0.0
 10
2.30879
 20
5.19793
 30
0.0
 10
2.39569
 20
5.51121
 30
0.0
 10
2.41717
 20
5.60824
 30
0.0
 10
2.44946
 20
5.75417
 30
0.0
 10
2.63761
 20
6.2556
 30
0.0
 10
2.65485
 20
6.3988
 30
0.0
  0
SPLINE
  5
65
330
1F
100
AcDbEntity
  8
Layer 1
370
     9
100
AcDbSpline
210
0.0
220
0.0
230
1.0
 70
    11
 71
     3
 72
    20
 73
    16
 74
     0
 42
0.0000000001
 43
0.0000000001
 40
0.0
 40
0.0
 40
0.0
 40
0.0
 40
0.2
 40
0.2
 40
0.2
 40
0.4
 40
0.4
 40
0.4
 40
0.6000000000000001
 40
0.6000000000000001
 40
0.6000000000000001
 40
0.8
 40
0.8
 40
0.8
 40
1.0
 40
1.0
 40
1.0
 40
1.0
 10
3.86022
 20
3.92792
 30
0.0
 10
3.86022
 20
3.92792
 30
0.0
 10
3.88413
 20
3.98282
 30
0.0
 10
3.88413
 20
3.98282
 30
0.0
 10
4.03379
 20
4.4357
 30
0.0
 10
3.59789
 20
4.51541
 30
0.0
 10
3.42976
 20
4.36702
 30
0.0
 10
3.37361
 20
4.31745
 30
0.0
 10
3.36071
 20
4.27859
 30
0.0
 10
3.33499
 20
4.196
 30
0.0
 10
3.29139
 20
4.05604
 30
0.0
 10
3.30207
 20
4.08791
 30
0.0
 10
3.43178
 20
4.0484
 30
0.0
 10
3.55769
 20
4.01006
 30
0.0
 10
3.72173
 20
3.94852
 30
0.0
 10
3.86022
 20
3.92792
 30
0.0
  0
SPLINE
  5
66
330
1F
100
AcDbEntity
  8
Layer 1
370
     9
100
AcDbSpline
210
0.0
220
0.0
230
1.0
 70
    11
 71
     3
 72
    14
 73
    10
 74
     0
 42
0.0000000001
 43
0.0000000001
 40
0.0
 40
0.0
 40
0.0
 40
0.0
 40
0.3333333333333333
 40
0.3333333333333333
 40
0.3333333333333333
 40
0.6666666666666666
 40
0.6666666666666666
 40
0.6666666666666666
 40
1.0
 40
1.0
 40
1.0
 40
1.0
 10
4.21581
 20
3.81841
 30
0.0
 10
4.21581
 20
3.81841
 30
0.0
 10
4.75974
 20
3.65273
 30
0.0
 10
4.75974
 20
3.65273
 30
0.0
 10
4.81047
 20
3.73507
 30
0.0
 10
4.84865
 20
3.89098
 30
0.0
 10
4.80245
 20
3.99287
 30
0.0
 10
4.65744
 20
4.31271
 30
0.0
 10
4.21404
 20
4.17167
 30
0.0
 10
4.21581
 20
3.81841
 30
0.0
  0
SPLINE
  5
67
330
1F
100
AcDbEntity
  8
Layer 1
370
     9
100
AcDbSpline
210
0.0
220
0.0
230
1.0
 70
    11
 71
     3
 72
    14
 73
    10
 74
     0
 42
0.0000000001
 43
0.0000000001
 40
0.0
 40
0.0
 40
0.0
 40
0.0
 40
0.3333333333333333
 40
0.3333333333333333
 40
0.3333333333333333
 40
0.6666666666666666
 40
0.6666666666666666
 40
0.6666666666666666
 40
1.0
 40
1.0
 40
1.0
 40
1.0
 10
-1.21297
 20
5.44608
 30
0.0
 10
-1.17023
 20
5.41399
 30
0.0
 10
-0.706
 20
5.28237
 30
0.0
 10
-0.65226
 20
5.28609
 30
0.0
 10
-0.62457
 20
5.33606
 30
0.0
 10
-0.58166
 20
5.49995
 30
0.0
 10
-0.61292
 20
5.59103
 30
0.0
 10
-0.71994
 20
5.90282
 30
0.0
 10
-1.19847
 20
5.84045
 30
0.0
 10
-1.21297
 20
5.44608
 30
0.0
  0
SPLINE
  5
68
330
1F
100
AcDbEntity
  8
Layer 1
370
     9
100
AcDbSpline
210
0.0
220
0.0
230
1.0
 70
    11
 71
     3
 72
    20
 73
    16
 74
     0
 42
0.0000000001
 43
0.0000000001
 40
0.0
 40
0.0
 40
0.0
 40
0.0
 40
0.2
 40
0.2
 40
0.2
 40
0.4
 40
0.4
 40
0.4
 40
0.6000000000000001
 40
0.6000000000000001
 40
0.6000000000000001
 40
0.8
 40
0.8
 40
0.8
 40
1.0
 40
1.0
 40
1.0
 40
1.0
 10
1.49886
 20
4.63887
 30
0.0
 10
1.52117
 20
4.62191
 30
0.0
 10
1.50114
 20
4.63513
 30
0.0
 10
1.53043
 20
4.62165
 30
0.0
 10
1.53286
 20
4.62054
 30
0.0
 10
1.55805
 20
4.61041
 30
0.0
 10
1.55933
 20
4.60992
 30
0.0
 10
1.64444
 20
4.57715
 30
0.0
 10
2.01386
 20
4.46557
 30
0.0
 10
2.06017
 20
4.46774
 30
0.0
 10
2.09024
 20
4.53121
 30
0.0
 10
2.13113
 20
4.68218
 30
0.0
 10
2.10206
 20
4.77433
 30
0.0
 10
2.02422
 20
5.02098
 30
0.0
 10
1.59814
 20
5.13222
 30
0.0
 10
1.49886
 20
4.63887
 30
0.0
  0
SPLINE
  5
69
330
1F
100
AcDbEntity
  8
Layer 1
370
     9
100
AcDbSpline
210
0.0
220
0.0
230
1.0
 70
    11
 71
     3
 72
    11
 73
     7
 74
     0
 42
0.0000000001
 43
0.0000000001
 40
0.0
 40
0.0
 40
0.0
 40
0.0
 40
0.5
 40
0.5
 40
0.5
 40
1.0
 40
1.0
 40
1.0
 40
1.0
 10
0.59544
 20
4.89429
 30
0.0
 10
0.72696
 20
4.86772
 30
0.0
 10
1.04645
 20
4.73187
 30
0.0
 10
1.16067
 20
4.74709
 30
0.0
 10
1.39263
 20
5.28466
 30
0.0
 10
0.66363
 20
5.48654
 30
0.0
 10
0.59544
 20
4.89429
 30
0.0
  0
SPLINE
  5
6A
330
1F
100
AcDbEntity
  8
Layer 1
370
     9
100
AcDbSpline
210
0.0
220
0.0
230
1.0
 70
    11
 71
     3
 72
    14
 73
    10
 74
     0
 42
0.0000000001
 43
0.0000000001
 40
0.0
 40
0.0
 40
0.0
 40
0.0
 40
0.3333333333333333
 40
0.3333333333333333
 40
0.3333333333333333
 40
0.6666666666666666
 40
0.6666666666666666
 40
0.6666666666666666
 40
1.0
 40
1.0
 40
1.0
 40
1.0
 10
2.4013
 20
4.35674
 30
0.0
 10
2.51173
 20
4.32237
 30
0.0
 10
2.88832
 20
4.20371
 30
0.0
 10
2.9673
 20
4.19632
 30
0.0
 10
2.99079
 20
4.28725
 30
0.0
 10
3.03912
 20
4.4011
 30
0.0
 10
3.00407
 20
4.51147
 30
0.0
 10
2.9185
 20
4.78104
 30
0.0
 10
2.45032
 20
4.82017
 30
0.0
 10
2.4013
 20
4.35674
 30
0.0
  0
SPLINE
  5
6B
330
1F
100
AcDbEntity
  8
Layer 1
370
     9
100
AcDbSpline
210
0.0
220
0.0
230
1.0
 70
    11
 71
     3
 72
    20
 73
    16
 74
     0
 42
0.0000000001
 43
0.0000000001
 40
0.0
 40
0.0
 40
0.0
 40
0.0
 40
0.2
 40
0.2
 40
0.2
 40
0.4
 40
0.4
 40
0.4
 40
0.6000000000000001
 40
0.6000000000000001
 40
0.6000000000000001
 40
0.8
 40
0.8
 40
0.8
 40
1.0
 40
1.0
 40
1.0
 40
1.0
 10
-0.30747
 20
5.16818
 30
0.0
 10
-0.22689
 20
5.12866
 30
0.0
 10
0.12658
 20
5.02999
 30
0.0
 10
0.23435
 20
5.01331
 30
0.0
 10
0.23435
 20
5.01331
 30
0.0
 10
0.27354
 20
5.07586
 30
0.0
 10
0.27354
 20
5.07586
 30
0.0
 10
0.28286
 20
5.09602
 30
0.0
 10
0.29111
 20
5.12295
 30
0.0
 10
0.2954
 20
5.14407
 30
0.0
 10
0.30762
 20
5.20457
 30
0.0
 10
0.30573
 20
5.26521
 30
0.0
 10
0.29061
 20
5.31562
 30
0.0
 10
0.18825
 20
5.65717
 30
0.0
 10
-0.30342
 20
5.552
 30
0.0
 10
-0.30747
 20
5.16818
 30
0.0
  0
SPLINE
  5
6C
330
1F
100
AcDbEntity
  8
Layer 1
370
     9
100
AcDbSpline
210
0.0
220
0.0
230
1.0
 70
    11
 71
     3
 72
    20
 73
    16
 74
     0
 42
0.0000000001
 43
0.0000000001
 40
0.0
 40
0.0
 40
0.0
 40
0.0
 40
0.2
 40
0.2
 40
0.2
 40
0.4
 40
0.4
 40
0.4
 40
0.6000000000000001
 40
0.6000000000000001
 40
0.6000000000000001
 40
0.8
 40
0.8
 40
0.8
 40
1.0
 40
1.0
 40
1.0
 40
1.0
 10
6.20574
 20
10.60533
 30
0.0
 10
6.20574
 20
10.60533
 30
0.0
 10
6.20167
 20
9.45205
 30
0.0
 10
6.20167
 20
9.45205
 30
0.0
 10
6.24165
 20
9.46873
 30
0.0
 10
6.22627
 20
9.45577
 30
0.0
 10
6.25137
 20
9.50249
 30
0.0
 10
6.32562
 20
9.64076
 30
0.0
 10
6.40413
 20
9.86805
 30
0.0
 10
6.44038
 20
10.0132
 30
0.0
 10
6.49491
 20
10.23161
 30
0.0
 10
6.52942
 20
10.51694
 30
0.0
 10
6.48045
 20
10.75328
 30
0.0
 10
6.43044
 20
10.74986
 30
0.0
 10
6.25552
 20
10.63535
 30
0.0
 10
6.20574
 20
10.60533
 30
0.0
  0
SPLINE
  5
6D
330
1F
100
AcDbEntity
  8
Layer 1
370
     9
100
AcDbSpline
210
0.0
220
0.0
230
1.0
 70
    11
 71
     3
 72
    29
 73
    25
 74
     0
 42
0.0000000001
 43
0.0000000001
 40
0.0
 40
0.0
 40
0.0
 40
0.0
 40
0.125
 40
0.125
 40
0.125
 40
0.25
 40
0.25
 40
0.25
 40
0.375
 40
0.375
 40
0.375
 40
0.5
 40
0.5
 40
0.5
 40
0.625
 40
0.625
 40
0.625
 40
0.75
 40
0.75
 40
0.75
 40
0.875
 40
0.875
 40
0.875
 40
1.0
 40
1.0
 40
1.0
 40
1.0
 10
4.76644
 20
14.44892
 30
0.0
 10
4.67874
 20
14.44302
 30
0.0
 10
4.67079
 20
14.47213
 30
0.0
 10
4.58875
 20
14.47684
 30
0.0
 10
4.50897
 20
14.48142
 30
0.0
 10
4.45944
 20
14.47413
 30
0.0
 10
4.4058
 20
14.44119
 30
0.0
 10
4.35712
 20
14.4113
 30
0.0
 10
4.32762
 20
14.3829
 30
0.0
 10
4.30221
 20
14.33316
 30
0.0
 10
4.22247
 20
14.17705
 30
0.0
 10
4.34358
 20
14.01289
 30
0.0
 10
4.47436
 20
13.93393
 30
0.0
 10
4.63586
 20
13.83638
 30
0.0
 10
4.93169
 20
13.80026
 30
0.0
 10
5.11736
 20
13.81169
 30
0.0
 10
5.22103
 20
13.93097
 30
0.0
 10
5.37483
 20
14.22962
 30
0.0
 10
5.39111
 20
14.40518
 30
0.0
 10
5.40998
 20
14.60858
 30
0.0
 10
5.28497
 20
14.83468
 30
0.0
 10
5.04565
 20
14.76883
 30
0.0
 10
4.83787
 20
14.71167
 30
0.0
 10
4.87587
 20
14.51074
 30
0.0
 10
4.76644
 20
14.44892
 30
0.0
  0
SPLINE
  5
6E
330
1F
100
AcDbEntity
  8
Layer 1
370
     9
100
AcDbSpline
210
0.0
220
0.0
230
1.0
 70
     8
 71
     3
 72
    11
 73
     7
 74
     0
 42
0.0000000001
 43
0.0000000001
 40
0.0
 40
0.0
 40
0.0
 40
0.0
 40
0.5
 40
0.5
 40
0.5
 40
1.0
 40
1.0
 40
1.0
 40
1.0
 10
-2.66339
 20
13.35319
 30
0.0
 10
-2.6037
 20
13.3199
 30
0.0
 10
-2.50991
 20
13.2117
 30
0.0
 10
-2.27609
 20
13.10915
 30
0.0
 10
-2.13805
 20
13.04863
 30
0.0
 10
-1.92686
 20
13.01725
 30
0.0
 10
-1.99793
 20
12.79714
 30
0.0
  0
SPLINE
  5
6F
330
1F
100
AcDbEntity
  8
Layer 1
370
     9
100
AcDbSpline
210
0.0
220
0.0
230
1.0
 70
     8
 71
     3
 72
    14
 73
    10
 74
     0
 42
0.0000000001
 43
0.0000000001
 40
0.0
 40
0.0
 40
0.0
 40
0.0
 40
0.3333333333333333
 40
0.3333333333333333
 40
0.3333333333333333
 40
0.6666666666666666
 40
0.6666666666666666
 40
0.6666666666666666
 40
1.0
 40
1.0
 40
1.0
 40
1.0
 10
-2.46475
 20
13.50135
 30
0.0
 10
-2.48279
 20
13.53586
 30
0.0
 10
-2.53223
 20
13.56799
 30
0.0
 10
-2.55987
 20
13.59606
 30
0.0
 10
-2.59257
 20
13.62924
 30
0.0
 10
-2.62505
 20
13.65922
 30
0.0
 10
-2.6554
 20
13.6987
 30
0.0
 10
-2.70614
 20
13.76467
 30
0.0
 10
-2.78743
 20
13.86638
 30
0.0
 10
-2.80914
 20
13.94166
 30
0.0
  0
SPLINE
  5
70
330
1F
100
AcDbEntity
  8
Layer 1
370
     9
100
AcDbSpline
210
0.0
220
0.0
230
1.0
 70
     8
 71
     3
 72
    11
 73
     7
 74
     0
 42
0.0000000001
 43
0.0000000001
 40
0.0
 40
0.0
 40
0.0
 40
0.0
 40
0.5
 40
0.5
 40
0.5
 40
1.0
 40
1.0
 40
1.0
 40
1.0
 10
4.08018
 20
4.62713
 30
0.0
 10
4.08111
 20
4.62713
 30
0.0
 10
4.08208
 20
4.62715
 30
0.0
 10
4.08307
 20
4.62715
 30
0.0
 10
4.08307
 20
4.62715
 30
0.0
 10
4.6161
 20
6.42152
 30
0.0
 10
4.6161
 20
6.42152
 30
0.0
  0
SPLINE
  5
71
330
1F
100
AcDbEntity
  8
Layer 1
370
     9
100
AcDbSpline
210
0.0
220
0.0
230
1.0
 70
     8
 71
     3
 72
     8
 73
     4
 74
     0
 42
0.0000000001
 43
0.0000000001
 40
0.0
 40
0.0
 40
0.0
 40
0.0
 40
1.0
 40
1.0
 40
1.0
 40
1.0
 10
4.08018
 20
4.62713
 30
0.0
 10
4.07466
 20
4.62982
 30
0.0
 10
4.06369
 20
4.63549
 30
0.0
 10
4.0434
 20
4.64523
 30
0.0
  0
SPLINE
  5
72
330
1F
100
AcDbEntity
  8
Layer 1
370
     9
100
AcDbSpline
210
0.0
220
0.0
230
1.0
 70
     8
 71
     3
 72
    23
 73
    19
 74
     0
 42
0.0000000001
 43
0.0000000001
 40
0.0
 40
0.0
 40
0.0
 40
0.0
 40
0.1666666666666667
 40
0.1666666666666667
 40
0.1666666666666667
 40
0.3333333333333333
 40
0.3333333333333333
 40
0.3333333333333333
 40
0.5
 40
0.5
 40
0.5
 40
0.6666666666666666
 40
0.6666666666666666
 40
0.6666666666666666
 40
0.8333333333333333
 40
0.8333333333333333
 40
0.8333333333333333
 40
1.0
 40
1.0
 40
1.0
 40
1.0
 10
4.81849
 20
4.45802
 30
0.0
 10
4.84812
 20
4.432
 30
0.0
 10
4.8645
 20
4.43231
 30
0.0
 10
4.89804
 20
4.40675
 30
0.0
 10
4.98188
 20
4.34289
 30
0.0
 10
4.92224
 20
4.36308
 30
0.0
 10
4.99199
 20
4.3541
 30
0.0
 10
5.01203
 20
4.45882
 30
0.0
 10
5.03122
 20
4.50596
 30
0.0
 10
5.05883
 20
4.58921
 30
0.0
 10
5.0834
 20
4.66336
 30
0.0
 10
5.10834
 20
4.7633
 30
0.0
 10
5.12844
 20
4.84116
 30
0.0
 10
5.20984
 20
5.15635
 30
0.0
 10
5.3277
 20
5.47282
 30
0.0
 10
5.41554
 20
5.79767
 30
0.0
 10
5.46018
 20
5.96275
 30
0.0
 10
5.52049
 20
6.12
 30
0.0
 10
5.55843
 20
6.27701
 30
0.0
  0
SPLINE
  5
73
330
1F
100
AcDbEntity
  8
Layer 1
370
     9
100
AcDbSpline
210
0.0
220
0.0
230
1.0
 70
    11
 71
     3
 72
    14
 73
    10
 74
     0
 42
0.0000000001
 43
0.0000000001
 40
0.0
 40
0.0
 40
0.0
 40
0.0
 40
0.3333333333333333
 40
0.3333333333333333
 40
0.3333333333333333
 40
0.6666666666666666
 40
0.6666666666666666
 40
0.6666666666666666
 40
1.0
 40
1.0
 40
1.0
 40
1.0
 10
1.59172
 20
1.4817
 30
0.0
 10
2.04524
 20
1.69401
 30
0.0
 10
1.73215
 20
2.34936
 30
0.0
 10
1.30879
 20
2.14885
 30
0.0
 10
1.18979
 20
2.09249
 30
0.0
 10
1.0962
 20
1.99032
 30
0.0
 10
1.0878
 20
1.83202
 30
0.0
 10
1.07427
 20
1.57608
 30
0.0
 10
1.35818
 20
1.37235
 30
0.0
 10
1.59172
 20
1.4817
 30
0.0
  0
SPLINE
  5
74
330
1F
100
AcDbEntity
  8
Layer 1
370
     9
100
AcDbSpline
210
0.0
220
0.0
230
1.0
 70
     8
 71
     3
 72
    14
 73
    10
 74
     0
 42
0.0000000001
 43
0.0000000001
 40
0.0
 40
0.0
 40
0.0
 40
0.0
 40
0.3333333333333333
 40
0.3333333333333333
 40
0.3333333333333333
 40
0.6666666666666666
 40
0.6666666666666666
 40
0.6666666666666666
 40
1.0
 40
1.0
 40
1.0
 40
1.0
 10
1.18946
 20
8.45716
 30
0.0
 10
1.21944
 20
8.39999
 30
0.0
 10
1.24043
 20
8.39803
 30
0.0
 10
1.29055
 20
8.35438
 30
0.0
 10
1.32312
 20
8.32603
 30
0.0
 10
1.36276
 20
8.276
 30
0.0
 10
1.41326
 20
8.26276
 30
0.0
 10
1.41326
 20
8.26276
 30
0.0
 10
1.41474
 20
9.87205
 30
0.0
 10
1.41474
 20
9.87205
 30
0.0
  0
SPLINE
  5
75
330
1F
100
AcDbEntity
  8
Layer 1
370
     9
100
AcDbSpline
210
0.0
220
0.0
230
1.0
 70
    11
 71
     3
 72
    41
 73
    37
 74
     0
 42
0.0000000001
 43
0.0000000001
 40
0.0
 40
0.0
 40
0.0
 40
0.0
 40
0.0833333333333333
 40
0.0833333333333333
 40
0.0833333333333333
 40
0.1666666666666667
 40
0.1666666666666667
 40
0.1666666666666667
 40
0.25
 40
0.25
 40
0.25
 40
0.3333333333333333
 40
0.3333333333333333
 40
0.3333333333333333
 40
0.4166666666666666
 40
0.4166666666666666
 40
0.4166666666666666
 40
0.5
 40
0.5
 40
0.5
 40
0.5833333333333333
 40
0.5833333333333333
 40
0.5833333333333333
 40
0.6666666666666666
 40
0.6666666666666666
 40
0.6666666666666666
 40
0.75
 40
0.75
 40
0.75
 40
0.8333333333333333
 40
0.8333333333333333
 40
0.8333333333333333
 40
0.9166666666666666
 40
0.9166666666666666
 40
0.9166666666666666
 40
1.0
 40
1.0
 40
1.0
 40
1.0
 10
-0.69677
 20
14.72913
 30
0.0
 10
-0.64629
 20
14.70716
 30
0.0
 10
-0.41852
 20
14.58861
 30
0.0
 10
-0.39089
 20
14.56072
 30
0.0
 10
-0.33711
 20
14.50644
 30
0.0
 10
-0.26715
 20
14.30773
 30
0.0
 10
-0.21557
 20
14.26034
 30
0.0
 10
-0.17524
 20
14.28961
 30
0.0
 10
-0.15585
 20
14.35155
 30
0.0
 10
-0.12493
 20
14.4063
 30
0.0
 10
-0.0988
 20
14.4526
 30
0.0
 10
-0.06546
 20
14.53357
 30
0.0
 10
-0.04011
 20
14.56058
 30
0.0
 10
-0.0049
 20
14.59806
 30
0.0
 10
0.21776
 20
14.70663
 30
0.0
 10
0.26693
 20
14.72741
 30
0.0
 10
0.24769
 20
14.78545
 30
0.0
 10
0.27143
 20
14.75477
 30
0.0
 10
0.2067
 20
14.78823
 30
0.0
 10
0.2067
 20
14.78823
 30
0.0
 10
-0.02392
 20
14.91391
 30
0.0
 10
-0.02392
 20
14.91391
 30
0.0
 10
-0.05791
 20
14.94259
 30
0.0
 10
-0.17792
 20
15.16904
 30
0.0
 10
-0.19461
 20
15.22114
 30
0.0
 10
-0.23987
 20
15.2051
 30
0.0
 10
-0.20852
 20
15.22278
 30
0.0
 10
-0.23803
 20
15.19324
 30
0.0
 10
-0.25739
 20
15.17387
 30
0.0
 10
-0.36046
 20
14.95589
 30
0.0
 10
-0.39115
 20
14.92463
 30
0.0
 10
-0.39115
 20
14.92463
 30
0.0
 10
-0.61781
 20
14.79409
 30
0.0
 10
-0.61781
 20
14.79409
 30
0.0
 10
-0.67932
 20
14.76136
 30
0.0
 10
-0.68057
 20
14.76716
 30
0.0
 10
-0.69677
 20
14.72913
 30
0.0
  0
SPLINE
  5
76
330
1F
100
AcDbEntity
  8
Layer 1
370
     9
100
AcDbSpline
210
0.0
220
0.0
230
1.0
 70
     8
 71
     3
 72
    11
 73
     7
 74
     0
 42
0.0000000001
 43
0.0000000001
 40
0.0
 40
0.0
 40
0.0
 40
0.0
 40
0.5
 40
0.5
 40
0.5
 40
1.0
 40
1.0
 40
1.0
 40
1.0
 10
0.57223
 20
14.85001
 30
0.0
 10
0.57223
 20
14.85001
 30
0.0
 10
0.78832
 20
15.23813
 30
0.0
 10
0.78832
 20
15.23813
 30
0.0
 10
0.84768
 20
15.35157
 30
0.0
 10
1.07431
 20
15.40374
 30
0.0
 10
1.16675
 20
15.4822
 30
0.0
  0
SPLINE
  5
77
330
1F
100
AcDbEntity
  8
Layer 1
370
     9
100
AcDbSpline
210
0.0
220
0.0
230
1.0
 70
    11
 71
     3
 72
    38
 73
    34
 74
     0
 42
0.0000000001
 43
0.0000000001
 40
0.0
 40
0.0
 40
0.0
 40
0.0
 40
0.0909090909090909
 40
0.0909090909090909
 40
0.0909090909090909
 40
0.1818181818181818
 40
0.1818181818181818
 40
0.1818181818181818
 40
0.2727272727272727
 40
0.2727272727272727
 40
0.2727272727272727
 40
0.3636363636363636
 40
0.3636363636363636
 40
0.3636363636363636
 40
0.4545454545454546
 40
0.4545454545454546
 40
0.4545454545454546
 40
0.5454545454545454
 40
0.5454545454545454
 40
0.5454545454545454
 40
0.6363636363636364
 40
0.6363636363636364
 40
0.6363636363636364
 40
0.7272727272727273
 40
0.7272727272727273
 40
0.7272727272727273
 40
0.8181818181818182
 40
0.8181818181818182
 40
0.8181818181818182
 40
0.9090909090909092
 40
0.9090909090909092
 40
0.9090909090909092
 40
1.0
 40
1.0
 40
1.0
 40
1.0
 10
-1.16831
 20
8.29224
 30
0.0
 10
-1.26443
 20
8.35855
 30
0.0
 10
-1.24947
 20
8.31724
 30
0.0
 10
-1.33184
 20
8.47234
 30
0.0
 10
-1.36291
 20
8.53084
 30
0.0
 10
-1.4279
 20
8.69301
 30
0.0
 10
-1.48595
 20
8.72422
 30
0.0
 10
-1.48831
 20
8.72102
 30
0.0
 10
-1.4915
 20
8.72007
 30
0.0
 10
-1.49259
 20
8.7143
 30
0.0
 10
-1.49259
 20
8.7143
 30
0.0
 10
-1.70054
 20
8.34763
 30
0.0
 10
-1.70054
 20
8.34763
 30
0.0
 10
-1.75701
 20
8.29649
 30
0.0
 10
-2.03159
 20
8.17687
 30
0.0
 10
-2.07486
 20
8.13239
 30
0.0
 10
-2.05183
 20
8.09723
 30
0.0
 10
-1.94952
 20
8.0512
 30
0.0
 10
-1.89013
 20
8.01883
 30
0.0
 10
-1.654
 20
7.89018
 30
0.0
 10
-1.70781
 20
7.95736
 30
0.0
 10
-1.53937
 20
7.62918
 30
0.0
 10
-1.48799
 20
7.52907
 30
0.0
 10
-1.50925
 20
7.55191
 30
0.0
 10
-1.47272
 20
7.53501
 30
0.0
 10
-1.39209
 20
7.62709
 30
0.0
 10
-1.32612
 20
7.87874
 30
0.0
 10
-1.23128
 20
7.93069
 30
0.0
 10
-1.17102
 20
7.96369
 30
0.0
 10
-0.90862
 20
8.09333
 30
0.0
 10
-0.88761
 20
8.13239
 30
0.0
 10
-0.94013
 20
8.19752
 30
0.0
 10
-1.09469
 20
8.24142
 30
0.0
 10
-1.16831
 20
8.29224
 30
0.0
  0
SPLINE
  5
78
330
1F
100
AcDbEntity
  8
Layer 1
370
     9
100
AcDbSpline
210
0.0
220
0.0
230
1.0
 70
    11
 71
     3
 72
    35
 73
    31
 74
     0
 42
0.0000000001
 43
0.0000000001
 40
0.0
 40
0.0
 40
0.0
 40
0.0
 40
0.1
 40
0.1
 40
0.1
 40
0.2
 40
0.2
 40
0.2
 40
0.3
 40
0.3
 40
0.3
 40
0.4
 40
0.4
 40
0.4
 40
0.5
 40
0.5
 40
0.5
 40
0.6000000000000001
 40
0.6000000000000001
 40
0.6000000000000001
 40
0.7000000000000001
 40
0.7000000000000001
 40
0.7000000000000001
 40
0.8
 40
0.8
 40
0.8
 40
0.9
 40
0.9
 40
0.9
 40
1.0
 40
1.0
 40
1.0
 40
1.0
 10
-0.987
 20
8.66172
 30
0.0
 10
-0.987
 20
8.66172
 30
0.0
 10
-0.66022
 20
8.46907
 30
0.0
 10
-0.66022
 20
8.46907
 30
0.0
 10
-0.59681
 20
8.41087
 30
0.0
 10
-0.52763
 20
8.18409
 30
0.0
 10
-0.467
 20
8.14624
 30
0.0
 10
-0.42955
 20
8.17051
 30
0.0
 10
-0.32929
 20
8.41623
 30
0.0
 10
-0.28315
 20
8.46513
 30
0.0
 10
-0.21058
 20
8.54204
 30
0.0
 10
-0.04469
 20
8.58224
 30
0.0
 10
0.04792
 20
8.66172
 30
0.0
 10
0.01447
 20
8.70723
 30
0.0
 10
-0.0657
 20
8.73377
 30
0.0
 10
-0.11729
 20
8.7603
 30
0.0
 10
-0.43812
 20
8.94349
 30
0.0
 10
-0.28456
 20
8.99526
 30
0.0
 10
-0.467
 20
9.17242
 30
0.0
 10
-0.50877
 20
9.14927
 30
0.0
 10
-0.54301
 20
9.0657
 30
0.0
 10
-0.56896
 20
9.01517
 30
0.0
 10
-0.5897
 20
8.97477
 30
0.0
 10
-0.6361
 20
8.88116
 30
0.0
 10
-0.6623
 20
8.85614
 30
0.0
 10
-0.69124
 20
8.8285
 30
0.0
 10
-0.77638
 20
8.78652
 30
0.0
 10
-0.81992
 20
8.76349
 30
0.0
 10
-0.85204
 20
8.74646
 30
0.0
 10
-0.96585
 20
8.69006
 30
0.0
 10
-0.987
 20
8.66172
 30
0.0
  0
SPLINE
  5
79
330
1F
100
AcDbEntity
  8
Layer 1
370
     9
100
AcDbSpline
210
0.0
220
0.0
230
1.0
 70
    11
 71
     3
 72
    20
 73
    16
 74
     0
 42
0.0000000001
 43
0.0000000001
 40
0.0
 40
0.0
 40
0.0
 40
0.0
 40
0.2
 40
0.2
 40
0.2
 40
0.4
 40
0.4
 40
0.4
 40
0.6000000000000001
 40
0.6000000000000001
 40
0.6000000000000001
 40
0.8
 40
0.8
 40
0.8
 40
1.0
 40
1.0
 40
1.0
 40
1.0
 10
0.56158
 20
9.18095
 30
0.0
 10
0.56158
 20
9.18095
 30
0.0
 10
0.55993
 20
10.39977
 30
0.0
 10
0.55993
 20
10.39977
 30
0.0
 10
0.55993
 20
10.39977
 30
0.0
 10
0.34275
 20
10.48887
 30
0.0
 10
0.34275
 20
10.48887
 30
0.0
 10
0.11594
 20
10.58081
 30
0.0
 10
0.06869
 20
10.7175
 30
0.0
 10
0.10948
 20
10.3089
 30
0.0
 10
0.13743
 20
10.029
 30
0.0
 10
0.19941
 20
9.82718
 30
0.0
 10
0.3215
 20
9.5698
 30
0.0
 10
0.34235
 20
9.52582
 30
0.0
 10
0.49494
 20
9.19633
 30
0.0
 10
0.56158
 20
9.18095
 30
0.0
  0
SPLINE
  5
7A
330
1F
100
AcDbEntity
  8
Layer 1
370
     9
100
AcDbSpline
210
0.0
220
0.0
230
1.0
 70
    11
 71
     3
 72
    44
 73
    40
 74
     0
 42
0.0000000001
 43
0.0000000001
 40
0.0
 40
0.0
 40
0.0
 40
0.0
 40
0.0769230769230769
 40
0.0769230769230769
 40
0.0769230769230769
 40
0.1538461538461539
 40
0.1538461538461539
 40
0.1538461538461539
 40
0.2307692307692308
 40
0.2307692307692308
 40
0.2307692307692308
 40
0.3076923076923077
 40
0.3076923076923077
 40
0.3076923076923077
 40
0.3846153846153846
 40
0.3846153846153846
 40
0.3846153846153846
 40
0.4615384615384616
 40
0.4615384615384616
 40
0.4615384615384616
 40
0.5384615384615385
 40
0.5384615384615385
 40
0.5384615384615385
 40
0.6153846153846154
 40
0.6153846153846154
 40
0.6153846153846154
 40
0.6923076923076923
 40
0.6923076923076923
 40
0.6923076923076923
 40
0.7692307692307693
 40
0.7692307692307693
 40
0.7692307692307693
 40
0.8461538461538463
 40
0.8461538461538463
 40
0.8461538461538463
 40
0.9230769230769231
 40
0.9230769230769231
 40
0.9230769230769231
 40
1.0
 40
1.0
 40
1.0
 40
1.0
 10
-0.33015
 20
15.84303
 30
0.0
 10
-0.26474
 20
15.87985
 30
0.0
 10
-0.20353
 20
15.91287
 30
0.0
 10
-0.14214
 20
15.94582
 30
0.0
 10
-0.09621
 20
15.97049
 30
0.0
 10
0.02247
 20
16.0173
 30
0.0
 10
0.05246
 20
16.05901
 30
0.0
 10
0.02882
 20
16.10757
 30
0.0
 10
-0.21659
 20
16.22562
 30
0.0
 10
-0.26318
 20
16.23667
 30
0.0
 10
-0.45464
 20
16.39078
 30
0.0
 10
-0.30514
 20
16.20673
 30
0.0
 10
-0.45702
 20
16.46716
 30
0.0
 10
-0.48391
 20
16.51329
 30
0.0
 10
-0.58065
 20
16.70237
 30
0.0
 10
-0.61256
 20
16.73307
 30
0.0
 10
-0.66234
 20
16.69923
 30
0.0
 10
-0.79516
 20
16.3805
 30
0.0
 10
-0.85445
 20
16.31318
 30
0.0
 10
-0.91359
 20
16.24602
 30
0.0
 10
-1.24627
 20
16.11801
 30
0.0
 10
-1.27923
 20
16.05901
 30
0.0
 10
-1.27923
 20
16.05901
 30
0.0
 10
-1.22803
 20
16.02294
 30
0.0
 10
-1.22803
 20
16.02294
 30
0.0
 10
-0.75237
 20
15.76725
 30
0.0
 10
-0.90023
 20
15.89896
 30
0.0
 10
-0.65418
 20
15.45027
 30
0.0
 10
-0.65418
 20
15.45027
 30
0.0
 10
-0.63369
 20
15.41637
 30
0.0
 10
-0.63369
 20
15.41637
 30
0.0
 10
-0.63185
 20
15.41396
 30
0.0
 10
-0.62888
 20
15.41069
 30
0.0
 10
-0.62713
 20
15.40858
 30
0.0
 10
-0.62713
 20
15.40858
 30
0.0
 10
-0.61256
 20
15.39385
 30
0.0
 10
-0.61256
 20
15.39385
 30
0.0
 10
-0.51955
 20
15.4719
 30
0.0
 10
-0.45092
 20
15.77505
 30
0.0
 10
-0.33015
 20
15.84303
 30
0.0
  0
SPLINE
  5
7B
330
1F
100
AcDbEntity
  8
Layer 1
370
     9
100
AcDbSpline
210
0.0
220
0.0
230
1.0
 70
    11
 71
     3
 72
    35
 73
    31
 74
     0
 42
0.0000000001
 43
0.0000000001
 40
0.0
 40
0.0
 40
0.0
 40
0.0
 40
0.1
 40
0.1
 40
0.1
 40
0.2
 40
0.2
 40
0.2
 40
0.3
 40
0.3
 40
0.3
 40
0.4
 40
0.4
 40
0.4
 40
0.5
 40
0.5
 40
0.5
 40
0.6000000000000001
 40
0.6000000000000001
 40
0.6000000000000001
 40
0.7000000000000001
 40
0.7000000000000001
 40
0.7000000000000001
 40
0.8
 40
0.8
 40
0.8
 40
0.9
 40
0.9
 40
0.9
 40
1.0
 40
1.0
 40
1.0
 40
1.0
 10
-1.514
 20
2.642
 30
0.0
 10
-1.45226
 20
2.74437
 30
0.0
 10
-1.16932
 20
2.82066
 30
0.0
 10
-1.09167
 20
2.90532
 30
0.0
 10
-1.12981
 20
2.95762
 30
0.0
 10
-1.2384
 20
2.99448
 30
0.0
 10
-1.29644
 20
3.02864
 30
0.0
 10
-1.55658
 20
3.18178
 30
0.0
 10
-1.47186
 20
3.08311
 30
0.0
 10
-1.66527
 20
3.45491
 30
0.0
 10
-1.72114
 20
3.5623
 30
0.0
 10
-1.70009
 20
3.53282
 30
0.0
 10
-1.74612
 20
3.54831
 30
0.0
 10
-1.76855
 20
3.49698
 30
0.0
 10
-1.92798
 20
3.18098
 30
0.0
 10
-1.96353
 20
3.14508
 30
0.0
 10
-2.00093
 20
3.10726
 30
0.0
 10
-2.30803
 20
2.94741
 30
0.0
 10
-2.36801
 20
2.92928
 30
0.0
 10
-2.34883
 20
2.85678
 30
0.0
 10
-2.38263
 20
2.90696
 30
0.0
 10
-2.32654
 20
2.86903
 30
0.0
 10
-2.32654
 20
2.86903
 30
0.0
 10
-1.96912
 20
2.67457
 30
0.0
 10
-1.96912
 20
2.67457
 30
0.0
 10
-1.93091
 20
2.64106
 30
0.0
 10
-1.76734
 20
2.32245
 30
0.0
 10
-1.74252
 20
2.26581
 30
0.0
 10
-1.67563
 20
2.29309
 30
0.0
 10
-1.55897
 20
2.56746
 30
0.0
 10
-1.514
 20
2.642
 30
0.0
  0
SPLINE
  5
7C
330
1F
100
AcDbEntity
  8
Layer 1
370
     9
100
AcDbSpline
210
0.0
220
0.0
230
1.0
 70
    11
 71
     3
 72
    53
 73
    49
 74
     0
 42
0.0000000001
 43
0.0000000001
 40
0.0
 40
0.0
 40
0.0
 40
0.0
 40
0.0625
 40
0.0625
 40
0.0625
 40
0.125
 40
0.125
 40
0.125
 40
0.1875
 40
0.1875
 40
0.1875
 40
0.25
 40
0.25
 40
0.25
 40
0.3125
 40
0.3125
 40
0.3125
 40
0.375
 40
0.375
 40
0.375
 40
0.4375
 40
0.4375
 40
0.4375
 40
0.5
 40
0.5
 40
0.5
 40
0.5625
 40
0.5625
 40
0.5625
 40
0.625
 40
0.625
 40
0.625
 40
0.6875
 40
0.6875
 40
0.6875
 40
0.75
 40
0.75
 40
0.75
 40
0.8125
 40
0.8125
 40
0.8125
 40
0.875
 40
0.875
 40
0.875
 40
0.9375
 40
0.9375
 40
0.9375
 40
1.0
 40
1.0
 40
1.0
 40
1.0
 10
-0.92948
 20
9.77452
 30
0.0
 10
-0.9975
 20
9.81714
 30
0.0
 10
-1.08079
 20
10.01183
 30
0.0
 10
-1.14123
 20
10.11878
 30
0.0
 10
-1.1666
 20
10.1637
 30
0.0
 10
-1.18248
 20
10.21693
 30
0.0
 10
-1.22129
 20
10.24702
 30
0.0
 10
-1.22129
 20
10.24702
 30
0.0
 10
-1.25946
 20
10.19389
 30
0.0
 10
-1.25946
 20
10.19389
 30
0.0
 10
-1.2711
 20
10.17326
 30
0.0
 10
-1.27645
 20
10.1629
 30
0.0
 10
-1.29178
 20
10.13453
 30
0.0
 10
-1.49947
 20
9.75008
 30
0.0
 10
-1.40605
 20
9.82468
 30
0.0
 10
-1.81212
 20
9.6123
 30
0.0
 10
-1.83766
 20
9.59894
 30
0.0
 10
-1.85615
 20
9.59278
 30
0.0
 10
-1.87455
 20
9.58274
 30
0.0
 10
-1.93183
 20
9.55152
 30
0.0
 10
-1.90596
 20
9.58096
 30
0.0
 10
-1.92275
 20
9.53511
 30
0.0
 10
-1.85538
 20
9.47921
 30
0.0
 10
-1.53745
 20
9.33938
 30
0.0
 10
-1.48145
 20
9.28856
 30
0.0
 10
-1.42227
 20
9.23488
 30
0.0
 10
-1.2686
 20
8.87768
 30
0.0
 10
-1.22129
 20
8.84063
 30
0.0
 10
-1.19694
 20
8.85914
 30
0.0
 10
-1.21076
 20
8.83612
 30
0.0
 10
-1.18744
 20
8.88054
 30
0.0
 10
-1.16238
 20
8.92827
 30
0.0
 10
-1.14042
 20
8.97275
 30
0.0
 10
-1.11721
 20
9.02316
 30
0.0
 10
-1.11721
 20
9.02316
 30
0.0
 10
-1.00415
 20
9.22781
 30
0.0
 10
-1.00415
 20
9.22781
 30
0.0
 10
-0.95868
 20
9.32035
 30
0.0
 10
-0.87423
 20
9.34308
 30
0.0
 10
-0.72661
 20
9.42254
 30
0.0
 10
-0.66922
 20
9.45344
 30
0.0
 10
-0.57322
 20
9.49287
 30
0.0
 10
-0.51833
 20
9.53511
 30
0.0
 10
-0.53948
 20
9.58823
 30
0.0
 10
-0.62261
 20
9.6013
 30
0.0
 10
-0.71264
 20
9.65981
 30
0.0
 10
-0.75103
 20
9.68474
 30
0.0
 10
-0.89458
 20
9.76305
 30
0.0
 10
-0.92948
 20
9.77452
 30
0.0
  0
SPLINE
  5
7D
330
1F
100
AcDbEntity
  8
Layer 1
370
     9
100
AcDbSpline
210
0.0
220
0.0
230
1.0
 70
    11
 71
     3
 72
    23
 73
    19
 74
     0
 42
0.0000000001
 43
0.0000000001
 40
0.0
 40
0.0
 40
0.0
 40
0.0
 40
0.1666666666666667
 40
0.1666666666666667
 40
0.1666666666666667
 40
0.3333333333333333
 40
0.3333333333333333
 40
0.3333333333333333
 40
0.5
 40
0.5
 40
0.5
 40
0.6666666666666666
 40
0.6666666666666666
 40
0.6666666666666666
 40
0.8333333333333333
 40
0.8333333333333333
 40
0.8333333333333333
 40
1.0
 40
1.0
 40
1.0
 40
1.0
 10
1.3709
 20
16.73421
 30
0.0
 10
1.3709
 20
16.73421
 30
0.0
 10
1.4121
 20
16.67437
 30
0.0
 10
1.4121
 20
16.67437
 30
0.0
 10
1.44088
 20
16.69553
 30
0.0
 10
1.41698
 20
16.66808
 30
0.0
 10
1.43977
 20
16.70647
 30
0.0
 10
1.44547
 20
16.71605
 30
0.0
 10
1.4505
 20
16.73115
 30
0.0
 10
1.4563
 20
16.74462
 30
0.0
 10
1.4563
 20
16.74462
 30
0.0
 10
1.95933
 20
17.81891
 30
0.0
 10
1.95933
 20
17.81891
 30
0.0
 10
1.98666
 20
17.84673
 30
0.0
 10
2.17247
 20
18.22833
 30
0.0
 10
2.17108
 20
18.26065
 30
0.0
 10
1.4531
 20
18.3543
 30
0.0
 10
1.0725
 20
17.40286
 30
0.0
 10
1.3709
 20
16.73421
 30
0.0
  0
SPLINE
  5
7E
330
1F
100
AcDbEntity
  8
Layer 1
370
     9
100
AcDbSpline
210
0.0
220
0.0
230
1.0
 70
     8
 71
     3
 72
    17
 73
    13
 74
     0
 42
0.0000000001
 43
0.0000000001
 40
0.0
 40
0.0
 40
0.0
 40
0.0
 40
0.25
 40
0.25
 40
0.25
 40
0.5
 40
0.5
 40
0.5
 40
0.75
 40
0.75
 40
0.75
 40
1.0
 40
1.0
 40
1.0
 40
1.0
 10
-0.93208
 20
6.14269
 30
0.0
 10
-0.74745
 20
6.14368
 30
0.0
 10
-0.65265
 20
6.11376
 30
0.0
 10
-0.51636
 20
6.01947
 30
0.0
 10
-0.46886
 20
5.9866
 30
0.0
 10
-0.46252
 20
5.95065
 30
0.0
 10
-0.39889
 20
5.94638
 30
0.0
 10
-0.33756
 20
6.15612
 30
0.0
 10
-0.28562
 20
6.37002
 30
0.0
 10
-0.21685
 20
6.58696
 30
0.0
 10
-0.15205
 20
6.79138
 30
0.0
 10
-0.07592
 20
7.03342
 30
0.0
 10
-0.02195
 20
7.23331
 30
0.0
  0
SPLINE
  5
7F
330
1F
100
AcDbEntity
  8
Layer 1
370
     9
100
AcDbSpline
210
0.0
220
0.0
230
1.0
 70
     8
 71
     3
 72
    11
 73
     7
 74
     0
 42
0.0000000001
 43
0.0000000001
 40
0.0
 40
0.0
 40
0.0
 40
0.0
 40
0.5
 40
0.5
 40
0.5
 40
1.0
 40
1.0
 40
1.0
 40
1.0
 10
4.76483
 20
7.9384
 30
0.0
 10
4.8138
 20
7.95703
 30
0.0
 10
5.04462
 20
8.12514
 30
0.0
 10
5.05653
 20
8.15887
 30
0.0
 10
5.05653
 20
8.15887
 30
0.0
 10
5.05837
 20
9.66705
 30
0.0
 10
5.05837
 20
9.66705
 30
0.0
  0
SPLINE
  5
80
330
1F
100
AcDbEntity
  8
Layer 1
370
     9
100
AcDbSpline
210
0.0
220
0.0
230
1.0
 70
     8
 71
     3
 72
     8
 73
     4
 74
     0
 42
0.0000000001
 43
0.0000000001
 40
0.0
 40
0.0
 40
0.0
 40
0.0
 40
1.0
 40
1.0
 40
1.0
 40
1.0
 10
4.74158
 20
7.9939
 30
0.0
 10
4.74262
 20
7.99019
 30
0.0
 10
4.7439
 20
7.98719
 30
0.0
 10
4.74515
 20
7.98355
 30
0.0
  0
SPLINE
  5
81
330
1F
100
AcDbEntity
  8
Layer 1
370
     9
100
AcDbSpline
210
0.0
220
0.0
230
1.0
 70
     8
 71
     3
 72
    26
 73
    22
 74
     0
 42
0.0000000001
 43
0.0000000001
 40
0.0
 40
0.0
 40
0.0
 40
0.0
 40
0.1428571428571428
 40
0.1428571428571428
 40
0.1428571428571428
 40
0.2857142857142857
 40
0.2857142857142857
 40
0.2857142857142857
 40
0.4285714285714285
 40
0.4285714285714285
 40
0.4285714285714285
 40
0.5714285714285714
 40
0.5714285714285714
 40
0.5714285714285714
 40
0.7142857142857142
 40
0.7142857142857142
 40
0.7142857142857142
 40
0.8571428571428571
 40
0.8571428571428571
 40
0.8571428571428571
 40
1.0
 40
1.0
 40
1.0
 40
1.0
 10
1.41474
 20
9.87205
 30
0.0
 10
1.41227
 20
10.01883
 30
0.0
 10
1.44266
 20
10.08428
 30
0.0
 10
1.37154
 20
10.10881
 30
0.0
 10
1.36052
 20
10.11261
 30
0.0
 10
1.33911
 20
10.11806
 30
0.0
 10
1.33028
 20
10.12062
 30
0.0
 10
1.33028
 20
10.12062
 30
0.0
 10
1.124
 20
10.18713
 30
0.0
 10
1.124
 20
10.18713
 30
0.0
 10
0.78562
 20
10.28761
 30
0.0
 10
0.84442
 20
10.4457
 30
0.0
 10
0.84592
 20
9.74684
 30
0.0
 10
0.84592
 20
9.74684
 30
0.0
 10
0.84562
 20
8.93958
 30
0.0
 10
0.84562
 20
8.93958
 30
0.0
 10
0.844
 20
8.79459
 30
0.0
 10
0.82705
 20
8.8113
 30
0.0
 10
0.90722
 20
8.72641
 30
0.0
 10
0.95917
 20
8.67141
 30
0.0
 10
1.13486
 20
8.48331
 30
0.0
 10
1.18946
 20
8.45716
 30
0.0
  0
SPLINE
  5
82
330
1F
100
AcDbEntity
  8
Layer 1
370
     9
100
AcDbSpline
210
0.0
220
0.0
230
1.0
 70
     8
 71
     3
 72
    44
 73
    40
 74
     0
 42
0.0000000001
 43
0.0000000001
 40
0.0
 40
0.0
 40
0.0
 40
0.0
 40
0.0769230769230769
 40
0.0769230769230769
 40
0.0769230769230769
 40
0.1538461538461539
 40
0.1538461538461539
 40
0.1538461538461539
 40
0.2307692307692308
 40
0.2307692307692308
 40
0.2307692307692308
 40
0.3076923076923077
 40
0.3076923076923077
 40
0.3076923076923077
 40
0.3846153846153846
 40
0.3846153846153846
 40
0.3846153846153846
 40
0.4615384615384616
 40
0.4615384615384616
 40
0.4615384615384616
 40
0.5384615384615385
 40
0.5384615384615385
 40
0.5384615384615385
 40
0.6153846153846154
 40
0.6153846153846154
 40
0.6153846153846154
 40
0.6923076923076923
 40
0.6923076923076923
 40
0.6923076923076923
 40
0.7692307692307693
 40
0.7692307692307693
 40
0.7692307692307693
 40
0.8461538461538463
 40
0.8461538461538463
 40
0.8461538461538463
 40
0.9230769230769231
 40
0.9230769230769231
 40
0.9230769230769231
 40
1.0
 40
1.0
 40
1.0
 40
1.0
 10
1.16675
 20
15.4822
 30
0.0
 10
1.16675
 20
15.4822
 30
0.0
 10
1.33664
 20
15.56424
 30
0.0
 10
1.33664
 20
15.56424
 30
0.0
 10
1.30826
 20
15.62019
 30
0.0
 10
1.32916
 20
15.58651
 30
0.0
 10
1.21462
 20
15.64952
 30
0.0
 10
1.17011
 20
15.67399
 30
0.0
 10
1.13269
 20
15.69401
 30
0.0
 10
1.08599
 20
15.7203
 30
0.0
 10
1.08599
 20
15.7203
 30
0.0
 10
0.81949
 20
15.864
 30
0.0
 10
0.81949
 20
15.864
 30
0.0
 10
0.80364
 20
15.8771
 30
0.0
 10
0.55016
 20
16.33394
 30
0.0
 10
0.53317
 20
16.3951
 30
0.0
 10
0.47046
 20
16.37317
 30
0.0
 10
0.50968
 20
16.40376
 30
0.0
 10
0.43986
 20
16.2764
 30
0.0
 10
0.43986
 20
16.2764
 30
0.0
 10
0.29927
 20
16.01809
 30
0.0
 10
0.29927
 20
16.01809
 30
0.0
 10
0.27794
 20
15.97885
 30
0.0
 10
0.24652
 20
15.90911
 30
0.0
 10
0.22425
 20
15.88343
 30
0.0
 10
0.19496
 20
15.84967
 30
0.0
 10
0.01603
 20
15.75695
 30
0.0
 10
-0.03641
 20
15.73276
 30
0.0
 10
-0.13712
 20
15.68628
 30
0.0
 10
-0.19314
 20
15.62967
 30
0.0
 10
-0.30353
 20
15.59278
 30
0.0
 10
-0.26796
 20
15.51187
 30
0.0
 10
0.11101
 20
15.34044
 30
0.0
 10
0.21367
 20
15.28383
 30
0.0
 10
0.27856
 20
15.22703
 30
0.0
 10
0.45325
 20
14.79951
 30
0.0
 10
0.51224
 20
14.76086
 30
0.0
 10
0.54858
 20
14.7799
 30
0.0
 10
0.55629
 20
14.81216
 30
0.0
 10
0.57223
 20
14.85001
 30
0.0
  0
SPLINE
  5
83
330
1F
100
AcDbEntity
  8
Layer 1
370
     9
100
AcDbSpline
210
0.0
220
0.0
230
1.0
 70
     8
 71
     3
 72
    23
 73
    19
 74
     0
 42
0.0000000001
 43
0.0000000001
 40
0.0
 40
0.0
 40
0.0
 40
0.0
 40
0.1666666666666667
 40
0.1666666666666667
 40
0.1666666666666667
 40
0.3333333333333333
 40
0.3333333333333333
 40
0.3333333333333333
 40
0.5
 40
0.5
 40
0.5
 40
0.6666666666666666
 40
0.6666666666666666
 40
0.6666666666666666
 40
0.8333333333333333
 40
0.8333333333333333
 40
0.8333333333333333
 40
1.0
 40
1.0
 40
1.0
 40
1.0
 10
5.91933
 20
4.03925
 30
0.0
 10
6.08993
 20
3.78993
 30
0.0
 10
6.03415
 20
3.79867
 30
0.0
 10
6.05815
 20
3.75673
 30
0.0
 10
6.0874
 20
3.70567
 30
0.0
 10
6.05167
 20
3.73363
 30
0.0
 10
6.10978
 20
3.71261
 30
0.0
 10
6.17969
 20
3.94171
 30
0.0
 10
6.28117
 20
4.08583
 30
0.0
 10
6.32802
 20
4.37454
 30
0.0
 10
6.39441
 20
4.78376
 30
0.0
 10
6.39299
 20
5.13817
 30
0.0
 10
6.24751
 20
5.53189
 30
0.0
 10
6.24394
 20
5.54156
 30
0.0
 10
6.23272
 20
5.57072
 30
0.0
 10
6.2292
 20
5.57782
 30
0.0
 10
6.2292
 20
5.57782
 30
0.0
 10
6.1893
 20
5.63315
 30
0.0
 10
6.1893
 20
5.63315
 30
0.0
  0
SPLINE
  5
84
330
1F
100
AcDbEntity
  8
Layer 1
370
     9
100
AcDbSpline
210
0.0
220
0.0
230
1.0
 70
     8
 71
     3
 72
    17
 73
    13
 74
     0
 42
0.0000000001
 43
0.0000000001
 40
0.0
 40
0.0
 40
0.0
 40
0.0
 40
0.25
 40
0.25
 40
0.25
 40
0.5
 40
0.5
 40
0.5
 40
0.75
 40
0.75
 40
0.75
 40
1.0
 40
1.0
 40
1.0
 40
1.0
 10
2.24666
 20
7.66332
 30
0.0
 10
2.27154
 20
7.63101
 30
0.0
 10
2.33664
 20
7.59181
 30
0.0
 10
2.37723
 20
7.59114
 30
0.0
 10
2.40454
 20
8.14755
 30
0.0
 10
2.3697
 20
8.99774
 30
0.0
 10
2.3787
 20
9.62774
 30
0.0
 10
2.37956
 20
9.68889
 30
0.0
 10
2.40579
 20
9.88121
 30
0.0
 10
2.35474
 20
9.90804
 30
0.0
 10
2.38572
 20
9.87503
 30
0.0
 10
2.35177
 20
9.94867
 30
0.0
 10
2.36864
 20
9.87861
 30
0.0
  0
SPLINE
  5
85
330
1F
100
AcDbEntity
  8
Layer 1
370
     9
100
AcDbSpline
210
0.0
220
0.0
230
1.0
 70
     8
 71
     3
 72
    29
 73
    25
 74
     0
 42
0.0000000001
 43
0.0000000001
 40
0.0
 40
0.0
 40
0.0
 40
0.0
 40
0.125
 40
0.125
 40
0.125
 40
0.25
 40
0.25
 40
0.25
 40
0.375
 40
0.375
 40
0.375
 40
0.5
 40
0.5
 40
0.5
 40
0.625
 40
0.625
 40
0.625
 40
0.75
 40
0.75
 40
0.75
 40
0.875
 40
0.875
 40
0.875
 40
1.0
 40
1.0
 40
1.0
 40
1.0
 10
4.29099
 20
12.4192
 30
0.0
 10
4.29099
 20
12.4192
 30
0.0
 10
4.47601
 20
12.53901
 30
0.0
 10
4.47601
 20
12.53901
 30
0.0
 10
4.45
 20
12.57988
 30
0.0
 10
4.41456
 20
12.59014
 30
0.0
 10
4.35404
 20
12.62368
 30
0.0
 10
4.06228
 20
12.7854
 30
0.0
 10
3.68115
 20
12.95965
 30
0.0
 10
3.35906
 20
13.04532
 30
0.0
 10
3.23635
 20
13.07795
 30
0.0
 10
3.18816
 20
13.1004
 30
0.0
 10
3.04343
 20
13.12386
 30
0.0
 10
2.92121
 20
13.14366
 30
0.0
 10
2.80301
 20
13.16049
 30
0.0
 10
2.66926
 20
13.16486
 30
0.0
 10
2.49123
 20
13.17065
 30
0.0
 10
2.14541
 20
13.16248
 30
0.0
 10
1.97722
 20
13.087
 30
0.0
 10
1.97722
 20
13.087
 30
0.0
 10
1.94259
 20
13.06834
 30
0.0
 10
1.94259
 20
13.06834
 30
0.0
 10
1.97161
 20
12.99616
 30
0.0
 10
2.2782
 20
12.71441
 30
0.0
 10
2.32403
 20
12.71099
 30
0.0
  0
SPLINE
  5
86
330
1F
100
AcDbEntity
  8
Layer 1
370
     9
100
AcDbSpline
210
0.0
220
0.0
230
1.0
 70
     8
 71
     3
 72
    26
 73
    22
 74
     0
 42
0.0000000001
 43
0.0000000001
 40
0.0
 40
0.0
 40
0.0
 40
0.0
 40
0.1428571428571428
 40
0.1428571428571428
 40
0.1428571428571428
 40
0.2857142857142857
 40
0.2857142857142857
 40
0.2857142857142857
 40
0.4285714285714285
 40
0.4285714285714285
 40
0.4285714285714285
 40
0.5714285714285714
 40
0.5714285714285714
 40
0.5714285714285714
 40
0.7142857142857142
 40
0.7142857142857142
 40
0.7142857142857142
 40
0.8571428571428571
 40
0.8571428571428571
 40
0.8571428571428571
 40
1.0
 40
1.0
 40
1.0
 40
1.0
 10
3.78596
 20
7.33154
 30
0.0
 10
3.83396
 20
7.35024
 30
0.0
 10
4.06936
 20
7.48007
 30
0.0
 10
4.09835
 20
7.51044
 30
0.0
 10
4.09835
 20
7.51044
 30
0.0
 10
4.10142
 20
9.89295
 30
0.0
 10
4.10142
 20
9.89295
 30
0.0
 10
4.01464
 20
9.90207
 30
0.0
 10
3.9409
 20
9.88235
 30
0.0
 10
3.86041
 20
9.87627
 30
0.0
 10
3.81621
 20
9.87294
 30
0.0
 10
3.78445
 20
9.86824
 30
0.0
 10
3.74112
 20
9.86622
 30
0.0
 10
3.72302
 20
9.86538
 30
0.0
 10
3.69047
 20
9.86586
 30
0.0
 10
3.6746
 20
9.8638
 30
0.0
 10
3.64591
 20
9.86005
 30
0.0
 10
3.67637
 20
9.86614
 30
0.0
 10
3.65127
 20
9.85958
 30
0.0
 10
3.6184
 20
9.851
 30
0.0
 10
3.64255
 20
9.86195
 30
0.0
 10
3.62251
 20
9.84696
 30
0.0
  0
SPLINE
  5
87
330
1F
100
AcDbEntity
  8
Layer 1
370
     9
100
AcDbSpline
210
0.0
220
0.0
230
1.0
 70
    11
 71
     3
 72
    29
 73
    25
 74
     0
 42
0.0000000001
 43
0.0000000001
 40
0.0
 40
0.0
 40
0.0
 40
0.0
 40
0.125
 40
0.125
 40
0.125
 40
0.25
 40
0.25
 40
0.25
 40
0.375
 40
0.375
 40
0.375
 40
0.5
 40
0.5
 40
0.5
 40
0.625
 40
0.625
 40
0.625
 40
0.75
 40
0.75
 40
0.75
 40
0.875
 40
0.875
 40
0.875
 40
1.0
 40
1.0
 40
1.0
 40
1.0
 10
2.77885
 20
17.85501
 30
0.0
 10
2.77885
 20
17.85501
 30
0.0
 10
2.14144
 20
16.53423
 30
0.0
 10
2.14144
 20
16.53423
 30
0.0
 10
2.10135
 20
16.44741
 30
0.0
 10
1.93776
 20
16.14455
 30
0.0
 10
1.93941
 20
16.06837
 30
0.0
 10
2.0045
 20
16.02566
 30
0.0
 10
2.16042
 20
15.90465
 30
0.0
 10
2.21931
 20
15.89524
 30
0.0
 10
2.21931
 20
15.89524
 30
0.0
 10
2.4372
 20
16.34288
 30
0.0
 10
2.4372
 20
16.34288
 30
0.0
 10
2.6194
 20
16.704
 30
0.0
 10
2.7985
 20
17.11418
 30
0.0
 10
2.97968
 20
17.48392
 30
0.0
 10
3.01645
 20
17.55899
 30
0.0
 10
3.15617
 20
17.81891
 30
0.0
 10
3.1637
 20
17.88518
 30
0.0
 10
3.11011
 20
17.95248
 30
0.0
 10
2.99398
 20
18.07272
 30
0.0
 10
2.88435
 20
18.0931
 30
0.0
 10
2.88435
 20
18.0931
 30
0.0
 10
2.77885
 20
17.85501
 30
0.0
 10
2.77885
 20
17.85501
 30
0.0
  0
SPLINE
  5
88
330
1F
100
AcDbEntity
  8
Layer 1
370
     9
100
AcDbSpline
210
0.0
220
0.0
230
1.0
 70
     8
 71
     3
 72
    23
 73
    19
 74
     0
 42
0.0000000001
 43
0.0000000001
 40
0.0
 40
0.0
 40
0.0
 40
0.0
 40
0.1666666666666667
 40
0.1666666666666667
 40
0.1666666666666667
 40
0.3333333333333333
 40
0.3333333333333333
 40
0.3333333333333333
 40
0.5
 40
0.5
 40
0.5
 40
0.6666666666666666
 40
0.6666666666666666
 40
0.6666666666666666
 40
0.8333333333333333
 40
0.8333333333333333
 40
0.8333333333333333
 40
1.0
 40
1.0
 40
1.0
 40
1.0
 10
2.65485
 20
6.3988
 30
0.0
 10
2.67565
 20
6.47859
 30
0.0
 10
2.52493
 20
6.71358
 30
0.0
 10
2.48742
 20
6.7723
 30
0.0
 10
2.48742
 20
6.7723
 30
0.0
 10
2.28763
 20
7.04884
 30
0.0
 10
2.28763
 20
7.04884
 30
0.0
 10
2.24688
 20
7.09461
 30
0.0
 10
2.30022
 20
7.07153
 30
0.0
 10
2.23255
 20
7.08131
 30
0.0
 10
2.19982
 20
7.01797
 30
0.0
 10
1.71575
 20
5.37249
 30
0.0
 10
1.71096
 20
5.33362
 30
0.0
 10
1.83534
 20
5.32829
 30
0.0
 10
1.88062
 20
5.34116
 30
0.0
 10
1.99177
 20
5.30979
 30
0.0
 10
2.06645
 20
5.28872
 30
0.0
 10
2.15031
 20
5.2322
 30
0.0
 10
2.20574
 20
5.21207
 30
0.0
  0
SPLINE
  5
89
330
1F
100
AcDbEntity
  8
Layer 1
370
     9
100
AcDbSpline
210
0.0
220
0.0
230
1.0
 70
    11
 71
     3
 72
    26
 73
    22
 74
     0
 42
0.0000000001
 43
0.0000000001
 40
0.0
 40
0.0
 40
0.0
 40
0.0
 40
0.1428571428571428
 40
0.1428571428571428
 40
0.1428571428571428
 40
0.2857142857142857
 40
0.2857142857142857
 40
0.2857142857142857
 40
0.4285714285714285
 40
0.4285714285714285
 40
0.4285714285714285
 40
0.5714285714285714
 40
0.5714285714285714
 40
0.5714285714285714
 40
0.7142857142857142
 40
0.7142857142857142
 40
0.7142857142857142
 40
0.8571428571428571
 40
0.8571428571428571
 40
0.8571428571428571
 40
1.0
 40
1.0
 40
1.0
 40
1.0
 10
4.05056
 20
15.61444
 30
0.0
 10
4.15243
 20
15.64
 30
0.0
 10
4.46234
 20
15.99151
 30
0.0
 10
4.53354
 20
16.06106
 30
0.0
 10
4.67043
 20
16.19477
 30
0.0
 10
4.83995
 20
16.41399
 30
0.0
 10
4.94249
 20
16.57807
 30
0.0
 10
5.1451
 20
16.90223
 30
0.0
 10
5.28888
 20
17.22398
 30
0.0
 10
5.27922
 20
17.62052
 30
0.0
 10
5.27719
 20
17.70389
 30
0.0
 10
5.26964
 20
17.93687
 30
0.0
 10
5.18353
 20
17.98941
 30
0.0
 10
5.13493
 20
17.89304
 30
0.0
 10
5.08191
 20
17.80139
 30
0.0
 10
5.03776
 20
17.70239
 30
0.0
 10
4.85844
 20
17.30024
 30
0.0
 10
4.64137
 20
16.90065
 30
0.0
 10
4.47575
 20
16.51421
 30
0.0
 10
4.40996
 20
16.36071
 30
0.0
 10
4.06897
 20
15.69739
 30
0.0
 10
4.05056
 20
15.61444
 30
0.0
  0
SPLINE
  5
8A
330
1F
100
AcDbEntity
  8
Layer 1
370
     9
100
AcDbSpline
210
0.0
220
0.0
230
1.0
 70
     8
 71
     3
 72
    26
 73
    22
 74
     0
 42
0.0000000001
 43
0.0000000001
 40
0.0
 40
0.0
 40
0.0
 40
0.0
 40
0.1428571428571428
 40
0.1428571428571428
 40
0.1428571428571428
 40
0.2857142857142857
 40
0.2857142857142857
 40
0.2857142857142857
 40
0.4285714285714285
 40
0.4285714285714285
 40
0.4285714285714285
 40
0.5714285714285714
 40
0.5714285714285714
 40
0.5714285714285714
 40
0.7142857142857142
 40
0.7142857142857142
 40
0.7142857142857142
 40
0.8571428571428571
 40
0.8571428571428571
 40
0.8571428571428571
 40
1.0
 40
1.0
 40
1.0
 40
1.0
 10
6.1893
 20
5.63315
 30
0.0
 10
6.19845
 20
5.67979
 30
0.0
 10
6.10576
 20
5.82285
 30
0.0
 10
6.06798
 20
5.88021
 30
0.0
 10
6.02357
 20
5.94765
 30
0.0
 10
5.94539
 20
6.07264
 30
0.0
 10
5.88488
 20
6.1009
 30
0.0
 10
5.88488
 20
6.1009
 30
0.0
 10
5.87208
 20
6.08131
 30
0.0
 10
5.87208
 20
6.08131
 30
0.0
 10
5.8437
 20
6.02617
 30
0.0
 10
5.82605
 20
5.94102
 30
0.0
 10
5.80688
 20
5.88186
 30
0.0
 10
5.80688
 20
5.88186
 30
0.0
 10
5.60149
 20
5.18542
 30
0.0
 10
5.60149
 20
5.18542
 30
0.0
 10
5.55574
 20
5.02847
 30
0.0
 10
5.34053
 20
4.35107
 30
0.0
 10
5.32306
 20
4.24682
 30
0.0
 10
5.6344
 20
4.2589
 30
0.0
 10
5.74975
 20
4.19758
 30
0.0
 10
5.91933
 20
4.03925
 30
0.0
  0
SPLINE
  5
8B
330
1F
100
AcDbEntity
  8
Layer 1
370
     9
100
AcDbSpline
210
0.0
220
0.0
230
1.0
 70
     8
 71
     3
 72
    23
 73
    19
 74
     0
 42
0.0000000001
 43
0.0000000001
 40
0.0
 40
0.0
 40
0.0
 40
0.0
 40
0.1666666666666667
 40
0.1666666666666667
 40
0.1666666666666667
 40
0.3333333333333333
 40
0.3333333333333333
 40
0.3333333333333333
 40
0.5
 40
0.5
 40
0.5
 40
0.6666666666666666
 40
0.6666666666666666
 40
0.6666666666666666
 40
0.8333333333333333
 40
0.8333333333333333
 40
0.8333333333333333
 40
1.0
 40
1.0
 40
1.0
 40
1.0
 10
2.36864
 20
9.87861
 30
0.0
 10
2.35177
 20
9.94867
 30
0.0
 10
2.38572
 20
9.87503
 30
0.0
 10
2.35474
 20
9.90804
 30
0.0
 10
2.26148
 20
9.9318
 30
0.0
 10
2.11012
 20
9.93791
 30
0.0
 10
2.0119
 20
9.95623
 30
0.0
 10
1.93404
 20
9.97077
 30
0.0
 10
1.77644
 20
10.02333
 30
0.0
 10
1.70378
 20
10.02363
 30
0.0
 10
1.70378
 20
10.02363
 30
0.0
 10
1.70227
 20
8.02653
 30
0.0
 10
1.70227
 20
8.02653
 30
0.0
 10
1.794
 20
7.95367
 30
0.0
 10
1.88259
 20
7.89021
 30
0.0
 10
1.96478
 20
7.83763
 30
0.0
 10
2.04307
 20
7.78756
 30
0.0
 10
2.18192
 20
7.68471
 30
0.0
 10
2.24666
 20
7.66332
 30
0.0
  0
SPLINE
  5
8C
330
1F
100
AcDbEntity
  8
Layer 1
370
     9
100
AcDbSpline
210
0.0
220
0.0
230
1.0
 70
    11
 71
     3
 72
    23
 73
    19
 74
     0
 42
0.0000000001
 43
0.0000000001
 40
0.0
 40
0.0
 40
0.0
 40
0.0
 40
0.1666666666666667
 40
0.1666666666666667
 40
0.1666666666666667
 40
0.3333333333333333
 40
0.3333333333333333
 40
0.3333333333333333
 40
0.5
 40
0.5
 40
0.5
 40
0.6666666666666666
 40
0.6666666666666666
 40
0.6666666666666666
 40
0.8333333333333333
 40
0.8333333333333333
 40
0.8333333333333333
 40
1.0
 40
1.0
 40
1.0
 40
1.0
 10
2.63079
 20
5.0625
 30
0.0
 10
2.83957
 20
5.04654
 30
0.0
 10
2.8774
 20
5.07419
 30
0.0
 10
3.05725
 20
4.97261
 30
0.0
 10
3.11303
 20
4.9411
 30
0.0
 10
3.11501
 20
4.91426
 30
0.0
 10
3.17209
 20
4.90326
 30
0.0
 10
3.17209
 20
4.90326
 30
0.0
 10
3.5672
 20
6.20235
 30
0.0
 10
3.5672
 20
6.20235
 30
0.0
 10
3.61283
 20
6.35388
 30
0.0
 10
3.66627
 20
6.49342
 30
0.0
 10
3.69683
 20
6.63268
 30
0.0
 10
3.59674
 20
6.64925
 30
0.0
 10
3.05065
 20
6.39041
 30
0.0
 10
3.01137
 20
6.33356
 30
0.0
 10
3.01137
 20
6.33356
 30
0.0
 10
2.63079
 20
5.0625
 30
0.0
 10
2.63079
 20
5.0625
 30
0.0
  0
SPLINE
  5
8D
330
1F
100
AcDbEntity
  8
Layer 1
370
     9
100
AcDbSpline
210
0.0
220
0.0
230
1.0
 70
    11
 71
     3
 72
    35
 73
    31
 74
     0
 42
0.0000000001
 43
0.0000000001
 40
0.0
 40
0.0
 40
0.0
 40
0.0
 40
0.1
 40
0.1
 40
0.1
 40
0.2
 40
0.2
 40
0.2
 40
0.3
 40
0.3
 40
0.3
 40
0.4
 40
0.4
 40
0.4
 40
0.5
 40
0.5
 40
0.5
 40
0.6000000000000001
 40
0.6000000000000001
 40
0.6000000000000001
 40
0.7000000000000001
 40
0.7000000000000001
 40
0.7000000000000001
 40
0.8
 40
0.8
 40
0.8
 40
0.9
 40
0.9
 40
0.9
 40
1.0
 40
1.0
 40
1.0
 40
1.0
 10
3.94776
 20
17.85295
 30
0.0
 10
3.90356
 20
17.80447
 30
0.0
 10
3.32712
 20
16.54294
 30
0.0
 10
3.19923
 20
16.29644
 30
0.0
 10
3.17316
 20
16.24621
 30
0.0
 10
3.15564
 20
16.21839
 30
0.0
 10
3.13007
 20
16.1542
 30
0.0
 10
3.08746
 20
16.04724
 30
0.0
 10
3.04069
 20
15.9608
 30
0.0
 10
2.99406
 20
15.86653
 30
0.0
 10
2.96758
 20
15.81302
 30
0.0
 10
2.86569
 20
15.62516
 30
0.0
 10
2.86738
 20
15.5694
 30
0.0
 10
2.9132
 20
15.54322
 30
0.0
 10
3.1353
 20
15.46013
 30
0.0
 10
3.18533
 20
15.46373
 30
0.0
 10
3.18533
 20
15.46373
 30
0.0
 10
3.53328
 20
16.18749
 30
0.0
 10
3.53328
 20
16.18749
 30
0.0
 10
3.66635
 20
16.49244
 30
0.0
 10
3.87497
 20
16.9029
 30
0.0
 10
4.0192
 20
17.20895
 30
0.0
 10
4.11641
 20
17.41698
 30
0.0
 10
4.61437
 20
18.3533
 30
0.0
 10
4.64464
 20
18.51501
 30
0.0
 10
4.64464
 20
18.51501
 30
0.0
 10
4.37587
 20
18.65441
 30
0.0
 10
4.37587
 20
18.65441
 30
0.0
 10
4.37587
 20
18.65441
 30
0.0
 10
3.94776
 20
17.85295
 30
0.0
 10
3.94776
 20
17.85295
 30
0.0
  0
SPLINE
  5
8E
330
1F
100
AcDbEntity
  8
Layer 1
370
     9
100
AcDbSpline
210
0.0
220
0.0
230
1.0
 70
     8
 71
     3
 72
     8
 73
     4
 74
     0
 42
0.0000000001
 43
0.0000000001
 40
0.0
 40
0.0
 40
0.0
 40
0.0
 40
1.0
 40
1.0
 40
1.0
 40
1.0
 10
4.74515
 20
7.98355
 30
0.0
 10
4.7439
 20
7.98719
 30
0.0
 10
4.74262
 20
7.99019
 30
0.0
 10
4.74158
 20
7.9939
 30
0.0
  0
SPLINE
  5
8F
330
1F
100
AcDbEntity
  8
Layer 1
370
     9
100
AcDbSpline
210
0.0
220
0.0
230
1.0
 70
     8
 71
     3
 72
    20
 73
    16
 74
     0
 42
0.0000000001
 43
0.0000000001
 40
0.0
 40
0.0
 40
0.0
 40
0.0
 40
0.2
 40
0.2
 40
0.2
 40
0.4
 40
0.4
 40
0.4
 40
0.6000000000000001
 40
0.6000000000000001
 40
0.6000000000000001
 40
0.8
 40
0.8
 40
0.8
 40
1.0
 40
1.0
 40
1.0
 40
1.0
 10
5.05837
 20
9.66705
 30
0.0
 10
5.05837
 20
9.66705
 30
0.0
 10
5.05881
 20
10.10271
 30
0.0
 10
5.05881
 20
10.10271
 30
0.0
 10
4.99212
 20
10.09832
 30
0.0
 10
4.80885
 20
10.03875
 30
0.0
 10
4.73092
 20
10.01837
 30
0.0
 10
4.62895
 20
9.99169
 30
0.0
 10
4.49724
 20
9.97691
 30
0.0
 10
4.39797
 20
9.94929
 30
0.0
 10
4.3667
 20
9.86659
 30
0.0
 10
4.38305
 20
7.95586
 30
0.0
 10
4.38614
 20
7.69209
 30
0.0
 10
4.451
 20
7.69983
 30
0.0
 10
4.74756
 20
7.90511
 30
0.0
 10
4.76483
 20
7.9384
 30
0.0
  0
SPLINE
  5
90
330
1F
100
AcDbEntity
  8
Layer 1
370
     9
100
AcDbSpline
210
0.0
220
0.0
230
1.0
 70
     8
 71
     3
 72
    32
 73
    28
 74
     0
 42
0.0000000001
 43
0.0000000001
 40
0.0
 40
0.0
 40
0.0
 40
0.0
 40
0.1111111111111111
 40
0.1111111111111111
 40
0.1111111111111111
 40
0.2222222222222222
 40
0.2222222222222222
 40
0.2222222222222222
 40
0.3333333333333333
 40
0.3333333333333333
 40
0.3333333333333333
 40
0.4444444444444444
 40
0.4444444444444444
 40
0.4444444444444444
 40
0.5555555555555556
 40
0.5555555555555556
 40
0.5555555555555556
 40
0.6666666666666666
 40
0.6666666666666666
 40
0.6666666666666666
 40
0.7777777777777777
 40
0.7777777777777777
 40
0.7777777777777777
 40
0.8888888888888888
 40
0.8888888888888888
 40
0.8888888888888888
 40
1.0
 40
1.0
 40
1.0
 40
1.0
 10
-0.02195
 20
7.23331
 30
0.0
 10
-0.02195
 20
7.23331
 30
0.0
 10
0.15274
 20
7.82502
 30
0.0
 10
0.15274
 20
7.82502
 30
0.0
 10
0.0303
 20
7.84041
 30
0.0
 10
-0.34058
 20
7.63551
 30
0.0
 10
-0.42905
 20
7.57787
 30
0.0
 10
-0.60859
 20
7.4609
 30
0.0
 10
-0.72105
 20
7.33831
 30
0.0
 10
-0.86983
 20
7.17115
 30
0.0
 10
-0.96492
 20
7.06431
 30
0.0
 10
-1.12254
 20
6.80095
 30
0.0
 10
-1.18334
 20
6.63754
 30
0.0
 10
-1.22373
 20
6.52899
 30
0.0
 10
-1.26249
 20
6.43955
 30
0.0
 10
-1.2877
 20
6.32099
 30
0.0
 10
-1.3026
 20
6.25097
 30
0.0
 10
-1.35497
 20
6.00842
 30
0.0
 10
-1.34522
 20
5.97273
 30
0.0
 10
-1.29516
 20
5.98911
 30
0.0
 10
-1.29808
 20
6.00335
 30
0.0
 10
-1.254
 20
6.03407
 30
0.0
 10
-1.22509
 20
6.05423
 30
0.0
 10
-1.19736
 20
6.06781
 30
0.0
 10
-1.16004
 20
6.08622
 30
0.0
 10
-1.07995
 20
6.12569
 30
0.0
 10
-1.02858
 20
6.14133
 30
0.0
 10
-0.93208
 20
6.14269
 30
0.0
  0
SPLINE
  5
91
330
1F
100
AcDbEntity
  8
Layer 1
370
     9
100
AcDbSpline
210
0.0
220
0.0
230
1.0
 70
     8
 71
     3
 72
    74
 73
    70
 74
     0
 42
0.0000000001
 43
0.0000000001
 40
0.0
 40
0.0
 40
0.0
 40
0.0
 40
0.0434782608695652
 40
0.0434782608695652
 40
0.0434782608695652
 40
0.0869565217391304
 40
0.0869565217391304
 40
0.0869565217391304
 40
0.1304347826086956
 40
0.1304347826086956
 40
0.1304347826086956
 40
0.1739130434782609
 40
0.1739130434782609
 40
0.1739130434782609
 40
0.2173913043478261
 40
0.2173913043478261
 40
0.2173913043478261
 40
0.2608695652173913
 40
0.2608695652173913
 40
0.2608695652173913
 40
0.3043478260869565
 40
0.3043478260869565
 40
0.3043478260869565
 40
0.3478260869565217
 40
0.3478260869565217
 40
0.3478260869565217
 40
0.3913043478260869
 40
0.3913043478260869
 40
0.3913043478260869
 40
0.4347826086956522
 40
0.4347826086956522
 40
0.4347826086956522
 40
0.4782608695652174
 40
0.4782608695652174
 40
0.4782608695652174
 40
0.5217391304347826
 40
0.5217391304347826
 40
0.5217391304347826
 40
0.5652173913043478
 40
0.5652173913043478
 40
0.5652173913043478
 40
0.6086956521739131
 40
0.6086956521739131
 40
0.6086956521739131
 40
0.6521739130434783
 40
0.6521739130434783
 40
0.6521739130434783
 40
0.6956521739130435
 40
0.6956521739130435
 40
0.6956521739130435
 40
0.7391304347826086
 40
0.7391304347826086
 40
0.7391304347826086
 40
0.7826086956521738
 40
0.7826086956521738
 40
0.7826086956521738
 40
0.8260869565217391
 40
0.8260869565217391
 40
0.8260869565217391
 40
0.8695652173913043
 40
0.8695652173913043
 40
0.8695652173913043
 40
0.9130434782608695
 40
0.9130434782608695
 40
0.9130434782608695
 40
0.9565217391304348
 40
0.9565217391304348
 40
0.9565217391304348
 40
1.0
 40
1.0
 40
1.0
 40
1.0
 10
-1.99793
 20
12.79714
 30
0.0
 10
-2.22562
 20
12.47567
 30
0.0
 10
-2.33926
 20
12.04679
 30
0.0
 10
-2.23098
 20
11.64578
 30
0.0
 10
-2.18528
 20
11.47651
 30
0.0
 10
-2.07726
 20
11.27611
 30
0.0
 10
-1.98425
 20
11.16768
 30
0.0
 10
-1.51986
 20
10.62643
 30
0.0
 10
-0.58562
 20
10.55428
 30
0.0
 10
-0.21668
 20
11.23108
 30
0.0
 10
0.19955
 20
11.99465
 30
0.0
 10
-0.65071
 20
12.64419
 30
0.0
 10
-1.15522
 20
12.26081
 30
0.0
 10
-1.55747
 20
11.95514
 30
0.0
 10
-1.33181
 20
11.37242
 30
0.0
 10
-1.18609
 20
11.48422
 30
0.0
 10
-1.13269
 20
11.5498
 30
0.0
 10
-1.19297
 20
11.58882
 30
0.0
 10
-1.21232
 20
11.67366
 30
0.0
 10
-1.22906
 20
11.74706
 30
0.0
 10
-1.22665
 20
11.83812
 30
0.0
 10
-1.20127
 20
11.90876
 30
0.0
 10
-1.03156
 20
12.38111
 30
0.0
 10
-0.37881
 20
12.17891
 30
0.0
 10
-0.4027
 20
11.65191
 30
0.0
 10
-0.42191
 20
11.22845
 30
0.0
 10
-0.89402
 20
10.94993
 30
0.0
 10
-1.31949
 20
11.07905
 30
0.0
 10
-1.66244
 20
11.18313
 30
0.0
 10
-1.93788
 20
11.51235
 30
0.0
 10
-1.95712
 20
11.87682
 30
0.0
 10
-1.96293
 20
11.98666
 30
0.0
 10
-1.9656
 20
12.10399
 30
0.0
 10
-1.94239
 20
12.20254
 30
0.0
 10
-1.89111
 20
12.42034
 30
0.0
 10
-1.79052
 20
12.63173
 30
0.0
 10
-1.63104
 20
12.78999
 30
0.0
 10
-1.36582
 20
13.05332
 30
0.0
 10
-1.07997
 20
13.17064
 30
0.0
 10
-0.7064
 20
13.25072
 30
0.0
 10
-0.42977
 20
13.31002
 30
0.0
 10
0.08499
 20
13.20754
 30
0.0
 10
0.30834
 20
13.1157
 30
0.0
 10
0.59101
 20
12.99946
 30
0.0
 10
0.84798
 20
12.86047
 30
0.0
 10
1.07202
 20
12.70167
 30
0.0
 10
1.1222
 20
12.66611
 30
0.0
 10
1.18714
 20
12.62132
 30
0.0
 10
1.24635
 20
12.5844
 30
0.0
 10
1.30243
 20
12.54945
 30
0.0
 10
1.39014
 20
12.46654
 30
0.0
 10
1.43211
 20
12.56074
 30
0.0
 10
1.46452
 20
12.63353
 30
0.0
 10
1.40261
 20
12.66549
 30
0.0
 10
1.33108
 20
12.73654
 30
0.0
 10
1.27619
 20
12.79106
 30
0.0
 10
1.22777
 20
12.82763
 30
0.0
 10
1.168
 20
12.87749
 30
0.0
 10
0.76582
 20
13.21298
 30
0.0
 10
0.10481
 20
13.50785
 30
0.0
 10
-0.57293
 20
13.50263
 30
0.0
 10
-0.72333
 20
13.50147
 30
0.0
 10
-0.93971
 20
13.46827
 30
0.0
 10
-1.07823
 20
13.42546
 30
0.0
 10
-1.23228
 20
13.37786
 30
0.0
 10
-1.36067
 20
13.31143
 30
0.0
 10
-1.5228
 20
13.28212
 30
0.0
 10
-2.07273
 20
13.18272
 30
0.0
 10
-2.33731
 20
13.45579
 30
0.0
 10
-2.46475
 20
13.50135
 30
0.0
  0
SPLINE
  5
92
330
1F
100
AcDbEntity
  8
Layer 1
370
     9
100
AcDbSpline
210
0.0
220
0.0
230
1.0
 70
    11
 71
     3
 72
    26
 73
    22
 74
     0
 42
0.0000000001
 43
0.0000000001
 40
0.0
 40
0.0
 40
0.0
 40
0.0
 40
0.1428571428571428
 40
0.1428571428571428
 40
0.1428571428571428
 40
0.2857142857142857
 40
0.2857142857142857
 40
0.2857142857142857
 40
0.4285714285714285
 40
0.4285714285714285
 40
0.4285714285714285
 40
0.5714285714285714
 40
0.5714285714285714
 40
0.5714285714285714
 40
0.7142857142857142
 40
0.7142857142857142
 40
0.7142857142857142
 40
0.8571428571428571
 40
0.8571428571428571
 40
0.8571428571428571
 40
1.0
 40
1.0
 40
1.0
 40
1.0
 10
5.35548
 20
10.20999
 30
0.0
 10
5.35548
 20
10.20999
 30
0.0
 10
5.35196
 20
8.44999
 30
0.0
 10
5.35196
 20
8.44999
 30
0.0
 10
5.41942
 20
8.4116
 30
0.0
 10
5.44067
 20
8.47698
 30
0.0
 10
5.54077
 20
8.56962
 30
0.0
 10
5.71783
 20
8.73346
 30
0.0
 10
5.73432
 20
8.79665
 30
0.0
 10
5.84078
 20
8.90442
 30
0.0
 10
5.93743
 20
9.00224
 30
0.0
 10
5.91227
 20
8.98039
 30
0.0
 10
5.9125
 20
9.15135
 30
0.0
 10
5.91305
 20
9.57859
 30
0.0
 10
5.92235
 20
10.01337
 30
0.0
 10
5.91513
 20
10.43931
 30
0.0
 10
5.84906
 20
10.43486
 30
0.0
 10
5.69412
 20
10.35116
 30
0.0
 10
5.63601
 20
10.32689
 30
0.0
 10
5.55813
 20
10.29435
 30
0.0
 10
5.41377
 20
10.24729
 30
0.0
 10
5.35548
 20
10.20999
 30
0.0
  0
SPLINE
  5
93
330
1F
100
AcDbEntity
  8
Layer 1
370
     9
100
AcDbSpline
210
0.0
220
0.0
230
1.0
 70
     8
 71
     3
 72
    26
 73
    22
 74
     0
 42
0.0000000001
 43
0.0000000001
 40
0.0
 40
0.0
 40
0.0
 40
0.0
 40
0.1428571428571428
 40
0.1428571428571428
 40
0.1428571428571428
 40
0.2857142857142857
 40
0.2857142857142857
 40
0.2857142857142857
 40
0.4285714285714285
 40
0.4285714285714285
 40
0.4285714285714285
 40
0.5714285714285714
 40
0.5714285714285714
 40
0.5714285714285714
 40
0.7142857142857142
 40
0.7142857142857142
 40
0.7142857142857142
 40
0.8571428571428571
 40
0.8571428571428571
 40
0.8571428571428571
 40
1.0
 40
1.0
 40
1.0
 40
1.0
 10
4.6161
 20
6.42152
 30
0.0
 10
4.63359
 20
6.49512
 30
0.0
 10
4.69692
 20
6.64315
 30
0.0
 10
4.69358
 20
6.70345
 30
0.0
 10
4.57693
 20
6.74087
 30
0.0
 10
4.22477
 20
6.73415
 30
0.0
 10
4.08571
 20
6.71567
 30
0.0
 10
3.99524
 20
6.46024
 30
0.0
 10
3.88826
 20
6.04419
 30
0.0
 10
3.80137
 20
5.75614
 30
0.0
 10
3.75522
 20
5.60309
 30
0.0
 10
3.70567
 20
5.44805
 30
0.0
 10
3.65774
 20
5.27809
 30
0.0
 10
3.63411
 20
5.19425
 30
0.0
 10
3.51852
 20
4.85967
 30
0.0
 10
3.51887
 20
4.78663
 30
0.0
 10
3.85086
 20
4.77155
 30
0.0
 10
3.7738
 20
4.80292
 30
0.0
 10
4.0434
 20
4.64523
 30
0.0
 10
4.06369
 20
4.63549
 30
0.0
 10
4.07466
 20
4.62982
 30
0.0
 10
4.08018
 20
4.62713
 30
0.0
  0
SPLINE
  5
94
330
1F
100
AcDbEntity
  8
Layer 1
370
     9
100
AcDbSpline
210
0.0
220
0.0
230
1.0
 70
     8
 71
     3
 72
    47
 73
    43
 74
     0
 42
0.0000000001
 43
0.0000000001
 40
0.0
 40
0.0
 40
0.0
 40
0.0
 40
0.0714285714285714
 40
0.0714285714285714
 40
0.0714285714285714
 40
0.1428571428571428
 40
0.1428571428571428
 40
0.1428571428571428
 40
0.2142857142857143
 40
0.2142857142857143
 40
0.2142857142857143
 40
0.2857142857142857
 40
0.2857142857142857
 40
0.2857142857142857
 40
0.3571428571428571
 40
0.3571428571428571
 40
0.3571428571428571
 40
0.4285714285714285
 40
0.4285714285714285
 40
0.4285714285714285
 40
0.5
 40
0.5
 40
0.5
 40
0.5714285714285714
 40
0.5714285714285714
 40
0.5714285714285714
 40
0.6428571428571428
 40
0.6428571428571428
 40
0.6428571428571428
 40
0.7142857142857142
 40
0.7142857142857142
 40
0.7142857142857142
 40
0.7857142857142857
 40
0.7857142857142857
 40
0.7857142857142857
 40
0.8571428571428571
 40
0.8571428571428571
 40
0.8571428571428571
 40
0.9285714285714285
 40
0.9285714285714285
 40
0.9285714285714285
 40
1.0
 40
1.0
 40
1.0
 40
1.0
 10
-2.80914
 20
13.94166
 30
0.0
 10
-2.90782
 20
14.03716
 30
0.0
 10
-2.95895
 20
14.42162
 30
0.0
 10
-2.94491
 20
14.60356
 30
0.0
 10
-2.91095
 20
15.0439
 30
0.0
 10
-2.65673
 20
15.38219
 30
0.0
 10
-2.24086
 20
15.51594
 30
0.0
 10
-1.89285
 20
15.62787
 30
0.0
 10
-1.54917
 20
15.49816
 30
0.0
 10
-1.34925
 20
15.20248
 30
0.0
 10
-1.19245
 20
14.97064
 30
0.0
 10
-1.20482
 20
14.65342
 30
0.0
 10
-1.37591
 20
14.42717
 30
0.0
 10
-1.65204
 20
14.06201
 30
0.0
 10
-2.15887
 20
14.16764
 30
0.0
 10
-2.29528
 20
14.5071
 30
0.0
 10
-2.34787
 20
14.63798
 30
0.0
 10
-2.30738
 20
14.8102
 30
0.0
 10
-2.24015
 20
14.89448
 30
0.0
 10
-2.11363
 20
15.05306
 30
0.0
 10
-1.87014
 20
15.08303
 30
0.0
 10
-1.72688
 20
14.95759
 30
0.0
 10
-1.68185
 20
14.91819
 30
0.0
 10
-1.64745
 20
14.85073
 30
0.0
 10
-1.57835
 20
14.93421
 30
0.0
 10
-1.5432
 20
15.0344
 30
0.0
 10
-2.00704
 20
15.37273
 30
0.0
 10
-2.35481
 20
15.04898
 30
0.0
 10
-2.61058
 20
14.81089
 30
0.0
 10
-2.64812
 20
14.17766
 30
0.0
 10
-1.98137
 20
13.98985
 30
0.0
 10
-1.37091
 20
13.86942
 30
0.0
 10
-1.04106
 20
14.29339
 30
0.0
 10
-0.95715
 20
14.7497
 30
0.0
 10
-0.93749
 20
14.83162
 30
0.0
 10
-0.96006
 20
15.02528
 30
0.0
 10
-0.97997
 20
15.09879
 30
0.0
 10
-1.01488
 20
15.22773
 30
0.0
 10
-1.06345
 20
15.29008
 30
0.0
 10
-1.11859
 20
15.38867
 30
0.0
 10
-1.12148
 20
15.38569
 30
0.0
 10
-1.1277
 20
15.38755
 30
0.0
 10
-1.12967
 20
15.38297
 30
0.0
  0
SPLINE
  5
95
330
1F
100
AcDbEntity
  8
Layer 1
370
     9
100
AcDbSpline
210
0.0
220
0.0
230
1.0
 70
     8
 71
     3
 72
    20
 73
    16
 74
     0
 42
0.0000000001
 43
0.0000000001
 40
0.0
 40
0.0
 40
0.0
 40
0.0
 40
0.2
 40
0.2
 40
0.2
 40
0.4
 40
0.4
 40
0.4
 40
0.6000000000000001
 40
0.6000000000000001
 40
0.6000000000000001
 40
0.8
 40
0.8
 40
0.8
 40
1.0
 40
1.0
 40
1.0
 40
1.0
 10
-1.12967
 20
15.38297
 30
0.0
 10
-1.1277
 20
15.38755
 30
0.0
 10
-1.12148
 20
15.38569
 30
0.0
 10
-1.11859
 20
15.38867
 30
0.0
 10
-1.29712
 20
15.65438
 30
0.0
 10
-1.62386
 20
15.85961
 30
0.0
 10
-2.05532
 20
15.84146
 30
0.0
 10
-2.4807
 20
15.82357
 30
0.0
 10
-2.76322
 20
15.6061
 30
0.0
 10
-2.95213
 20
15.34142
 30
0.0
 10
-3.32773
 20
14.81524
 30
0.0
 10
-3.29534
 20
14.03791
 30
0.0
 10
-2.8443
 20
13.53664
 30
0.0
 10
-2.78482
 20
13.47052
 30
0.0
 10
-2.72918
 20
13.42562
 30
0.0
 10
-2.66339
 20
13.35319
 30
0.0
  0
SPLINE
  5
96
330
1F
100
AcDbEntity
  8
Layer 1
370
     9
100
AcDbSpline
210
0.0
220
0.0
230
1.0
 70
     8
 71
     3
 72
    23
 73
    19
 74
     0
 42
0.0000000001
 43
0.0000000001
 40
0.0
 40
0.0
 40
0.0
 40
0.0
 40
0.1666666666666667
 40
0.1666666666666667
 40
0.1666666666666667
 40
0.3333333333333333
 40
0.3333333333333333
 40
0.3333333333333333
 40
0.5
 40
0.5
 40
0.5
 40
0.6666666666666666
 40
0.6666666666666666
 40
0.6666666666666666
 40
0.8333333333333333
 40
0.8333333333333333
 40
0.8333333333333333
 40
1.0
 40
1.0
 40
1.0
 40
1.0
 10
2.32403
 20
12.71099
 30
0.0
 10
2.36728
 20
12.64658
 30
0.0
 10
2.46929
 20
12.5842
 30
0.0
 10
2.54098
 20
12.53034
 30
0.0
 10
2.68106
 20
12.4251
 30
0.0
 10
3.42906
 20
11.95631
 30
0.0
 10
3.5387
 20
11.98375
 30
0.0
 10
3.57107
 20
11.99185
 30
0.0
 10
3.75606
 20
12.08972
 30
0.0
 10
3.80759
 20
12.11701
 30
0.0
 10
3.80759
 20
12.11701
 30
0.0
 10
4.17475
 20
12.33048
 30
0.0
 10
4.17475
 20
12.33048
 30
0.0
 10
4.19438
 20
12.34314
 30
0.0
 10
4.20968
 20
12.35354
 30
0.0
 10
4.22994
 20
12.36812
 30
0.0
 10
4.22994
 20
12.36812
 30
0.0
 10
4.29099
 20
12.4192
 30
0.0
 10
4.29099
 20
12.4192
 30
0.0
  0
SPLINE
  5
97
330
1F
100
AcDbEntity
  8
Layer 1
370
     9
100
AcDbSpline
210
0.0
220
0.0
230
1.0
 70
     8
 71
     3
 72
    23
 73
    19
 74
     0
 42
0.0000000001
 43
0.0000000001
 40
0.0
 40
0.0
 40
0.0
 40
0.0
 40
0.1666666666666667
 40
0.1666666666666667
 40
0.1666666666666667
 40
0.3333333333333333
 40
0.3333333333333333
 40
0.3333333333333333
 40
0.5
 40
0.5
 40
0.5
 40
0.6666666666666666
 40
0.6666666666666666
 40
0.6666666666666666
 40
0.8333333333333333
 40
0.8333333333333333
 40
0.8333333333333333
 40
1.0
 40
1.0
 40
1.0
 40
1.0
 10
5.55843
 20
6.27701
 30
0.0
 10
5.59549
 20
6.38933
 30
0.0
 10
5.60361
 20
6.37915
 30
0.0
 10
5.37406
 20
6.49842
 30
0.0
 10
5.29211
 20
6.54101
 30
0.0
 10
5.15417
 20
6.6138
 30
0.0
 10
5.03935
 20
6.62177
 30
0.0
 10
5.03935
 20
6.62177
 30
0.0
 10
4.66125
 20
5.31716
 30
0.0
 10
4.66125
 20
5.31716
 30
0.0
 10
4.62892
 20
5.23217
 30
0.0
 10
4.6076
 20
5.15565
 30
0.0
 10
4.57826
 20
5.05751
 30
0.0
 10
4.54622
 20
4.95029
 30
0.0
 10
4.42561
 20
4.60195
 30
0.0
 10
4.426
 20
4.51563
 30
0.0
 10
4.64173
 20
4.52327
 30
0.0
 10
4.63747
 20
4.51294
 30
0.0
 10
4.81849
 20
4.45802
 30
0.0
  0
SPLINE
  5
98
330
1F
100
AcDbEntity
  8
Layer 1
370
     9
100
AcDbSpline
210
0.0
220
0.0
230
1.0
 70
     8
 71
     3
 72
    26
 73
    22
 74
     0
 42
0.0000000001
 43
0.0000000001
 40
0.0
 40
0.0
 40
0.0
 40
0.0
 40
0.1428571428571428
 40
0.1428571428571428
 40
0.1428571428571428
 40
0.2857142857142857
 40
0.2857142857142857
 40
0.2857142857142857
 40
0.4285714285714285
 40
0.4285714285714285
 40
0.4285714285714285
 40
0.5714285714285714
 40
0.5714285714285714
 40
0.5714285714285714
 40
0.7142857142857142
 40
0.7142857142857142
 40
0.7142857142857142
 40
0.8571428571428571
 40
0.8571428571428571
 40
0.8571428571428571
 40
1.0
 40
1.0
 40
1.0
 40
1.0
 10
3.62251
 20
9.84696
 30
0.0
 10
3.56188
 20
9.85858
 30
0.0
 10
3.44149
 20
9.87588
 30
0.0
 10
3.42723
 20
9.80992
 30
0.0
 10
3.42387
 20
9.79435
 30
0.0
 10
3.42387
 20
9.79038
 30
0.0
 10
3.42304
 20
9.77433
 30
0.0
 10
3.42189
 20
9.75198
 30
0.0
 10
3.42382
 20
9.71775
 30
0.0
 10
3.42398
 20
9.69397
 30
0.0
 10
3.42434
 20
9.63656
 30
0.0
 10
3.42398
 20
9.57923
 30
0.0
 10
3.42392
 20
9.52187
 30
0.0
 10
3.42392
 20
9.52187
 30
0.0
 10
3.42448
 20
7.82804
 30
0.0
 10
3.42448
 20
7.82804
 30
0.0
 10
3.42464
 20
7.74564
 30
0.0
 10
3.40654
 20
7.19086
 30
0.0
 10
3.43466
 20
7.1644
 30
0.0
 10
3.46112
 20
7.1395
 30
0.0
 10
3.76457
 20
7.31917
 30
0.0
 10
3.78596
 20
7.33154
 30
0.0
  0
SPLINE
  5
99
330
1F
100
AcDbEntity
  8
Layer 1
370
     9
100
AcDbSpline
210
0.0
220
0.0
230
1.0
 70
    11
 71
     3
 72
    38
 73
    34
 74
     0
 42
0.0000000001
 43
0.0000000001
 40
0.0
 40
0.0
 40
0.0
 40
0.0
 40
0.0909090909090909
 40
0.0909090909090909
 40
0.0909090909090909
 40
0.1818181818181818
 40
0.1818181818181818
 40
0.1818181818181818
 40
0.2727272727272727
 40
0.2727272727272727
 40
0.2727272727272727
 40
0.3636363636363636
 40
0.3636363636363636
 40
0.3636363636363636
 40
0.4545454545454546
 40
0.4545454545454546
 40
0.4545454545454546
 40
0.5454545454545454
 40
0.5454545454545454
 40
0.5454545454545454
 40
0.6363636363636364
 40
0.6363636363636364
 40
0.6363636363636364
 40
0.7272727272727273
 40
0.7272727272727273
 40
0.7272727272727273
 40
0.8181818181818182
 40
0.8181818181818182
 40
0.8181818181818182
 40
0.9090909090909092
 40
0.9090909090909092
 40
0.9090909090909092
 40
1.0
 40
1.0
 40
1.0
 40
1.0
 10
2.14244
 20
1.99548
 30
0.0
 10
2.14244
 20
1.99548
 30
0.0
 10
3.15943
 20
2.0836
 30
0.0
 10
3.15943
 20
2.0836
 30
0.0
 10
3.27248
 20
2.09063
 30
0.0
 10
3.39106
 20
2.10151
 30
0.0
 10
3.50615
 20
2.10929
 30
0.0
 10
3.49197
 20
2.14958
 30
0.0
 10
3.50666
 20
2.12876
 30
0.0
 10
3.46835
 20
2.14922
 30
0.0
 10
3.46835
 20
2.14922
 30
0.0
 10
0.83643
 20
2.93629
 30
0.0
 10
0.83643
 20
2.93629
 30
0.0
 10
0.68664
 20
2.98138
 30
0.0
 10
0.53547
 20
3.03106
 30
0.0
 10
0.3926
 20
3.07261
 30
0.0
 10
0.3926
 20
3.07261
 30
0.0
 10
-0.08056
 20
3.20694
 30
0.0
 10
-0.08056
 20
3.20694
 30
0.0
 10
-0.04897
 20
3.12797
 30
0.0
 10
-0.05036
 20
3.1702
 30
0.0
 10
0.04562
 20
3.08725
 30
0.0
 10
0.1273
 20
3.01664
 30
0.0
 10
0.92838
 20
2.36274
 30
0.0
 10
0.96337
 20
2.36058
 30
0.0
 10
1.01791
 20
2.35722
 30
0.0
 10
1.22703
 20
2.63402
 30
0.0
 10
1.69354
 20
2.48782
 30
0.0
 10
1.85251
 20
2.43801
 30
0.0
 10
2.00334
 20
2.30841
 30
0.0
 10
2.07733
 20
2.16956
 30
0.0
 10
2.11358
 20
2.10155
 30
0.0
 10
2.11916
 20
2.05432
 30
0.0
 10
2.14244
 20
1.99548
 30
0.0
  0
SPLINE
  5
9A
330
1F
100
AcDbEntity
  8
Layer 1
370
     9
100
AcDbSpline
210
0.0
220
0.0
230
1.0
 70
     8
 71
     3
 72
    17
 73
    13
 74
     0
 42
0.0000000001
 43
0.0000000001
 40
0.0
 40
0.0
 40
0.0
 40
0.0
 40
0.25
 40
0.25
 40
0.25
 40
0.5
 40
0.5
 40
0.5
 40
0.75
 40
0.75
 40
0.75
 40
1.0
 40
1.0
 40
1.0
 40
1.0
 10
6.12989
 20
11.58787
 30
0.0
 10
5.93951
 20
11.78212
 30
0.0
 10
5.97032
 20
11.78535
 30
0.0
 10
5.71525
 20
11.93276
 30
0.0
 10
5.42717
 20
12.09923
 30
0.0
 10
5.00765
 20
12.16112
 30
0.0
 10
4.64441
 20
12.10709
 30
0.0
 10
4.25615
 20
12.04934
 30
0.0
 10
3.91192
 20
11.85492
 30
0.0
 10
3.62457
 20
11.60994
 30
0.0
 10
3.56501
 20
11.55916
 30
0.0
 10
3.4147
 20
11.39992
 30
0.0
 10
3.38741
 20
11.33348
 30
0.0
  0
SPLINE
  5
9B
330
1F
100
AcDbEntity
  8
Layer 1
370
     9
100
AcDbSpline
210
0.0
220
0.0
230
1.0
 70
     8
 71
     3
 72
    20
 73
    16
 74
     0
 42
0.0000000001
 43
0.0000000001
 40
0.0
 40
0.0
 40
0.0
 40
0.0
 40
0.2
 40
0.2
 40
0.2
 40
0.4
 40
0.4
 40
0.4
 40
0.6000000000000001
 40
0.6000000000000001
 40
0.6000000000000001
 40
0.8
 40
0.8
 40
0.8
 40
1.0
 40
1.0
 40
1.0
 40
1.0
 10
3.15592
 20
11.42234
 30
0.0
 10
2.95217
 20
11.63485
 30
0.0
 10
2.74694
 20
11.83466
 30
0.0
 10
2.45108
 20
11.9524
 30
0.0
 10
2.13766
 20
12.07714
 30
0.0
 10
1.83607
 20
12.16778
 30
0.0
 10
1.42232
 20
12.10782
 30
0.0
 10
1.07145
 20
12.05696
 30
0.0
 10
0.80875
 20
11.91748
 30
0.0
 10
0.58658
 20
11.70989
 30
0.0
 10
0.39891
 20
11.53454
 30
0.0
 10
0.15129
 20
11.11211
 30
0.0
 10
0.15423
 20
10.89573
 30
0.0
 10
0.22416
 20
10.85397
 30
0.0
 10
0.4862
 20
10.72902
 30
0.0
 10
0.55292
 20
10.71725
 30
0.0
  0
SPLINE
  5
9C
330
1F
100
AcDbEntity
  8
Layer 1
370
     9
100
AcDbSpline
210
0.0
220
0.0
230
1.0
 70
    11
 71
     3
 72
    35
 73
    31
 74
     0
 42
0.0000000001
 43
0.0000000001
 40
0.0
 40
0.0
 40
0.0
 40
0.0
 40
0.1
 40
0.1
 40
0.1
 40
0.2
 40
0.2
 40
0.2
 40
0.3
 40
0.3
 40
0.3
 40
0.4
 40
0.4
 40
0.4
 40
0.5
 40
0.5
 40
0.5
 40
0.6000000000000001
 40
0.6000000000000001
 40
0.6000000000000001
 40
0.7000000000000001
 40
0.7000000000000001
 40
0.7000000000000001
 40
0.8
 40
0.8
 40
0.8
 40
0.9
 40
0.9
 40
0.9
 40
1.0
 40
1.0
 40
1.0
 40
1.0
 10
-0.05118
 20
5.87511
 30
0.0
 10
0.05887
 20
5.86019
 30
0.0
 10
0.13063
 20
5.87261
 30
0.0
 10
0.23763
 20
5.83232
 30
0.0
 10
0.3777
 20
5.77955
 30
0.0
 10
0.40674
 20
5.72322
 30
0.0
 10
0.46105
 20
5.70923
 30
0.0
 10
0.48323
 20
5.77069
 30
0.0
 10
0.50721
 20
5.91239
 30
0.0
 10
0.53542
 20
5.96469
 30
0.0
 10
0.53542
 20
5.96469
 30
0.0
 10
0.77759
 20
6.73771
 30
0.0
 10
0.77759
 20
6.73771
 30
0.0
 10
0.80863
 20
6.85229
 30
0.0
 10
1.07253
 20
7.72385
 30
0.0
 10
1.07903
 20
7.80157
 30
0.0
 10
1.07903
 20
7.80157
 30
0.0
 10
1.0258
 20
7.82874
 30
0.0
 10
1.0258
 20
7.82874
 30
0.0
 10
1.00551
 20
7.83679
 30
0.0
 10
0.99301
 20
7.8397
 30
0.0
 10
0.96841
 20
7.84528
 30
0.0
 10
0.7459
 20
7.89582
 30
0.0
 10
0.75805
 20
7.87183
 30
0.0
 10
0.54461
 20
7.88708
 30
0.0
 10
0.54461
 20
7.88708
 30
0.0
 10
0.39344
 20
7.39098
 30
0.0
 10
0.39344
 20
7.39098
 30
0.0
 10
0.34275
 20
7.23159
 30
0.0
 10
-0.0531
 20
5.9286
 30
0.0
 10
-0.05118
 20
5.87511
 30
0.0
  0
SPLINE
  5
9D
330
1F
100
AcDbEntity
  8
Layer 1
370
     9
100
AcDbSpline
210
0.0
220
0.0
230
1.0
 70
    11
 71
     3
 72
    20
 73
    16
 74
     0
 42
0.0000000001
 43
0.0000000001
 40
0.0
 40
0.0
 40
0.0
 40
0.0
 40
0.2
 40
0.2
 40
0.2
 40
0.4
 40
0.4
 40
0.4
 40
0.6000000000000001
 40
0.6000000000000001
 40
0.6000000000000001
 40
0.8
 40
0.8
 40
0.8
 40
1.0
 40
1.0
 40
1.0
 40
1.0
 10
2.66608
 20
7.41063
 30
0.0
 10
2.73424
 20
7.38156
 30
0.0
 10
2.81794
 20
7.326
 30
0.0
 10
2.88718
 20
7.29039
 30
0.0
 10
2.95991
 20
7.25297
 30
0.0
 10
3.0516
 20
7.18638
 30
0.0
 10
3.13921
 20
7.18316
 30
0.0
 10
3.13921
 20
7.18316
 30
0.0
 10
3.13513
 20
9.84212
 30
0.0
 10
3.13513
 20
9.84212
 30
0.0
 10
3.13513
 20
9.84212
 30
0.0
 10
2.66304
 20
9.86614
 30
0.0
 10
2.66304
 20
9.86614
 30
0.0
 10
2.66304
 20
9.86614
 30
0.0
 10
2.66608
 20
7.41063
 30
0.0
 10
2.66608
 20
7.41063
 30
0.0
  0
SPLINE
  5
9E
330
1F
100
AcDbEntity
  8
Layer 1
370
     9
100
AcDbSpline
210
0.0
220
0.0
230
1.0
 70
    11
 71
     3
 72
    35
 73
    31
 74
     0
 42
0.0000000001
 43
0.0000000001
 40
0.0
 40
0.0
 40
0.0
 40
0.0
 40
0.1
 40
0.1
 40
0.1
 40
0.2
 40
0.2
 40
0.2
 40
0.3
 40
0.3
 40
0.3
 40
0.4
 40
0.4
 40
0.4
 40
0.5
 40
0.5
 40
0.5
 40
0.6000000000000001
 40
0.6000000000000001
 40
0.6000000000000001
 40
0.7000000000000001
 40
0.7000000000000001
 40
0.7000000000000001
 40
0.8
 40
0.8
 40
0.8
 40
0.9
 40
0.9
 40
0.9
 40
1.0
 40
1.0
 40
1.0
 40
1.0
 10
0.80283
 20
5.60348
 30
0.0
 10
0.98371
 20
5.58534
 30
0.0
 10
1.03885
 20
5.62688
 30
0.0
 10
1.24282
 20
5.51436
 30
0.0
 10
1.29504
 20
5.48557
 30
0.0
 10
1.30942
 20
5.45381
 30
0.0
 10
1.36662
 20
5.44111
 30
0.0
 10
1.36662
 20
5.44111
 30
0.0
 10
1.73187
 20
6.65995
 30
0.0
 10
1.73187
 20
6.65995
 30
0.0
 10
1.74789
 20
6.72954
 30
0.0
 10
1.77715
 20
6.84628
 30
0.0
 10
1.80133
 20
6.91248
 30
0.0
 10
1.81814
 20
6.95856
 30
0.0
 10
1.8296
 20
6.96143
 30
0.0
 10
1.84429
 20
7.02126
 30
0.0
 10
1.86519
 20
7.10635
 30
0.0
 10
1.94784
 20
7.31699
 30
0.0
 10
1.94543
 20
7.38248
 30
0.0
 10
1.84879
 20
7.44791
 30
0.0
 10
1.54498
 20
7.66475
 30
0.0
 10
1.42532
 20
7.68279
 30
0.0
 10
1.39619
 20
7.63091
 30
0.0
 10
1.01967
 20
6.31351
 30
0.0
 10
0.95481
 20
6.13094
 30
0.0
 10
0.94038
 20
6.09036
 30
0.0
 10
0.93673
 20
6.04379
 30
0.0
 10
0.9223
 20
5.99821
 30
0.0
 10
0.88995
 20
5.89593
 30
0.0
 10
0.81131
 20
5.69468
 30
0.0
 10
0.80283
 20
5.60348
 30
0.0
  0
SPLINE
  5
9F
330
1F
100
AcDbEntity
  8
Layer 1
370
     9
100
AcDbSpline
210
0.0
220
0.0
230
1.0
 70
    11
 71
     3
 72
    53
 73
    49
 74
     0
 42
0.0000000001
 43
0.0000000001
 40
0.0
 40
0.0
 40
0.0
 40
0.0
 40
0.0625
 40
0.0625
 40
0.0625
 40
0.125
 40
0.125
 40
0.125
 40
0.1875
 40
0.1875
 40
0.1875
 40
0.25
 40
0.25
 40
0.25
 40
0.3125
 40
0.3125
 40
0.3125
 40
0.375
 40
0.375
 40
0.375
 40
0.4375
 40
0.4375
 40
0.4375
 40
0.5
 40
0.5
 40
0.5
 40
0.5625
 40
0.5625
 40
0.5625
 40
0.625
 40
0.625
 40
0.625
 40
0.6875
 40
0.6875
 40
0.6875
 40
0.75
 40
0.75
 40
0.75
 40
0.8125
 40
0.8125
 40
0.8125
 40
0.875
 40
0.875
 40
0.875
 40
0.9375
 40
0.9375
 40
0.9375
 40
1.0
 40
1.0
 40
1.0
 40
1.0
 10
1.91502
 20
13.26832
 30
0.0
 10
1.91502
 20
13.26832
 30
0.0
 10
2.29297
 20
13.33981
 30
0.0
 10
2.29297
 20
13.33981
 30
0.0
 10
2.53609
 20
13.38087
 30
0.0
 10
2.83648
 20
13.35069
 30
0.0
 10
3.08063
 20
13.29747
 30
0.0
 10
3.1973
 20
13.27204
 30
0.0
 10
3.32234
 20
13.25684
 30
0.0
 10
3.4416
 20
13.21786
 30
0.0
 10
3.78835
 20
13.10448
 30
0.0
 10
4.04982
 20
13.00237
 30
0.0
 10
4.36446
 20
12.82991
 30
0.0
 10
4.42178
 20
12.7985
 30
0.0
 10
4.59072
 20
12.68721
 30
0.0
 10
4.65421
 20
12.67415
 30
0.0
 10
4.9613
 20
12.80773
 30
0.0
 10
5.57181
 20
13.64678
 30
0.0
 10
5.54628
 20
13.95864
 30
0.0
 10
5.50704
 20
13.94077
 30
0.0
 10
5.42306
 20
13.8151
 30
0.0
 10
5.38289
 20
13.76874
 30
0.0
 10
5.22325
 20
13.58451
 30
0.0
 10
4.96053
 20
13.43759
 30
0.0
 10
4.71019
 20
13.39647
 30
0.0
 10
4.30895
 20
13.33056
 30
0.0
 10
3.9148
 20
13.46241
 30
0.0
 10
3.57856
 20
13.63321
 30
0.0
 10
3.26401
 20
13.79298
 30
0.0
 10
2.97552
 20
13.9751
 30
0.0
 10
2.63148
 20
14.07792
 30
0.0
 10
2.39113
 20
14.14976
 30
0.0
 10
2.44194
 20
14.176
 30
0.0
 10
2.09881
 20
14.2285
 30
0.0
 10
1.90966
 20
14.25743
 30
0.0
 10
1.63074
 20
14.30022
 30
0.0
 10
1.44594
 20
14.24022
 30
0.0
 10
1.43995
 20
13.94127
 30
0.0
 10
1.51162
 20
13.68796
 30
0.0
 10
1.65369
 20
13.44384
 30
0.0
 10
1.67329
 20
13.41018
 30
0.0
 10
1.69606
 20
13.37323
 30
0.0
 10
1.71985
 20
13.3362
 30
0.0
 10
1.74128
 20
13.30287
 30
0.0
 10
1.76811
 20
13.27609
 30
0.0
 10
1.78785
 20
13.23381
 30
0.0
 10
1.84034
 20
13.23339
 30
0.0
 10
1.87793
 20
13.24961
 30
0.0
 10
1.91502
 20
13.26832
 30
0.0
  0
SPLINE
  5
A0
330
1F
100
AcDbEntity
  8
Layer 1
370
     9
100
AcDbSpline
210
0.0
220
0.0
230
1.0
 70
    11
 71
     3
 72
    56
 73
    52
 74
     0
 42
0.0000000001
 43
0.0000000001
 40
0.0
 40
0.0
 40
0.0
 40
0.0
 40
0.0588235294117647
 40
0.0588235294117647
 40
0.0588235294117647
 40
0.1176470588235294
 40
0.1176470588235294
 40
0.1176470588235294
 40
0.1764705882352941
 40
0.1764705882352941
 40
0.1764705882352941
 40
0.2352941176470588
 40
0.2352941176470588
 40
0.2352941176470588
 40
0.2941176470588235
 40
0.2941176470588235
 40
0.2941176470588235
 40
0.3529411764705882
 40
0.3529411764705882
 40
0.3529411764705882
 40
0.4117647058823529
 40
0.4117647058823529
 40
0.4117647058823529
 40
0.4705882352941176
 40
0.4705882352941176
 40
0.4705882352941176
 40
0.5294117647058824
 40
0.5294117647058824
 40
0.5294117647058824
 40
0.5882352941176471
 40
0.5882352941176471
 40
0.5882352941176471
 40
0.6470588235294118
 40
0.6470588235294118
 40
0.6470588235294118
 40
0.7058823529411764
 40
0.7058823529411764
 40
0.7058823529411764
 40
0.7647058823529411
 40
0.7647058823529411
 40
0.7647058823529411
 40
0.8235294117647058
 40
0.8235294117647058
 40
0.8235294117647058
 40
0.8823529411764706
 40
0.8823529411764706
 40
0.8823529411764706
 40
0.9411764705882353
 40
0.9411764705882353
 40
0.9411764705882353
 40
1.0
 40
1.0
 40
1.0
 40
1.0
 10
1.52459
 20
14.43942
 30
0.0
 10
1.74367
 20
14.46187
 30
0.0
 10
2.03424
 20
14.43134
 30
0.0
 10
2.24666
 20
14.38988
 30
0.0
 10
2.31506
 20
14.37653
 30
0.0
 10
2.36889
 20
14.34832
 30
0.0
 10
2.44446
 20
14.3298
 30
0.0
 10
2.72937
 20
14.25996
 30
0.0
 10
2.96289
 20
14.15821
 30
0.0
 10
3.21647
 20
14.03776
 30
0.0
 10
3.63314
 20
13.83982
 30
0.0
 10
4.1519
 20
13.46132
 30
0.0
 10
4.72082
 20
13.58307
 30
0.0
 10
4.76303
 20
13.59211
 30
0.0
 10
4.78912
 20
13.59831
 30
0.0
 10
4.82061
 20
13.62413
 30
0.0
 10
4.80456
 20
13.6377
 30
0.0
 10
4.78129
 20
13.64433
 30
0.0
 10
4.7613
 20
13.64864
 30
0.0
 10
4.51738
 20
13.70125
 30
0.0
 10
4.18352
 20
13.8
 30
0.0
 10
4.10875
 20
14.09416
 30
0.0
 10
4.03096
 20
14.40016
 30
0.0
 10
4.22531
 20
14.7013
 30
0.0
 10
4.66744
 20
14.66138
 30
0.0
 10
4.71985
 20
14.71024
 30
0.0
 10
4.72521
 20
14.74934
 30
0.0
 10
4.77112
 20
14.80467
 30
0.0
 10
4.81677
 20
14.85972
 30
0.0
 10
4.93287
 20
14.9258
 30
0.0
 10
4.99748
 20
14.94815
 30
0.0
 10
5.11661
 20
14.98935
 30
0.0
 10
5.14851
 20
14.95328
 30
0.0
 10
5.2494
 20
14.94846
 30
0.0
 10
5.21723
 20
15.03962
 30
0.0
 10
4.969
 20
15.15109
 30
0.0
 10
4.86081
 20
15.18342
 30
0.0
 10
4.36226
 20
15.33244
 30
0.0
 10
3.69827
 20
14.94495
 30
0.0
 10
3.52481
 20
14.61288
 30
0.0
 10
3.49921
 20
14.72843
 30
0.0
 10
3.11794
 20
15.0321
 30
0.0
 10
2.99848
 20
15.09262
 30
0.0
 10
2.79504
 20
15.19568
 30
0.0
 10
2.58347
 20
15.24711
 30
0.0
 10
2.31062
 20
15.21543
 30
0.0
 10
1.91491
 20
15.16947
 30
0.0
 10
1.63181
 20
14.9074
 30
0.0
 10
1.50846
 20
14.55691
 30
0.0
 10
1.49127
 20
14.50805
 30
0.0
 10
1.44424
 20
14.42817
 30
0.0
 10
1.52459
 20
14.43942
 30
0.0
  0
SPLINE
  5
A1
330
1F
100
AcDbEntity
  8
Layer 1
370
     9
100
AcDbSpline
210
0.0
220
0.0
230
1.0
 70
    11
 71
     3
 72
   128
 73
   124
 74
     0
 42
0.0000000001
 43
0.0000000001
 40
0.0
 40
0.0
 40
0.0
 40
0.0
 40
0.024390243902439
 40
0.024390243902439
 40
0.024390243902439
 40
0.0487804878048781
 40
0.0487804878048781
 40
0.0487804878048781
 40
0.0731707317073171
 40
0.0731707317073171
 40
0.0731707317073171
 40
0.0975609756097561
 40
0.0975609756097561
 40
0.0975609756097561
 40
0.1219512195121951
 40
0.1219512195121951
 40
0.1219512195121951
 40
0.1463414634146342
 40
0.1463414634146342
 40
0.1463414634146342
 40
0.1707317073170732
 40
0.1707317073170732
 40
0.1707317073170732
 40
0.1951219512195122
 40
0.1951219512195122
 40
0.1951219512195122
 40
0.2195121951219512
 40
0.2195121951219512
 40
0.2195121951219512
 40
0.2439024390243902
 40
0.2439024390243902
 40
0.2439024390243902
 40
0.2682926829268293
 40
0.2682926829268293
 40
0.2682926829268293
 40
0.2926829268292683
 40
0.2926829268292683
 40
0.2926829268292683
 40
0.3170731707317073
 40
0.3170731707317073
 40
0.3170731707317073
 40
0.3414634146341464
 40
0.3414634146341464
 40
0.3414634146341464
 40
0.3658536585365854
 40
0.3658536585365854
 40
0.3658536585365854
 40
0.3902439024390244
 40
0.3902439024390244
 40
0.3902439024390244
 40
0.4146341463414634
 40
0.4146341463414634
 40
0.4146341463414634
 40
0.4390243902439024
 40
0.4390243902439024
 40
0.4390243902439024
 40
0.4634146341463415
 40
0.4634146341463415
 40
0.4634146341463415
 40
0.4878048780487805
 40
0.4878048780487805
 40
0.4878048780487805
 40
0.5121951219512195
 40
0.5121951219512195
 40
0.5121951219512195
 40
0.5365853658536586
 40
0.5365853658536586
 40
0.5365853658536586
 40
0.5609756097560976
 40
0.5609756097560976
 40
0.5609756097560976
 40
0.5853658536585367
 40
0.5853658536585367
 40
0.5853658536585367
 40
0.6097560975609756
 40
0.6097560975609756
 40
0.6097560975609756
 40
0.6341463414634146
 40
0.6341463414634146
 40
0.6341463414634146
 40
0.6585365853658537
 40
0.6585365853658537
 40
0.6585365853658537
 40
0.6829268292682927
 40
0.6829268292682927
 40
0.6829268292682927
 40
0.7073170731707318
 40
0.7073170731707318
 40
0.7073170731707318
 40
0.7317073170731707
 40
0.7317073170731707
 40
0.7317073170731707
 40
0.7560975609756098
 40
0.7560975609756098
 40
0.7560975609756098
 40
0.7804878048780488
 40
0.7804878048780488
 40
0.7804878048780488
 40
0.8048780487804879
 40
0.8048780487804879
 40
0.8048780487804879
 40
0.8292682926829269
 40
0.8292682926829269
 40
0.8292682926829269
 40
0.8536585365853658
 40
0.8536585365853658
 40
0.8536585365853658
 40
0.8780487804878049
 40
0.8780487804878049
 40
0.8780487804878049
 40
0.9024390243902439
 40
0.9024390243902439
 40
0.9024390243902439
 40
0.926829268292683
 40
0.926829268292683
 40
0.926829268292683
 40
0.951219512195122
 40
0.951219512195122
 40
0.951219512195122
 40
0.975609756097561
 40
0.975609756097561
 40
0.975609756097561
 40
1.0
 40
1.0
 40
1.0
 40
1.0
 10
-3.52379
 20
5.1533
 30
0.0
 10
-3.43887
 20
5.14283
 30
0.0
 10
-3.36793
 20
5.08972
 30
0.0
 10
-3.30097
 20
5.04616
 30
0.0
 10
-3.23068
 20
5.00045
 30
0.0
 10
-3.17656
 20
4.95954
 30
0.0
 10
-3.09524
 20
4.9203
 30
0.0
 10
-2.7986
 20
4.77715
 30
0.0
 10
-2.68666
 20
4.73665
 30
0.0
 10
-2.3671
 20
4.65581
 30
0.0
 10
-2.18273
 20
4.60917
 30
0.0
 10
-1.95557
 20
4.59125
 30
0.0
 10
-1.76383
 20
4.59398
 30
0.0
 10
-1.65073
 20
4.59559
 30
0.0
 10
-1.53365
 20
4.58551
 30
0.0
 10
-1.55347
 20
4.71827
 30
0.0
 10
-1.5836
 20
4.78995
 30
0.0
 10
-1.77147
 20
4.78799
 30
0.0
 10
-1.8953
 20
4.79584
 30
0.0
 10
-2.02228
 20
4.80387
 30
0.0
 10
-2.13836
 20
4.82625
 30
0.0
 10
-2.26468
 20
4.8447
 30
0.0
 10
-2.48134
 20
4.87635
 30
0.0
 10
-2.70797
 20
4.95756
 30
0.0
 10
-2.88982
 20
5.04969
 30
0.0
 10
-3.23067
 20
5.22242
 30
0.0
 10
-3.519
 20
5.4781
 30
0.0
 10
-3.68507
 20
5.81458
 30
0.0
 10
-3.80357
 20
5.97458
 30
0.0
 10
-3.84807
 20
6.31923
 30
0.0
 10
-3.84094
 20
6.50475
 30
0.0
 10
-3.82155
 20
7.01007
 30
0.0
 10
-3.45714
 20
7.45321
 30
0.0
 10
-2.96893
 20
7.48951
 30
0.0
 10
-2.60198
 20
7.51682
 30
0.0
 10
-2.26668
 20
7.34871
 30
0.0
 10
-2.15061
 20
6.98032
 30
0.0
 10
-2.11196
 20
6.85765
 30
0.0
 10
-2.12775
 20
6.70525
 30
0.0
 10
-2.15822
 20
6.59412
 30
0.0
 10
-2.21105
 20
6.40155
 30
0.0
 10
-2.37935
 20
6.22261
 30
0.0
 10
-2.5856
 20
6.17976
 30
0.0
 10
-2.65253
 20
6.17381
 30
0.0
 10
-2.70323
 20
6.17145
 30
0.0
 10
-2.77056
 20
6.18011
 30
0.0
 10
-2.8785
 20
6.19396
 30
0.0
 10
-2.99149
 20
6.30282
 30
0.0
 10
-3.03688
 20
6.39733
 30
0.0
 10
-3.07271
 20
6.47199
 30
0.0
 10
-3.07562
 20
6.56691
 30
0.0
 10
-3.0368
 20
6.63898
 30
0.0
 10
-2.88908
 20
6.91323
 30
0.0
 10
-2.63829
 20
6.63474
 30
0.0
 10
-2.64639
 20
6.85406
 30
0.0
 10
-2.91346
 20
6.98463
 30
0.0
 10
-3.2244
 20
6.84706
 30
0.0
 10
-3.29661
 20
6.56797
 30
0.0
 10
-3.46621
 20
5.91254
 30
0.0
 10
-2.59931
 20
5.58986
 30
0.0
 10
-2.06373
 20
6.11584
 30
0.0
 10
-1.91789
 20
6.25905
 30
0.0
 10
-1.86437
 20
6.44081
 30
0.0
 10
-1.81806
 20
6.62363
 30
0.0
 10
-1.65878
 20
7.25285
 30
0.0
 10
-2.20039
 20
7.80448
 30
0.0
 10
-2.809
 20
7.80884
 30
0.0
 10
-3.5037
 20
7.81383
 30
0.0
 10
-3.92855
 20
7.39728
 30
0.0
 10
-4.07748
 20
6.77108
 30
0.0
 10
-4.15862
 20
6.42998
 30
0.0
 10
-4.07114
 20
6.06046
 30
0.0
 10
-3.94912
 20
5.78999
 30
0.0
 10
-3.89152
 20
5.66231
 30
0.0
 10
-3.77189
 20
5.53151
 30
0.0
 10
-3.88416
 20
5.36929
 30
0.0
 10
-4.00565
 20
5.19375
 30
0.0
 10
-4.46674
 20
5.18395
 30
0.0
 10
-4.77969
 20
4.53079
 30
0.0
 10
-4.97839
 20
4.11611
 30
0.0
 10
-4.99218
 20
3.5585
 30
0.0
 10
-4.70129
 20
3.17148
 30
0.0
 10
-4.32184
 20
2.66664
 30
0.0
 10
-3.61202
 20
2.5257
 30
0.0
 10
-3.12792
 20
2.95818
 30
0.0
 10
-3.05677
 20
3.02175
 30
0.0
 10
-3.00927
 20
3.07464
 30
0.0
 10
-2.95663
 20
3.15929
 30
0.0
 10
-2.4869
 20
3.91481
 30
0.0
 10
-3.28118
 20
4.87239
 30
0.0
 10
-3.98155
 20
4.40936
 30
0.0
 10
-4.13392
 20
4.30862
 30
0.0
 10
-4.27009
 20
4.10001
 30
0.0
 10
-4.21849
 20
3.83543
 30
0.0
 10
-4.1736
 20
3.60517
 30
0.0
 10
-3.85656
 20
3.32101
 30
0.0
 10
-3.83511
 20
3.59006
 30
0.0
 10
-4.09011
 20
3.76008
 30
0.0
 10
-4.08652
 20
4.00854
 30
0.0
 10
-3.9071
 20
4.14849
 30
0.0
 10
-3.7665
 20
4.25816
 30
0.0
 10
-3.57976
 20
4.25857
 30
0.0
 10
-3.41214
 20
4.15588
 30
0.0
 10
-3.22803
 20
4.04305
 30
0.0
 10
-3.1362
 20
3.81808
 30
0.0
 10
-3.14717
 20
3.60755
 30
0.0
 10
-3.1641
 20
3.28262
 30
0.0
 10
-3.46738
 20
3.02556
 30
0.0
 10
-3.8282
 20
3.03346
 30
0.0
 10
-3.97356
 20
3.03664
 30
0.0
 10
-4.07525
 20
3.06775
 30
0.0
 10
-4.1988
 20
3.14163
 30
0.0
 10
-4.33973
 20
3.22595
 30
0.0
 10
-4.5052
 20
3.3737
 30
0.0
 10
-4.56152
 20
3.53387
 30
0.0
 10
-4.60112
 20
3.64639
 30
0.0
 10
-4.59926
 20
3.58696
 30
0.0
 10
-4.62932
 20
3.74982
 30
0.0
 10
-4.72513
 20
4.26874
 30
0.0
 10
-4.49057
 20
4.73174
 30
0.0
 10
-4.07365
 20
5.00237
 30
0.0
 10
-3.9393
 20
5.08958
 30
0.0
 10
-3.70209
 20
5.19929
 30
0.0
 10
-3.52379
 20
5.1533
 30
0.0
  0
SPLINE
  5
A2
330
1F
100
AcDbEntity
  8
Layer 1
370
     9
100
AcDbSpline
210
0.0
220
0.0
230
1.0
 70
     8
 71
     3
 72
    11
 73
     7
 74
     0
 42
0.0000000001
 43
0.0000000001
 40
0.0
 40
0.0
 40
0.0
 40
0.0
 40
0.5
 40
0.5
 40
0.5
 40
1.0
 40
1.0
 40
1.0
 40
1.0
 10
3.38741
 20
11.33348
 30
0.0
 10
3.33725
 20
11.30182
 30
0.0
 10
3.336
 20
11.28477
 30
0.0
 10
3.25149
 20
11.2999
 30
0.0
 10
3.25149
 20
11.2999
 30
0.0
 10
3.15592
 20
11.42234
 30
0.0
 10
3.15592
 20
11.42234
 30
0.0
  0
SPLINE
  5
A3
330
1F
100
AcDbEntity
  8
Layer 1
370
     9
100
AcDbSpline
210
0.0
220
0.0
230
1.0
 70
     8
 71
     3
 72
    53
 73
    49
 74
     0
 42
0.0000000001
 43
0.0000000001
 40
0.0
 40
0.0
 40
0.0
 40
0.0
 40
0.0625
 40
0.0625
 40
0.0625
 40
0.125
 40
0.125
 40
0.125
 40
0.1875
 40
0.1875
 40
0.1875
 40
0.25
 40
0.25
 40
0.25
 40
0.3125
 40
0.3125
 40
0.3125
 40
0.375
 40
0.375
 40
0.375
 40
0.4375
 40
0.4375
 40
0.4375
 40
0.5
 40
0.5
 40
0.5
 40
0.5625
 40
0.5625
 40
0.5625
 40
0.625
 40
0.625
 40
0.625
 40
0.6875
 40
0.6875
 40
0.6875
 40
0.75
 40
0.75
 40
0.75
 40
0.8125
 40
0.8125
 40
0.8125
 40
0.875
 40
0.875
 40
0.875
 40
0.9375
 40
0.9375
 40
0.9375
 40
1.0
 40
1.0
 40
1.0
 40
1.0
 10
0.55292
 20
10.71725
 30
0.0
 10
0.55292
 20
10.71725
 30
0.0
 10
0.56501
 20
10.70739
 30
0.0
 10
0.56501
 20
10.70739
 30
0.0
 10
0.56702
 20
10.70608
 30
0.0
 10
0.57628
 20
10.69995
 30
0.0
 10
0.57931
 20
10.69823
 30
0.0
 10
0.5869
 20
10.69393
 30
0.0
 10
0.60718
 20
10.6846
 30
0.0
 10
0.61358
 20
10.68165
 30
0.0
 10
0.61358
 20
10.68165
 30
0.0
 10
0.86258
 20
10.58492
 30
0.0
 10
0.86258
 20
10.58492
 30
0.0
 10
0.97693
 20
10.54248
 30
0.0
 10
1.08475
 20
10.49387
 30
0.0
 10
1.20413
 20
10.46365
 30
0.0
 10
1.32598
 20
10.43278
 30
0.0
 10
1.42309
 20
10.38194
 30
0.0
 10
1.54319
 20
10.35863
 30
0.0
 10
1.54319
 20
10.35863
 30
0.0
 10
1.92278
 20
10.27114
 30
0.0
 10
1.92278
 20
10.27114
 30
0.0
 10
2.19613
 20
10.21921
 30
0.0
 10
2.44952
 20
10.17093
 30
0.0
 10
2.73595
 20
10.16045
 30
0.0
 10
2.88984
 20
10.15481
 30
0.0
 10
2.93504
 20
10.137
 30
0.0
 10
3.17209
 20
10.13578
 30
0.0
 10
3.3312
 20
10.13496
 30
0.0
 10
4.02163
 20
10.1519
 30
0.0
 10
4.14215
 20
10.19527
 30
0.0
 10
4.22161
 20
10.22387
 30
0.0
 10
4.31801
 20
10.22429
 30
0.0
 10
4.44175
 20
10.24866
 30
0.0
 10
4.86591
 20
10.3322
 30
0.0
 10
5.44155
 20
10.52504
 30
0.0
 10
5.80985
 20
10.72204
 30
0.0
 10
5.91647
 20
10.77907
 30
0.0
 10
6.0069
 20
10.82985
 30
0.0
 10
6.11201
 20
10.88288
 30
0.0
 10
6.20978
 20
10.93219
 30
0.0
 10
6.30501
 20
11.00074
 30
0.0
 10
6.4008
 20
11.05576
 30
0.0
 10
6.40065
 20
11.11112
 30
0.0
 10
6.32414
 20
11.28653
 30
0.0
 10
6.29438
 20
11.34972
 30
0.0
 10
6.27476
 20
11.39136
 30
0.0
 10
6.15907
 20
11.55564
 30
0.0
 10
6.12989
 20
11.58787
 30
0.0
  0
SPLINE
  5
A4
330
1F
100
AcDbEntity
  8
Layer 1
370
     9
100
AcDbSpline
210
0.0
220
0.0
230
1.0
 70
    11
 71
     3
 72
   275
 73
   271
 74
     0
 42
0.0000000001
 43
0.0000000001
 40
0.0
 40
0.0
 40
0.0
 40
0.0
 40
0.0111111111111111
 40
0.0111111111111111
 40
0.0111111111111111
 40
0.0222222222222222
 40
0.0222222222222222
 40
0.0222222222222222
 40
0.0333333333333333
 40
0.0333333333333333
 40
0.0333333333333333
 40
0.0444444444444444
 40
0.0444444444444444
 40
0.0444444444444444
 40
0.0555555555555556
 40
0.0555555555555556
 40
0.0555555555555556
 40
0.0666666666666667
 40
0.0666666666666667
 40
0.0666666666666667
 40
0.0777777777777778
 40
0.0777777777777778
 40
0.0777777777777778
 40
0.0888888888888889
 40
0.0888888888888889
 40
0.0888888888888889
 40
0.1
 40
0.1
 40
0.1
 40
0.1111111111111111
 40
0.1111111111111111
 40
0.1111111111111111
 40
0.1222222222222222
 40
0.1222222222222222
 40
0.1222222222222222
 40
0.1333333333333333
 40
0.1333333333333333
 40
0.1333333333333333
 40
0.1444444444444445
 40
0.1444444444444445
 40
0.1444444444444445
 40
0.1555555555555556
 40
0.1555555555555556
 40
0.1555555555555556
 40
0.1666666666666667
 40
0.1666666666666667
 40
0.1666666666666667
 40
0.1777777777777778
 40
0.1777777777777778
 40
0.1777777777777778
 40
0.1888888888888889
 40
0.1888888888888889
 40
0.1888888888888889
 40
0.2
 40
0.2
 40
0.2
 40
0.2111111111111111
 40
0.2111111111111111
 40
0.2111111111111111
 40
0.2222222222222222
 40
0.2222222222222222
 40
0.2222222222222222
 40
0.2333333333333333
 40
0.2333333333333333
 40
0.2333333333333333
 40
0.2444444444444445
 40
0.2444444444444445
 40
0.2444444444444445
 40
0.2555555555555556
 40
0.2555555555555556
 40
0.2555555555555556
 40
0.2666666666666667
 40
0.2666666666666667
 40
0.2666666666666667
 40
0.2777777777777778
 40
0.2777777777777778
 40
0.2777777777777778
 40
0.2888888888888889
 40
0.2888888888888889
 40
0.2888888888888889
 40
0.3
 40
0.3
 40
0.3
 40
0.3111111111111111
 40
0.3111111111111111
 40
0.3111111111111111
 40
0.3222222222222222
 40
0.3222222222222222
 40
0.3222222222222222
 40
0.3333333333333334
 40
0.3333333333333334
 40
0.3333333333333334
 40
0.3444444444444444
 40
0.3444444444444444
 40
0.3444444444444444
 40
0.3555555555555556
 40
0.3555555555555556
 40
0.3555555555555556
 40
0.3666666666666667
 40
0.3666666666666667
 40
0.3666666666666667
 40
0.3777777777777778
 40
0.3777777777777778
 40
0.3777777777777778
 40
0.3888888888888889
 40
0.3888888888888889
 40
0.3888888888888889
 40
0.4
 40
0.4
 40
0.4
 40
0.4111111111111111
 40
0.4111111111111111
 40
0.4111111111111111
 40
0.4222222222222222
 40
0.4222222222222222
 40
0.4222222222222222
 40
0.4333333333333333
 40
0.4333333333333333
 40
0.4333333333333333
 40
0.4444444444444445
 40
0.4444444444444445
 40
0.4444444444444445
 40
0.4555555555555555
 40
0.4555555555555555
 40
0.4555555555555555
 40
0.4666666666666667
 40
0.4666666666666667
 40
0.4666666666666667
 40
0.4777777777777778
 40
0.4777777777777778
 40
0.4777777777777778
 40
0.4888888888888889
 40
0.4888888888888889
 40
0.4888888888888889
 40
0.5
 40
0.5
 40
0.5
 40
0.5111111111111112
 40
0.5111111111111112
 40
0.5111111111111112
 40
0.5222222222222223
 40
0.5222222222222223
 40
0.5222222222222223
 40
0.5333333333333333
 40
0.5333333333333333
 40
0.5333333333333333
 40
0.5444444444444445
 40
0.5444444444444445
 40
0.5444444444444445
 40
0.5555555555555556
 40
0.5555555555555556
 40
0.5555555555555556
 40
0.5666666666666667
 40
0.5666666666666667
 40
0.5666666666666667
 40
0.5777777777777778
 40
0.5777777777777778
 40
0.5777777777777778
 40
0.5888888888888889
 40
0.5888888888888889
 40
0.5888888888888889
 40
0.6
 40
0.6
 40
0.6
 40
0.6111111111111112
 40
0.6111111111111112
 40
0.6111111111111112
 40
0.6222222222222222
 40
0.6222222222222222
 40
0.6222222222222222
 40
0.6333333333333333
 40
0.6333333333333333
 40
0.6333333333333333
 40
0.6444444444444445
 40
0.6444444444444445
 40
0.6444444444444445
 40
0.6555555555555556
 40
0.6555555555555556
 40
0.6555555555555556
 40
0.6666666666666667
 40
0.6666666666666667
 40
0.6666666666666667
 40
0.6777777777777778
 40
0.6777777777777778
 40
0.6777777777777778
 40
0.6888888888888889
 40
0.6888888888888889
 40
0.6888888888888889
 40
0.7000000000000001
 40
0.7000000000000001
 40
0.7000000000000001
 40
0.7111111111111111
 40
0.7111111111111111
 40
0.7111111111111111
 40
0.7222222222222222
 40
0.7222222222222222
 40
0.7222222222222222
 40
0.7333333333333334
 40
0.7333333333333334
 40
0.7333333333333334
 40
0.7444444444444445
 40
0.7444444444444445
 40
0.7444444444444445
 40
0.7555555555555555
 40
0.7555555555555555
 40
0.7555555555555555
 40
0.7666666666666667
 40
0.7666666666666667
 40
0.7666666666666667
 40
0.7777777777777778
 40
0.7777777777777778
 40
0.7777777777777778
 40
0.788888888888889
 40
0.788888888888889
 40
0.788888888888889
 40
0.8
 40
0.8
 40
0.8
 40
0.8111111111111111
 40
0.8111111111111111
 40
0.8111111111111111
 40
0.8222222222222223
 40
0.8222222222222223
 40
0.8222222222222223
 40
0.8333333333333334
 40
0.8333333333333334
 40
0.8333333333333334
 40
0.8444444444444444
 40
0.8444444444444444
 40
0.8444444444444444
 40
0.8555555555555556
 40
0.8555555555555556
 40
0.8555555555555556
 40
0.8666666666666667
 40
0.8666666666666667
 40
0.8666666666666667
 40
0.8777777777777778
 40
0.8777777777777778
 40
0.8777777777777778
 40
0.888888888888889
 40
0.888888888888889
 40
0.888888888888889
 40
0.9
 40
0.9
 40
0.9
 40
0.9111111111111111
 40
0.9111111111111111
 40
0.9111111111111111
 40
0.9222222222222223
 40
0.9222222222222223
 40
0.9222222222222223
 40
0.9333333333333333
 40
0.9333333333333333
 40
0.9333333333333333
 40
0.9444444444444445
 40
0.9444444444444445
 40
0.9444444444444445
 40
0.9555555555555556
 40
0.9555555555555556
 40
0.9555555555555556
 40
0.9666666666666667
 40
0.9666666666666667
 40
0.9666666666666667
 40
0.9777777777777779
 40
0.9777777777777779
 40
0.9777777777777779
 40
0.9888888888888889
 40
0.9888888888888889
 40
0.9888888888888889
 40
1.0
 40
1.0
 40
1.0
 40
1.0
 10
3.72813
 20
18.99182
 30
0.0
 10
3.65094
 20
18.97164
 30
0.0
 10
3.46792
 20
18.86688
 30
0.0
 10
3.40724
 20
18.82621
 30
0.0
 10
3.36854
 20
18.80025
 30
0.0
 10
3.34313
 20
18.77918
 30
0.0
 10
3.31142
 20
18.75086
 30
0.0
 10
3.21232
 20
18.66241
 30
0.0
 10
3.14745
 20
18.6188
 30
0.0
 10
3.0698
 20
18.50511
 30
0.0
 10
3.01867
 20
18.50946
 30
0.0
 10
2.9743
 20
18.5315
 30
0.0
 10
2.92671
 20
18.55344
 30
0.0
 10
2.92671
 20
18.55344
 30
0.0
 10
2.52249
 20
18.66732
 30
0.0
 10
2.52249
 20
18.66732
 30
0.0
 10
2.37565
 20
18.69345
 30
0.0
 10
1.9716
 20
18.67263
 30
0.0
 10
1.85483
 20
18.6367
 30
0.0
 10
1.82096
 20
18.61486
 30
0.0
 10
1.71
 20
18.5945
 30
0.0
 10
1.65671
 20
18.55716
 30
0.0
 10
1.61668
 20
18.53664
 30
0.0
 10
1.58376
 20
18.53048
 30
0.0
 10
1.54883
 20
18.51373
 30
0.0
 10
1.42439
 20
18.45405
 30
0.0
 10
1.34855
 20
18.37797
 30
0.0
 10
1.24424
 20
18.29132
 30
0.0
 10
1.13732
 20
18.20251
 30
0.0
 10
1.17702
 20
18.21304
 30
0.0
 10
1.12281
 20
18.1479
 30
0.0
 10
1.10293
 20
18.12402
 30
0.0
 10
1.07861
 20
18.10012
 30
0.0
 10
1.06317
 20
18.08222
 30
0.0
 10
1.06317
 20
18.08222
 30
0.0
 10
1.01
 20
17.96266
 30
0.0
 10
1.01
 20
17.96266
 30
0.0
 10
0.99132
 20
17.9123
 30
0.0
 10
0.9826
 20
17.89526
 30
0.0
 10
0.94893
 20
17.86192
 30
0.0
 10
0.94893
 20
17.86192
 30
0.0
 10
-0.45376
 20
17.85911
 30
0.0
 10
-0.45376
 20
17.85911
 30
0.0
 10
-0.67358
 20
17.8582
 30
0.0
 10
-0.94491
 20
17.87472
 30
0.0
 10
-1.15513
 20
17.86134
 30
0.0
 10
-1.35567
 20
17.84859
 30
0.0
 10
-1.65121
 20
17.8545
 30
0.0
 10
-1.85648
 20
17.8595
 30
0.0
 10
-2.32621
 20
17.87091
 30
0.0
 10
-2.79091
 20
17.84934
 30
0.0
 10
-3.25919
 20
17.86363
 30
0.0
 10
-3.48743
 20
17.8706
 30
0.0
 10
-3.73035
 20
17.85359
 30
0.0
 10
-3.96054
 20
17.85916
 30
0.0
 10
-4.64174
 20
17.85498
 30
0.0
 10
-5.31415
 20
17.86778
 30
0.0
 10
-5.99205
 20
17.8661
 30
0.0
 10
-6.02053
 20
17.63754
 30
0.0
 10
-5.97112
 20
15.75109
 30
0.0
 10
-5.99808
 20
15.58775
 30
0.0
 10
-5.99808
 20
15.58775
 30
0.0
 10
-6.00102
 20
14.12108
 30
0.0
 10
-6.00102
 20
14.12108
 30
0.0
 10
-5.99338
 20
14.04426
 30
0.0
 10
-5.99682
 20
13.95659
 30
0.0
 10
-5.99735
 20
13.87557
 30
0.0
 10
-6.0018
 20
13.2038
 30
0.0
 10
-6.00352
 20
12.52279
 30
0.0
 10
-5.99757
 20
11.8509
 30
0.0
 10
-5.99358
 20
11.40036
 30
0.0
 10
-6.01067
 20
10.7524
 30
0.0
 10
-5.99238
 20
10.32909
 30
0.0
 10
-5.98714
 20
10.20776
 30
0.0
 10
-6.0166
 20
9.93999
 30
0.0
 10
-5.99064
 20
9.83809
 30
0.0
 10
-6.0019
 20
9.62505
 30
0.0
 10
-5.99962
 20
9.40341
 30
0.0
 10
-5.99755
 20
9.19105
 30
0.0
 10
-5.9916
 20
8.57927
 30
0.0
 10
-6.01815
 20
7.87446
 30
0.0
 10
-5.99732
 20
7.28548
 30
0.0
 10
-5.97673
 20
6.70391
 30
0.0
 10
-6.00582
 20
5.9823
 30
0.0
 10
-5.99796
 20
5.37992
 30
0.0
 10
-5.99796
 20
5.37992
 30
0.0
 10
-6.0063
 20
4.74479
 30
0.0
 10
-6.0063
 20
4.74479
 30
0.0
 10
-5.98305
 20
4.50399
 30
0.0
 10
-5.9833
 20
4.37537
 30
0.0
 10
-5.9958
 20
4.136
 30
0.0
 10
-6.00038
 20
4.04857
 30
0.0
 10
-5.98875
 20
3.99082
 30
0.0
 10
-5.9913
 20
3.91104
 30
0.0
 10
-5.9913
 20
3.91104
 30
0.0
 10
-5.99102
 20
1.36244
 30
0.0
 10
-5.99102
 20
1.36244
 30
0.0
 10
-5.99102
 20
1.36244
 30
0.0
 10
-4.59573
 20
1.36419
 30
0.0
 10
-4.59573
 20
1.36419
 30
0.0
 10
-4.14519
 20
1.36779
 30
0.0
 10
-3.69615
 20
1.36205
 30
0.0
 10
-3.24595
 20
1.36393
 30
0.0
 10
-3.24595
 20
1.36393
 30
0.0
 10
-0.71844
 20
1.36405
 30
0.0
 10
-0.71844
 20
1.36405
 30
0.0
 10
-0.61289
 20
1.36391
 30
0.0
 10
-0.59692
 20
1.3707
 30
0.0
 10
-0.55037
 20
1.3482
 30
0.0
 10
-0.55037
 20
1.3482
 30
0.0
 10
-0.26555
 20
1.31693
 30
0.0
 10
-0.26555
 20
1.31693
 30
0.0
 10
-0.14741
 20
1.30625
 30
0.0
 10
0.08529
 20
1.24372
 30
0.0
 10
0.1886
 20
1.20351
 30
0.0
 10
0.24812
 20
1.18034
 30
0.0
 10
0.53681
 20
1.06886
 30
0.0
 10
0.56818
 20
1.02478
 30
0.0
 10
0.57285
 20
1.0238
 30
0.0
 10
0.5799
 20
1.02784
 30
0.0
 10
0.58225
 20
1.02195
 30
0.0
 10
0.58445
 20
1.01647
 30
0.0
 10
0.59239
 20
1.01973
 30
0.0
 10
0.59512
 20
1.01826
 30
0.0
 10
0.61512
 20
1.0076
 30
0.0
 10
0.60947
 20
1.01095
 30
0.0
 10
0.62116
 20
0.99894
 30
0.0
 10
0.62116
 20
0.99894
 30
0.0
 10
0.77482
 20
0.90284
 30
0.0
 10
0.77482
 20
0.90284
 30
0.0
 10
0.93743
 20
0.84513
 30
0.0
 10
1.06862
 20
0.63604
 30
0.0
 10
1.16636
 20
0.64936
 30
0.0
 10
1.51254
 20
0.69656
 30
0.0
 10
1.91856
 20
0.76631
 30
0.0
 10
2.25984
 20
0.84896
 30
0.0
 10
2.25984
 20
0.84896
 30
0.0
 10
2.79426
 20
0.96761
 30
0.0
 10
2.79426
 20
0.96761
 30
0.0
 10
2.8243
 20
0.99727
 30
0.0
 10
3.25295
 20
1.10729
 30
0.0
 10
3.33355
 20
1.13233
 30
0.0
 10
3.33355
 20
1.13233
 30
0.0
 10
3.87219
 20
1.31866
 30
0.0
 10
3.87219
 20
1.31866
 30
0.0
 10
3.89165
 20
1.33903
 30
0.0
 10
4.24827
 20
1.47002
 30
0.0
 10
4.32226
 20
1.50561
 30
0.0
 10
5.34557
 20
1.99784
 30
0.0
 10
6.23949
 20
2.56483
 30
0.0
 10
6.72902
 20
3.66824
 30
0.0
 10
6.90079
 20
4.03643
 30
0.0
 10
7.03433
 20
4.74617
 30
0.0
 10
6.92702
 20
5.21399
 30
0.0
 10
6.9138
 20
5.27167
 30
0.0
 10
6.90525
 20
5.34305
 30
0.0
 10
6.89356
 20
5.4071
 30
0.0
 10
6.88229
 20
5.46874
 30
0.0
 10
6.86145
 20
5.53267
 30
0.0
 10
6.8457
 20
5.58304
 30
0.0
 10
6.66161
 20
6.17181
 30
0.0
 10
6.41887
 20
6.36477
 30
0.0
 10
6.37356
 20
6.46166
 30
0.0
 10
6.32523
 20
6.48756
 30
0.0
 10
6.01958
 20
6.866
 30
0.0
 10
5.54932
 20
7.06775
 30
0.0
 10
5.5136
 20
7.08308
 30
0.0
 10
5.43878
 20
7.10201
 30
0.0
 10
5.42173
 20
7.13335
 30
0.0
 10
5.34668
 20
7.1411
 30
0.0
 10
5.19091
 20
7.20262
 30
0.0
 10
5.1067
 20
7.22397
 30
0.0
 10
5.05559
 20
7.23692
 30
0.0
 10
4.81138
 20
7.2825
 30
0.0
 10
4.78503
 20
7.29419
 30
0.0
 10
4.80473
 20
7.33506
 30
0.0
 10
5.09723
 20
7.51888
 30
0.0
 10
5.13419
 20
7.54658
 30
0.0
 10
5.25552
 20
7.63749
 30
0.0
 10
5.36281
 20
7.71843
 30
0.0
 10
5.4779
 20
7.81197
 30
0.0
 10
5.78365
 20
8.06045
 30
0.0
 10
6.13225
 20
8.39778
 30
0.0
 10
6.37262
 20
8.72896
 30
0.0
 10
6.57356
 20
9.00579
 30
0.0
 10
6.80652
 20
9.38389
 30
0.0
 10
6.90222
 20
9.71916
 30
0.0
 10
6.97585
 20
9.97722
 30
0.0
 10
7.02613
 20
10.21603
 30
0.0
 10
7.02533
 20
10.48786
 30
0.0
 10
7.02503
 20
10.59104
 30
0.0
 10
7.00951
 20
10.6648
 30
0.0
 10
7.00361
 20
10.75311
 30
0.0
 10
6.99265
 20
10.91714
 30
0.0
 10
6.95315
 20
11.06487
 30
0.0
 10
6.90645
 20
11.22128
 30
0.0
 10
6.83524
 20
11.45968
 30
0.0
 10
6.60242
 20
11.87335
 30
0.0
 10
6.43922
 20
12.02047
 30
0.0
 10
6.39555
 20
12.05982
 30
0.0
 10
6.35441
 20
12.10468
 30
0.0
 10
6.31029
 20
12.14371
 30
0.0
 10
6.24973
 20
12.19729
 30
0.0
 10
6.20687
 20
12.21771
 30
0.0
 10
6.17711
 20
12.26831
 30
0.0
 10
6.14091
 20
12.27815
 30
0.0
 10
6.16501
 20
12.27004
 30
0.0
 10
6.12857
 20
12.29296
 30
0.0
 10
5.59033
 20
12.6312
 30
0.0
 10
5.47426
 20
12.54512
 30
0.0
 10
5.27608
 20
12.63165
 30
0.0
 10
5.27942
 20
12.69737
 30
0.0
 10
5.29674
 20
12.66355
 30
0.0
 10
5.39455
 20
12.77754
 30
0.0
 10
5.78206
 20
13.22919
 30
0.0
 10
6.0796
 20
13.80891
 30
0.0
 10
5.98074
 20
14.42543
 30
0.0
 10
5.93462
 20
14.7131
 30
0.0
 10
5.76747
 20
15.07223
 30
0.0
 10
5.55822
 20
15.25598
 30
0.0
 10
5.50721
 20
15.30077
 30
0.0
 10
5.47139
 20
15.3277
 30
0.0
 10
5.43489
 20
15.37015
 30
0.0
 10
5.3951
 20
15.38344
 30
0.0
 10
5.32236
 20
15.41924
 30
0.0
 10
5.30596
 20
15.45833
 30
0.0
 10
5.25684
 20
15.46898
 30
0.0
 10
5.11164
 20
15.54819
 30
0.0
 10
5.04445
 20
15.57274
 30
0.0
 10
5.04445
 20
15.57274
 30
0.0
 10
4.73932
 20
15.6488
 30
0.0
 10
4.73932
 20
15.6488
 30
0.0
 10
4.7598
 20
15.69853
 30
0.0
 10
4.74429
 20
15.66455
 30
0.0
 10
4.7826
 20
15.70705
 30
0.0
 10
4.79886
 20
15.72507
 30
0.0
 10
4.80539
 20
15.73326
 30
0.0
 10
4.81963
 20
15.74794
 30
0.0
 10
4.84478
 20
15.77386
 30
0.0
 10
4.86766
 20
15.79868
 30
0.0
 10
4.89629
 20
15.83085
 30
0.0
 10
5.17364
 20
16.14258
 30
0.0
 10
5.36077
 20
16.40793
 30
0.0
 10
5.53122
 20
16.79457
 30
0.0
 10
5.5802
 20
16.90567
 30
0.0
 10
5.65866
 20
17.13196
 30
0.0
 10
5.67187
 20
17.27791
 30
0.0
 10
5.67321
 20
17.4084
 30
0.0
 10
5.70286
 20
17.5131
 30
0.0
 10
5.69431
 20
17.64697
 30
0.0
 10
5.67768
 20
17.90717
 30
0.0
 10
5.65797
 20
18.03565
 30
0.0
 10
5.55274
 20
18.26693
 30
0.0
 10
5.44966
 20
18.49361
 30
0.0
 10
5.25687
 20
18.71391
 30
0.0
 10
5.05254
 20
18.85306
 30
0.0
 10
4.91089
 20
18.94951
 30
0.0
 10
4.85247
 20
18.97342
 30
0.0
 10
4.69914
 20
19.02778
 30
0.0
 10
4.59767
 20
19.06376
 30
0.0
 10
4.49128
 20
19.08699
 30
0.0
 10
4.38211
 20
19.0946
 30
0.0
 10
4.33542
 20
19.09787
 30
0.0
 10
4.24219
 20
19.10668
 30
0.0
 10
4.19391
 20
19.10076
 30
0.0
 10
4.14237
 20
19.09443
 30
0.0
 10
4.08357
 20
19.08491
 30
0.0
 10
4.02196
 20
19.07613
 30
0.0
 10
3.87882
 20
19.05573
 30
0.0
 10
3.85992
 20
19.03433
 30
0.0
 10
3.72813
 20
18.99182
 30
0.0
  0
SPLINE
  5
A5
330
1F
100
AcDbEntity
  8
Layer 1
370
     9
100
AcDbSpline
210
0.0
220
0.0
230
1.0
 70
    11
 71
     3
 72
    14
 73
    10
 74
     0
 42
0.0000000001
 43
0.0000000001
 40
0.0
 40
0.0
 40
0.0
 40
0.0
 40
0.3333333333333333
 40
0.3333333333333333
 40
0.3333333333333333
 40
0.6666666666666666
 40
0.6666666666666666
 40
0.6666666666666666
 40
1.0
 40
1.0
 40
1.0
 40
1.0
 10
5.14384
 20
3.47012
 30
0.0
 10
5.14384
 20
3.47012
 30
0.0
 10
5.68777
 20
3.30444
 30
0.0
 10
5.68777
 20
3.30444
 30
0.0
 10
5.7385
 20
3.38678
 30
0.0
 10
5.77668
 20
3.54269
 30
0.0
 10
5.73048
 20
3.64458
 30
0.0
 10
5.58547
 20
3.96442
 30
0.0
 10
5.14207
 20
3.82338
 30
0.0
 10
5.14384
 20
3.47012
 30
0.0
  0
LWPOLYLINE
  5
A6
330
1F
100
AcDbEntity
  8
Layer 1
370
     9
100
AcDbPolyline
 90
        5
 70
     1
 43
0.0
 10
-7.03952
 20
-19.11298
 10
6.47188
 20
-19.11298
 10
6.47188
 20
0.3671
 10
-7.03952
 20
0.3671
 10
-7.03952
 20
-19.11298
  0
ENDSEC
  0
SECTION
  2
OBJECTS
  0
DICTIONARY
  5
C
330
0
100
AcDbDictionary
281
     1
  3
ACAD_DETAILVIEWSTYLE
350
AE
  3
ACAD_GROUP
350
D
  3
ACAD_LAYOUT
350
1A
  3
ACAD_MATERIAL
350
43
  3
ACAD_MLEADERSTYLE
350
5B
  3
ACAD_MLINESTYLE
350
17
  3
ACAD_PLOTSETTINGS
350
19
  3
ACAD_PLOTSTYLENAME
350
E
  3
ACAD_SCALELIST
350
47
  3
ACAD_SECTIONVIEWSTYLE
350
AF
  3
ACAD_TABLESTYLE
350
59
  3
ACAD_VISUALSTYLE
350
2A
  3
ACDB_RECOMPOSE_DATA
350
AB
  3
AcDbVariableDictionary
350
A7
  0
SUN
  5
5D
330
29
100
AcDbSun
 90
        1
290
     0
 63
     7
421
 16777215
 40
1.0
291
     1
 91
  2455826
 92
 54000000
292
     0
 70
     2
 71
   256
280
     1
  0
DICTIONARY
  5
AE
102
{ACAD_REACTORS
330
C
102
}
330
C
100
AcDbDictionary
281
     1
  0
DICTIONARY
  5
D
102
{ACAD_REACTORS
330
C
102
}
330
C
100
AcDbDictionary
281
     1
  0
DICTIONARY
  5
1A
102
{ACAD_REACTORS
330
C
102
}
330
C
100
AcDbDictionary
281
     1
  3
Layout1
350
1E
  3
Layout2
350
26
  3
Model
350
22
  0
DICTIONARY
  5
43
102
{ACAD_REACTORS
330
C
102
}
330
C
100
AcDbDictionary
281
     1
  3
ByBlock
350
45
  3
ByLayer
350
44
  3
Global
350
46
  0
DICTIONARY
  5
5B
102
{ACAD_REACTORS
330
C
102
}
330
C
100
AcDbDictionary
281
     1
  3
Standard
350
5C
  0
DICTIONARY
  5
17
102
{ACAD_REACTORS
330
C
102
}
330
C
100
AcDbDictionary
281
     1
  3
Standard
350
18
  0
DICTIONARY
  5
19
102
{ACAD_REACTORS
330
C
102
}
330
C
100
AcDbDictionary
281
     1
  0
ACDBDICTIONARYWDFLT
  5
E
102
{ACAD_REACTORS
330
C
102
}
330
C
100
AcDbDictionary
281
     1
  3
Normal
350
F
100
AcDbDictionaryWithDefault
340
F
  0
DICTIONARY
  5
47
102
{ACAD_REACTORS
330
C
102
}
330
C
100
AcDbDictionary
281
     1
  3
A0
350
48
  3
A1
350
49
  3
A2
350
4A
  3
A3
350
4B
  3
A4
350
4C
  3
A5
350
4D
  3
A6
350
4E
  3
A7
350
4F
  3
A8
350
50
  3
A9
350
51
  3
B1
350
52
  3
B2
350
53
  3
B3
350
54
  3
B4
350
55
  3
B5
350
56
  3
B6
350
57
  3
B7
350
58
  0
DICTIONARY
  5
AF
102
{ACAD_REACTORS
330
C
102
}
330
C
100
AcDbDictionary
281
     1
  0
DICTIONARY
  5
59
102
{ACAD_REACTORS
330
C
102
}
330
C
100
AcDbDictionary
281
     1
  3
Standard
350
5A
  0
DICTIONARY
  5
2A
102
{ACAD_REACTORS
330
C
102
}
330
C
100
AcDbDictionary
281
     1
  3
2dWireframe
350
2F
  3
Basic
350
32
  3
Brighten
350
36
  3
ColorChange
350
3A
  3
Conceptual
350
34
  3
Dim
350
35
  3
EdgeColorOff
350
3D
  3
Facepattern
350
39
  3
Flat
350
2B
  3
FlatWithEdges
350
2C
  3
Gouraud
350
2D
  3
GouraudWithEdges
350
2E
  3
Hidden
350
31
  3
JitterOff
350
3B
  3
Linepattern
350
38
  3
OverhangOff
350
3C
  3
Realistic
350
33
  3
Shaded
350
42
  3
Shaded with edges
350
41
  3
Shades of Gray
350
3E
  3
Sketchy
350
3F
  3
Thicken
350
37
  3
Wireframe
350
30
  3
X-Ray
350
40
  0
XRECORD
  5
AB
102
{ACAD_REACTORS
330
C
102
}
330
C
100
AcDbXrecord
280
     1
 90
        1
330
5A
  0
DICTIONARY
  5
A7
102
{ACAD_REACTORS
330
C
102
}
330
C
100
AcDbDictionary
281
     1
  3
CANNOSCALE
350
A8
  3
CMLEADERSTYLE
350
AD
  3
CTABLESTYLE
350
AC
  0
LAYOUT
  5
1E
102
{ACAD_REACTORS
330
1A
102
}
330
1A
100
AcDbPlotSettings
  1

  2
none_device
  4

  6

 40
0.0
 41
0.0
 42
0.0
 43
0.0
 44
0.0
 45
0.0
 46
0.0
 47
0.0
 48
0.0
 49
0.0
140
0.0
141
0.0
142
1.0
143
1.0
 70
   688
 72
     0
 73
     0
 74
     5
  7

 75
    16
 76
     0
 77
     2
 78
   300
147
1.0
148
0.0
149
0.0
100
AcDbLayout
  1
Layout1
 70
     1
 71
     1
 10
0.0
 20
0.0
 11
12.0
 21
9.0
 12
0.0
 22
0.0
 32
0.0
 14
1.000000000000000E+20
 24
1.000000000000000E+20
 34
1.000000000000000E+20
 15
-1.000000000000000E+20
 25
-1.000000000000000E+20
 35
-1.000000000000000E+20
146
0.0
 13
0.0
 23
0.0
 33
0.0
 16
1.0
 26
0.0
 36
0.0
 17
0.0
 27
1.0
 37
0.0
 76
     0
330
1B
  0
LAYOUT
  5
26
102
{ACAD_REACTORS
330
1A
102
}
330
1A
100
AcDbPlotSettings
  1

  2
none_device
  4

  6

 40
0.0
 41
0.0
 42
0.0
 43
0.0
 44
0.0
 45
0.0
 46
0.0
 47
0.0
 48
0.0
 49
0.0
140
0.0
141
0.0
142
1.0
143
1.0
 70
   688
 72
     0
 73
     0
 74
     5
  7

 75
    16
 76
     0
 77
     2
 78
   300
147
1.0
148
0.0
149
0.0
100
AcDbLayout
  1
Layout2
 70
     1
 71
     2
 10
0.0
 20
0.0
 11
0.0
 21
0.0
 12
0.0
 22
0.0
 32
0.0
 14
0.0
 24
0.0
 34
0.0
 15
0.0
 25
0.0
 35
0.0
146
0.0
 13
0.0
 23
0.0
 33
0.0
 16
1.0
 26
0.0
 36
0.0
 17
0.0
 27
1.0
 37
0.0
 76
     0
330
23
  0
LAYOUT
  5
22
102
{ACAD_REACTORS
330
1A
102
}
330
1A
100
AcDbPlotSettings
  1

  2
none_device
  4
Letter_(8.50_x_11.00_Inches)
  6

 40
6.35
 41
6.35
 42
6.35000508
 43
6.35000508
 44
215.9
 45
279.4
 46
0.0
 47
0.0
 48
0.0
 49
0.0
140
0.0
141
0.0
142
1.0
143
1.0
 70
  1712
 72
     0
 73
     0
 74
     0
  7

 75
     0
 76
     0
 77
     2
 78
   300
147
1.0
148
0.0
149
0.0
100
AcDbLayout
  1
Model
 70
     1
 71
     0
 10
0.0
 20
0.0
 11
12.0
 21
9.0
 12
0.0
 22
0.0
 32
0.0
 14
-7.04333
 24
-19.1168
 34
0.0
 15
7.02914
 25
19.10656
 35
0.0
146
0.0
 13
0.0
 23
0.0
 33
0.0
 16
1.0
 26
0.0
 36
0.0
 17
0.0
 27
1.0
 37
0.0
 76
     0
330
1F
331
29
  0
MATERIAL
  5
45
102
{ACAD_REACTORS
330
43
102
}
330
43
100
AcDbMaterial
  1
ByBlock
 72
     1
 94
      127
  0
MATERIAL
  5
44
102
{ACAD_REACTORS
330
43
102
}
330
43
100
AcDbMaterial
  1
ByLayer
 72
     1
 94
      127
  0
MATERIAL
  5
46
102
{ACAD_REACTORS
330
43
102
}
330
43
100
AcDbMaterial
  1
Global
 72
     1
 94
      127
  0
MLEADERSTYLE
  5
5C
102
{ACAD_REACTORS
330
5B
102
}
330
5B
100
AcDbMLeaderStyle
179
     2
170
     2
171
     1
172
     0
 90
        2
 40
0.0
 41
0.0
173
     1
 91
-1056964608
340
14
 92
       -2
290
     1
 42
0.09
291
     1
 43
0.36
  3
Standard
341
0
 44
0.18
300

342
11
174
     1
178
     6
175
     1
176
     0
 93
-1056964608
 45
0.18
292
     0
297
     0
 46
0.18
343
0
 94
-1056964608
 47
1.0
 49
1.0
140
1.0
293
     1
141
0.0
294
     1
177
     0
142
1.0
295
     0
296
     0
143
0.125
271
     0
272
     9
273
     9
298
     0
  0
MLINESTYLE
  5
18
102
{ACAD_REACTORS
330
17
102
}
330
17
100
AcDbMlineStyle
  2
Standard
 70
     0
  3

 62
   256
 51
90.0
 52
90.0
 71
     2
 49
0.5
 62
   256
  6
BYLAYER
 49
-0.5
 62
   256
  6
BYLAYER
  0
ACDBPLACEHOLDER
  5
F
102
{ACAD_REACTORS
330
E
102
}
330
E
  0
SCALE
  5
48
102
{ACAD_REACTORS
330
47
102
}
330
47
100
AcDbScale
 70
     0
300
1:1
140
1.0
141
1.0
290
     1
  0
SCALE
  5
49
102
{ACAD_REACTORS
330
47
102
}
330
47
100
AcDbScale
 70
     0
300
1/128" = 1'-0"
140
0.0078125
141
12.0
290
     0
  0
SCALE
  5
4A
102
{ACAD_REACTORS
330
47
102
}
330
47
100
AcDbScale
 70
     0
300
1/64" = 1'-0"
140
0.015625
141
12.0
290
     0
  0
SCALE
  5
4B
102
{ACAD_REACTORS
330
47
102
}
330
47
100
AcDbScale
 70
     0
300
1/32" = 1'-0"
140
0.03125
141
12.0
290
     0
  0
SCALE
  5
4C
102
{ACAD_REACTORS
330
47
102
}
330
47
100
AcDbScale
 70
     0
300
1/16" = 1'-0"
140
0.0625
141
12.0
290
     0
  0
SCALE
  5
4D
102
{ACAD_REACTORS
330
47
102
}
330
47
100
AcDbScale
 70
     0
300
3/32" = 1'-0"
140
0.09375
141
12.0
290
     0
  0
SCALE
  5
4E
102
{ACAD_REACTORS
330
47
102
}
330
47
100
AcDbScale
 70
     0
300
1/8" = 1'-0"
140
0.125
141
12.0
290
     0
  0
SCALE
  5
4F
102
{ACAD_REACTORS
330
47
102
}
330
47
100
AcDbScale
 70
     0
300
3/16" = 1'-0"
140
0.1875
141
12.0
290
     0
  0
SCALE
  5
50
102
{ACAD_REACTORS
330
47
102
}
330
47
100
AcDbScale
 70
     0
300
1/4" = 1'-0"
140
0.25
141
12.0
290
     0
  0
SCALE
  5
51
102
{ACAD_REACTORS
330
47
102
}
330
47
100
AcDbScale
 70
     0
300
3/8" = 1'-0"
140
0.375
141
12.0
290
     0
  0
SCALE
  5
52
102
{ACAD_REACTORS
330
47
102
}
330
47
100
AcDbScale
 70
     0
300
1/2" = 1'-0"
140
0.5
141
12.0
290
     0
  0
SCALE
  5
53
102
{ACAD_REACTORS
330
47
102
}
330
47
100
AcDbScale
 70
     0
300
3/4" = 1'-0"
140
0.75
141
12.0
290
     0
  0
SCALE
  5
54
102
{ACAD_REACTORS
330
47
102
}
330
47
100
AcDbScale
 70
     0
300
1" = 1'-0"
140
1.0
141
12.0
290
     0
  0
SCALE
  5
55
102
{ACAD_REACTORS
330
47
102
}
330
47
100
AcDbScale
 70
     0
300
1-1/2" = 1'-0"
140
1.5
141
12.0
290
     0
  0
SCALE
  5
56
102
{ACAD_REACTORS
330
47
102
}
330
47
100
AcDbScale
 70
     0
300
3" = 1'-0"
140
3.0
141
12.0
290
     0
  0
SCALE
  5
57
102
{ACAD_REACTORS
330
47
102
}
330
47
100
AcDbScale
 70
     0
300
6" = 1'-0"
140
6.0
141
12.0
290
     0
  0
SCALE
  5
58
102
{ACAD_REACTORS
330
47
102
}
330
47
100
AcDbScale
 70
     0
300
1'-0" = 1'-0"
140
12.0
141
12.0
290
     0
  0
TABLESTYLE
  5
5A
102
{ACAD_REACTORS
330
59
102
}
102
{ACAD_XDICTIONARY
360
A9
102
}
330
59
100
AcDbTableStyle
  3
Standard
 70
     0
 71
     0
 40
0.06
 41
0.06
280
     0
281
     0
  7
Standard
140
0.18
170
     2
 62
     0
 63
   257
283
     0
 90
        4
 91
        0
  1

274
    -2
284
     1
 64
     0
275
    -2
285
     1
 65
     0
276
    -2
286
     1
 66
     0
277
    -2
287
     1
 67
     0
278
    -2
288
     1
 68
     0
279
    -2
289
     1
 69
     0
  7
Standard
140
0.25
170
     5
 62
     0
 63
   257
283
     0
 90
        4
 91
        0
  1

274
    -2
284
     1
 64
     0
275
    -2
285
     1
 65
     0
276
    -2
286
     1
 66
     0
277
    -2
287
     1
 67
     0
278
    -2
288
     1
 68
     0
279
    -2
289
     1
 69
     0
  7
Standard
140
0.18
170
     5
 62
     0
 63
   257
283
     0
 90
        4
 91
        0
  1

274
    -2
284
     1
 64
     0
275
    -2
285
     1
 65
     0
276
    -2
286
     1
 66
     0
277
    -2
287
     1
 67
     0
278
    -2
288
     1
 68
     0
279
    -2
289
     1
 69
     0
  0
VISUALSTYLE
  5
2F
102
{ACAD_REACTORS
330
2A
102
}
330
2A
100
AcDbVisualStyle
  2
2dWireframe
 70
     4
177
     3
291
     0
 70
    58
 90
        0
176
     1
 90
        2
176
     1
 90
        0
176
     1
 90
        0
176
     1
 40
0.6
176
     1
 40
30.0
176
     1
 62
     7
420
 16777215
176
     1
 90
        1
176
     1
 90
        4
176
     1
 62
     7
176
     1
 62
   257
176
     1
 90
        1
176
     1
 90
        1
176
     1
 40
1.0
176
     1
 90
        0
176
     1
 62
   257
176
     1
 40
1.0
176
     1
 90
        1
176
     1
 90
        6
176
     1
 90
        2
176
     1
 62
     7
176
     1
 90
        5
176
     1
 90
        0
176
     1
 90
        0
176
     1
290
     0
176
     1
 90
        1
176
     1
 40
0.0
176
     1
 90
        0
176
     1
290
     1
176
     1
290
     1
176
     1
290
     0
176
     1
290
     0
176
     1
290
     0
176
     1
290
     0
176
     1
290
     0
176
     1
290
     0
176
     1
290
     0
176
     1
 90
       50
176
     1
 40
0.0
176
     1
 40
1.0
176
     1
 90
        0
176
     1
 62
    18
420
        0
176
     1
 90
       50
176
     1
 90
        3
176
     1
 62
     5
420
      255
176
     1
290
     0
176
     1
 90
       50
176
     1
 90
       50
176
     1
 90
       50
176
     1
290
     0
176
     1
 90
       50
176
     1
 62
   256
176
     0
 40
1.0
176
     0
 90
        2
176
     1
  1
strokes_ogs.tif
176
     1
290
     0
176
     1
 40
1.0
176
     1
 40
1.0
176
     1
  0
VISUALSTYLE
  5
32
102
{ACAD_REACTORS
330
2A
102
}
330
2A
100
AcDbVisualStyle
  2
Basic
 70
     7
177
     3
291
     1
 70
    58
 90
        1
176
     1
 90
        0
176
     1
 90
        1
176
     1
 90
        0
176
     1
 40
0.6
176
     1
 40
30.0
176
     1
 62
     7
420
 16777215
176
     1
 90
        0
176
     1
 90
        4
176
     1
 62
     7
176
     1
 62
   257
176
     1
 90
        1
176
     1
 90
        1
176
     1
 40
1.0
176
     1
 90
        8
176
     1
 62
     7
176
     1
 40
1.0
176
     1
 90
        1
176
     1
 90
        6
176
     1
 90
        2
176
     1
 62
     7
176
     1
 90
        5
176
     1
 90
        0
176
     1
 90
        0
176
     1
290
     0
176
     1
 90
        1
176
     1
 40
0.0
176
     1
 90
        0
176
     1
290
     0
176
     1
290
     1
176
     1
290
     1
176
     1
290
     0
176
     1
290
     0
176
     1
290
     0
176
     1
290
     0
176
     1
290
     0
176
     1
290
     0
176
     1
 90
       50
176
     1
 40
0.0
176
     1
 40
1.0
176
     1
 90
        0
176
     1
 62
    18
420
        0
176
     1
 90
       50
176
     1
 90
        3
176
     1
 62
     5
420
      255
176
     1
290
     0
176
     1
 90
       50
176
     1
 90
       50
176
     1
 90
       50
176
     1
290
     0
176
     1
 90
       50
176
     1
 62
   256
176
     0
 40
1.0
176
     0
 90
        2
176
     1
  1
strokes_ogs.tif
176
     1
290
     0
176
     1
 40
1.0
176
     1
 40
1.0
176
     1
  0
VISUALSTYLE
  5
36
102
{ACAD_REACTORS
330
2A
102
}
330
2A
100
AcDbVisualStyle
  2
Brighten
 70
    12
177
     3
291
     1
 70
    58
 90
        2
176
     1
 90
        2
176
     1
 90
        0
176
     1
 90
        0
176
     1
 40
0.6
176
     1
 40
30.0
176
     1
 62
     7
420
 16777215
176
     1
 90
        1
176
     1
 90
        4
176
     1
 62
     7
176
     1
 62
   257
176
     1
 90
        1
176
     1
 90
        1
176
     1
 40
1.0
176
     1
 90
        8
176
     1
 62
     7
176
     1
 40
1.0
176
     1
 90
        1
176
     1
 90
        6
176
     1
 90
        2
176
     1
 62
     7
176
     1
 90
        5
176
     1
 90
        0
176
     1
 90
        0
176
     1
290
     0
176
     1
 90
        1
176
     1
 40
50.0
176
     1
 90
        0
176
     1
290
     0
176
     1
290
     1
176
     1
290
     1
176
     1
290
     0
176
     1
290
     0
176
     1
290
     0
176
     1
290
     0
176
     1
290
     0
176
     1
290
     0
176
     1
 90
       50
176
     1
 40
0.0
176
     1
 40
1.0
176
     1
 90
        0
176
     1
 62
    18
420
        0
176
     1
 90
       50
176
     1
 90
        3
176
     1
 62
     5
420
      255
176
     1
290
     0
176
     1
 90
       50
176
     1
 90
       50
176
     1
 90
       50
176
     1
290
     0
176
     1
 90
       50
176
     1
 62
   256
176
     0
 40
1.0
176
     0
 90
        2
176
     1
  1
strokes_ogs.tif
176
     1
290
     0
176
     1
 40
1.0
176
     1
 40
1.0
176
     1
  0
VISUALSTYLE
  5
3A
102
{ACAD_REACTORS
330
2A
102
}
330
2A
100
AcDbVisualStyle
  2
ColorChange
 70
    16
177
     3
291
     1
 70
    58
 90
        2
176
     1
 90
        2
176
     1
 90
        3
176
     1
 90
        0
176
     1
 40
0.6
176
     1
 40
30.0
176
     1
 62
     8
420
  8421504
176
     1
 90
        1
176
     1
 90
        4
176
     1
 62
     7
176
     1
 62
   257
176
     1
 90
        1
176
     1
 90
        1
176
     1
 40
1.0
176
     1
 90
        8
176
     1
 62
     8
420
  8421504
176
     1
 40
1.0
176
     1
 90
        1
176
     1
 90
        6
176
     1
 90
        2
176
     1
 62
     7
176
     1
 90
        5
176
     1
 90
        0
176
     1
 90
        0
176
     1
290
     0
176
     1
 90
        1
176
     1
 40
0.0
176
     1
 90
        0
176
     1
290
     0
176
     1
290
     1
176
     1
290
     1
176
     1
290
     0
176
     1
290
     0
176
     1
290
     0
176
     1
290
     0
176
     1
290
     0
176
     1
290
     0
176
     1
 90
       50
176
     1
 40
0.0
176
     1
 40
1.0
176
     1
 90
        0
176
     1
 62
    18
420
        0
176
     1
 90
       50
176
     1
 90
        3
176
     1
 62
     5
420
      255
176
     1
290
     0
176
     1
 90
       50
176
     1
 90
       50
176
     1
 90
       50
176
     1
290
     0
176
     1
 90
       50
176
     1
 62
   256
176
     0
 40
1.0
176
     0
 90
        2
176
     1
  1
strokes_ogs.tif
176
     1
290
     0
176
     1
 40
1.0
176
     1
 40
1.0
176
     1
  0
VISUALSTYLE
  5
34
102
{ACAD_REACTORS
330
2A
102
}
330
2A
100
AcDbVisualStyle
  2
Conceptual
 70
     9
177
     3
291
     0
 70
    58
 90
        3
176
     1
 90
        2
176
     1
 90
        0
176
     1
 90
        0
176
     1
 40
0.6
176
     1
 40
30.0
176
     1
 62
     7
420
 16777215
176
     1
 90
        2
176
     1
 90
        2
176
     1
 62
     7
176
     1
 62
   257
176
     1
 90
        1
176
     1
 90
        1
176
     1
 40
179.0
176
     1
 90
        8
176
     1
 62
     7
176
     1
 40
1.0
176
     1
 90
        1
176
     1
 90
        6
176
     1
 90
        2
176
     1
 62
     7
176
     1
 90
        3
176
     1
 90
        0
176
     1
 90
        0
176
     1
290
     0
176
     1
 90
        1
176
     1
 40
0.0
176
     1
 90
        0
176
     1
290
     0
176
     1
290
     1
176
     1
290
     1
176
     1
290
     0
176
     1
290
     0
176
     1
290
     0
176
     1
290
     0
176
     1
290
     0
176
     1
290
     0
176
     1
 90
       50
176
     1
 40
0.0
176
     1
 40
1.0
176
     1
 90
        0
176
     1
 62
    18
420
        0
176
     1
 90
       50
176
     1
 90
        3
176
     1
 62
     5
420
      255
176
     1
290
     0
176
     1
 90
       50
176
     1
 90
       50
176
     1
 90
       50
176
     1
290
     0
176
     1
 90
       50
176
     1
 62
   256
176
     0
 40
1.0
176
     0
 90
        2
176
     1
  1
strokes_ogs.tif
176
     1
290
     0
176
     1
 40
1.0
176
     1
 40
1.0
176
     1
  0
VISUALSTYLE
  5
35
102
{ACAD_REACTORS
330
2A
102
}
330
2A
100
AcDbVisualStyle
  2
Dim
 70
    11
177
     3
291
     1
 70
    58
 90
        2
176
     1
 90
        2
176
     1
 90
        0
176
     1
 90
        0
176
     1
 40
0.6
176
     1
 40
30.0
176
     1
 62
     7
420
 16777215
176
     1
 90
        1
176
     1
 90
        4
176
     1
 62
     7
176
     1
 62
   257
176
     1
 90
        1
176
     1
 90
        1
176
     1
 40
1.0
176
     1
 90
        8
176
     1
 62
     7
176
     1
 40
1.0
176
     1
 90
        1
176
     1
 90
        6
176
     1
 90
        2
176
     1
 62
     7
176
     1
 90
        5
176
     1
 90
        0
176
     1
 90
        0
176
     1
290
     0
176
     1
 90
        1
176
     1
 40
-50.0
176
     1
 90
        0
176
     1
290
     0
176
     1
290
     1
176
     1
290
     1
176
     1
290
     0
176
     1
290
     0
176
     1
290
     0
176
     1
290
     0
176
     1
290
     0
176
     1
290
     0
176
     1
 90
       50
176
     1
 40
0.0
176
     1
 40
1.0
176
     1
 90
        0
176
     1
 62
    18
420
        0
176
     1
 90
       50
176
     1
 90
        3
176
     1
 62
     5
420
      255
176
     1
290
     0
176
     1
 90
       50
176
     1
 90
       50
176
     1
 90
       50
176
     1
290
     0
176
     1
 90
       50
176
     1
 62
   256
176
     0
 40
1.0
176
     0
 90
        2
176
     1
  1
strokes_ogs.tif
176
     1
290
     0
176
     1
 40
1.0
176
     1
 40
1.0
176
     1
  0
VISUALSTYLE
  5
3D
102
{ACAD_REACTORS
330
2A
102
}
330
2A
100
AcDbVisualStyle
  2
EdgeColorOff
 70
    22
177
     3
291
     1
 70
    58
 90
        2
176
     0
 90
        2
176
     0
 90
        0
176
     0
 90
        0
176
     0
 40
0.6
176
     0
 40
30.0
176
     0
 62
     7
420
 16777215
176
     0
 90
        1
176
     0
 90
        4
176
     0
 62
     7
176
     0
 62
   257
176
     0
 90
        1
176
     0
 90
        1
176
     0
 40
1.0
176
     0
 90
        8
176
     2
 62
     7
176
     0
 40
1.0
176
     0
 90
        1
176
     0
 90
        6
176
     0
 90
        2
176
     0
 62
     7
176
     0
 90
        5
176
     0
 90
        0
176
     0
 90
        0
176
     0
290
     0
176
     0
 90
        1
176
     0
 40
0.0
176
     0
 90
        0
176
     0
290
     0
176
     0
290
     1
176
     0
290
     1
176
     0
290
     0
176
     0
290
     0
176
     0
290
     0
176
     0
290
     0
176
     0
290
     0
176
     0
290
     0
176
     0
 90
       50
176
     0
 40
0.0
176
     0
 40
1.0
176
     0
 90
        0
176
     0
 62
    18
420
        0
176
     0
 90
       50
176
     0
 90
        3
176
     0
 62
     5
420
      255
176
     0
290
     0
176
     0
 90
       50
176
     0
 90
       50
176
     0
 90
       50
176
     0
290
     0
176
     0
 90
       50
176
     0
 62
   256
176
     0
 40
1.0
176
     0
 90
        2
176
     0
  1
strokes_ogs.tif
176
     0
290
     0
176
     0
 40
1.0
176
     0
 40
1.0
176
     0
  0
VISUALSTYLE
  5
39
102
{ACAD_REACTORS
330
2A
102
}
330
2A
100
AcDbVisualStyle
  2
Facepattern
 70
    15
177
     3
291
     1
 70
    58
 90
        2
176
     1
 90
        2
176
     1
 90
        0
176
     1
 90
        0
176
     1
 40
0.6
176
     1
 40
30.0
176
     1
 62
     7
420
 16777215
176
     1
 90
        1
176
     1
 90
        4
176
     1
 62
     7
176
     1
 62
   257
176
     1
 90
        1
176
     1
 90
        1
176
     1
 40
1.0
176
     1
 90
        8
176
     1
 62
     7
176
     1
 40
1.0
176
     1
 90
        1
176
     1
 90
        6
176
     1
 90
        2
176
     1
 62
     7
176
     1
 90
        5
176
     1
 90
        0
176
     1
 90
        0
176
     1
290
     0
176
     1
 90
        1
176
     1
 40
0.0
176
     1
 90
        0
176
     1
290
     0
176
     1
290
     1
176
     1
290
     1
176
     1
290
     0
176
     1
290
     0
176
     1
290
     0
176
     1
290
     0
176
     1
290
     0
176
     1
290
     0
176
     1
 90
       50
176
     1
 40
0.0
176
     1
 40
1.0
176
     1
 90
        0
176
     1
 62
    18
420
        0
176
     1
 90
       50
176
     1
 90
        3
176
     1
 62
     5
420
      255
176
     1
290
     0
176
     1
 90
       50
176
     1
 90
       50
176
     1
 90
       50
176
     1
290
     0
176
     1
 90
       50
176
     1
 62
   256
176
     0
 40
1.0
176
     0
 90
        2
176
     1
  1
strokes_ogs.tif
176
     1
290
     0
176
     1
 40
1.0
176
     1
 40
1.0
176
     1
  0
VISUALSTYLE
  5
2B
102
{ACAD_REACTORS
330
2A
102
}
330
2A
100
AcDbVisualStyle
  2
Flat
 70
     0
177
     3
291
     1
 70
    58
 90
        2
176
     1
 90
        1
176
     1
 90
        1
176
     1
 90
        2
176
     1
 40
0.6
176
     1
 40
30.0
176
     1
 62
     7
420
 16777215
176
     1
 90
        0
176
     1
 90
        0
176
     1
 62
     7
176
     1
 62
   257
176
     1
 90
        1
176
     1
 90
        1
176
     1
 40
1.0
176
     1
 90
        8
176
     1
 62
     7
176
     1
 40
1.0
176
     1
 90
        1
176
     1
 90
        6
176
     1
 90
        2
176
     1
 62
     7
176
     1
 90
        5
176
     1
 90
        0
176
     1
 90
        0
176
     1
290
     0
176
     1
 90
       13
176
     1
 40
0.0
176
     1
 90
        0
176
     1
290
     0
176
     1
290
     1
176
     1
290
     1
176
     1
290
     0
176
     1
290
     0
176
     1
290
     0
176
     1
290
     0
176
     1
290
     0
176
     1
290
     0
176
     1
 90
       50
176
     1
 40
0.0
176
     1
 40
1.0
176
     1
 90
        0
176
     1
 62
    18
420
        0
176
     1
 90
       50
176
     1
 90
        3
176
     1
 62
     5
420
      255
176
     1
290
     0
176
     1
 90
       50
176
     1
 90
       50
176
     1
 90
       50
176
     1
290
     0
176
     1
 90
       50
176
     1
 62
   256
176
     0
 40
1.0
176
     0
 90
        2
176
     1
  1
strokes_ogs.tif
176
     1
290
     0
176
     1
 40
1.0
176
     1
 40
1.0
176
     1
  0
VISUALSTYLE
  5
2C
102
{ACAD_REACTORS
330
2A
102
}
330
2A
100
AcDbVisualStyle
  2
FlatWithEdges
 70
     1
177
     3
291
     1
 70
    58
 90
        2
176
     1
 90
        1
176
     1
 90
        1
176
     1
 90
        2
176
     1
 40
0.6
176
     1
 40
30.0
176
     1
 62
     7
420
 16777215
176
     1
 90
        1
176
     1
 90
        0
176
     1
 62
     7
176
     1
 62
   257
176
     1
 90
        1
176
     1
 90
        1
176
     1
 40
1.0
176
     1
 90
        0
176
     1
 62
   257
176
     1
 40
1.0
176
     1
 90
        1
176
     1
 90
        6
176
     1
 90
        2
176
     1
 62
     7
176
     1
 90
        5
176
     1
 90
        0
176
     1
 90
        0
176
     1
290
     0
176
     1
 90
       13
176
     1
 40
0.0
176
     1
 90
        0
176
     1
290
     0
176
     1
290
     1
176
     1
290
     1
176
     1
290
     0
176
     1
290
     0
176
     1
290
     0
176
     1
290
     0
176
     1
290
     0
176
     1
290
     0
176
     1
 90
       50
176
     1
 40
0.0
176
     1
 40
1.0
176
     1
 90
        0
176
     1
 62
    18
420
        0
176
     1
 90
       50
176
     1
 90
        3
176
     1
 62
     5
420
      255
176
     1
290
     0
176
     1
 90
       50
176
     1
 90
       50
176
     1
 90
       50
176
     1
290
     0
176
     1
 90
       50
176
     1
 62
   256
176
     0
 40
1.0
176
     0
 90
        2
176
     1
  1
strokes_ogs.tif
176
     1
290
     0
176
     1
 40
1.0
176
     1
 40
1.0
176
     1
  0
VISUALSTYLE
  5
2D
102
{ACAD_REACTORS
330
2A
102
}
330
2A
100
AcDbVisualStyle
  2
Gouraud
 70
     2
177
     3
291
     1
 70
    58
 90
        2
176
     1
 90
        2
176
     1
 90
        1
176
     1
 90
        2
176
     1
 40
0.6
176
     1
 40
30.0
176
     1
 62
     7
420
 16777215
176
     1
 90
        0
176
     1
 90
        0
176
     1
 62
     7
176
     1
 62
   257
176
     1
 90
        1
176
     1
 90
        1
176
     1
 40
1.0
176
     1
 90
        0
176
     1
 62
     7
176
     1
 40
1.0
176
     1
 90
        1
176
     1
 90
        6
176
     1
 90
        2
176
     1
 62
     7
176
     1
 90
        5
176
     1
 90
        0
176
     1
 90
        0
176
     1
290
     0
176
     1
 90
       13
176
     1
 40
0.0
176
     1
 90
        0
176
     1
290
     0
176
     1
290
     1
176
     1
290
     1
176
     1
290
     0
176
     1
290
     0
176
     1
290
     0
176
     1
290
     0
176
     1
290
     0
176
     1
290
     0
176
     1
 90
       50
176
     1
 40
0.0
176
     1
 40
1.0
176
     1
 90
        0
176
     1
 62
    18
420
        0
176
     1
 90
       50
176
     1
 90
        3
176
     1
 62
     5
420
      255
176
     1
290
     0
176
     1
 90
       50
176
     1
 90
       50
176
     1
 90
       50
176
     1
290
     0
176
     1
 90
       50
176
     1
 62
   256
176
     0
 40
1.0
176
     0
 90
        2
176
     1
  1
strokes_ogs.tif
176
     1
290
     0
176
     1
 40
1.0
176
     1
 40
1.0
176
     1
  0
VISUALSTYLE
  5
2E
102
{ACAD_REACTORS
330
2A
102
}
330
2A
100
AcDbVisualStyle
  2
GouraudWithEdges
 70
     3
177
     3
291
     1
 70
    58
 90
        2
176
     1
 90
        2
176
     1
 90
        1
176
     1
 90
        2
176
     1
 40
0.6
176
     1
 40
30.0
176
     1
 62
     7
420
 16777215
176
     1
 90
        1
176
     1
 90
        0
176
     1
 62
     7
176
     1
 62
   257
176
     1
 90
        1
176
     1
 90
        1
176
     1
 40
1.0
176
     1
 90
        0
176
     1
 62
   257
176
     1
 40
1.0
176
     1
 90
        1
176
     1
 90
        6
176
     1
 90
        2
176
     1
 62
     7
176
     1
 90
        5
176
     1
 90
        0
176
     1
 90
        0
176
     1
290
     0
176
     1
 90
       13
176
     1
 40
0.0
176
     1
 90
        0
176
     1
290
     0
176
     1
290
     1
176
     1
290
     1
176
     1
290
     0
176
     1
290
     0
176
     1
290
     0
176
     1
290
     0
176
     1
290
     0
176
     1
290
     0
176
     1
 90
       50
176
     1
 40
0.0
176
     1
 40
1.0
176
     1
 90
        0
176
     1
 62
    18
420
        0
176
     1
 90
       50
176
     1
 90
        3
176
     1
 62
     5
420
      255
176
     1
290
     0
176
     1
 90
       50
176
     1
 90
       50
176
     1
 90
       50
176
     1
290
     0
176
     1
 90
       50
176
     1
 62
   256
176
     0
 40
1.0
176
     0
 90
        2
176
     1
  1
strokes_ogs.tif
176
     1
290
     0
176
     1
 40
1.0
176
     1
 40
1.0
176
     1
  0
VISUALSTYLE
  5
31
102
{ACAD_REACTORS
330
2A
102
}
330
2A
100
AcDbVisualStyle
  2
Hidden
 70
     6
177
     3
291
     0
 70
    58
 90
        1
176
     1
 90
        2
176
     1
 90
        2
176
     1
 90
        0
176
     1
 40
0.6
176
     1
 40
30.0
176
     1
 62
     7
420
 16777215
176
     1
 90
        2
176
     1
 90
        2
176
     1
 62
     7
176
     1
 62
   257
176
     1
 90
        2
176
     1
 90
        1
176
     1
 40
40.0
176
     1
 90
        0
176
     1
 62
   257
176
     1
 40
1.0
176
     1
 90
        1
176
     1
 90
        6
176
     1
 90
        2
176
     1
 62
     7
176
     1
 90
        3
176
     1
 90
        0
176
     1
 90
        0
176
     1
290
     0
176
     1
 90
        1
176
     1
 40
0.0
176
     1
 90
        0
176
     1
290
     0
176
     1
290
     1
176
     1
290
     1
176
     1
290
     0
176
     1
290
     0
176
     1
290
     0
176
     1
290
     0
176
     1
290
     0
176
     1
290
     0
176
     1
 90
       50
176
     1
 40
0.0
176
     1
 40
1.0
176
     1
 90
        0
176
     1
 62
    18
420
        0
176
     1
 90
       50
176
     1
 90
        3
176
     1
 62
     5
420
      255
176
     1
290
     0
176
     1
 90
       50
176
     1
 90
       50
176
     1
 90
       50
176
     1
290
     0
176
     1
 90
       50
176
     1
 62
   256
176
     0
 40
1.0
176
     0
 90
        2
176
     1
  1
strokes_ogs.tif
176
     1
290
     0
176
     1
 40
1.0
176
     1
 40
1.0
176
     1
  0
VISUALSTYLE
  5
3B
102
{ACAD_REACTORS
330
2A
102
}
330
2A
100
AcDbVisualStyle
  2
JitterOff
 70
    20
177
     3
291
     1
 70
    58
 90
        2
176
     0
 90
        2
176
     0
 90
        0
176
     0
 90
        0
176
     0
 40
0.6
176
     0
 40
30.0
176
     0
 62
     7
420
 16777215
176
     0
 90
        1
176
     0
 90
        4
176
     0
 62
     7
176
     0
 62
   257
176
     0
 90
        1
176
     0
 90
        1
176
     0
 40
1.0
176
     0
 90
       10
176
     2
 62
     7
176
     0
 40
1.0
176
     0
 90
        1
176
     0
 90
        6
176
     0
 90
        2
176
     0
 62
     7
176
     0
 90
        5
176
     0
 90
        0
176
     0
 90
        0
176
     0
290
     0
176
     0
 90
        1
176
     0
 40
0.0
176
     0
 90
        0
176
     0
290
     0
176
     0
290
     1
176
     0
290
     1
176
     0
290
     0
176
     0
290
     0
176
     0
290
     0
176
     0
290
     0
176
     0
290
     0
176
     0
290
     0
176
     0
 90
       50
176
     0
 40
0.0
176
     0
 40
1.0
176
     0
 90
        0
176
     0
 62
    18
420
        0
176
     0
 90
       50
176
     0
 90
        3
176
     0
 62
     5
420
      255
176
     0
290
     0
176
     0
 90
       50
176
     0
 90
       50
176
     0
 90
       50
176
     0
290
     0
176
     0
 90
       50
176
     0
 62
   256
176
     0
 40
1.0
176
     0
 90
        2
176
     0
  1
strokes_ogs.tif
176
     0
290
     0
176
     0
 40
1.0
176
     0
 40
1.0
176
     0
  0
VISUALSTYLE
  5
38
102
{ACAD_REACTORS
330
2A
102
}
330
2A
100
AcDbVisualStyle
  2
Linepattern
 70
    14
177
     3
291
     1
 70
    58
 90
        2
176
     1
 90
        2
176
     1
 90
        0
176
     1
 90
        0
176
     1
 40
0.6
176
     1
 40
30.0
176
     1
 62
     7
420
 16777215
176
     1
 90
        1
176
     1
 90
        4
176
     1
 62
     7
176
     1
 62
   257
176
     1
 90
        7
176
     1
 90
        7
176
     1
 40
1.0
176
     1
 90
        8
176
     1
 62
     7
176
     1
 40
1.0
176
     1
 90
        1
176
     1
 90
        6
176
     1
 90
        2
176
     1
 62
     7
176
     1
 90
        5
176
     1
 90
        0
176
     1
 90
        0
176
     1
290
     0
176
     1
 90
        1
176
     1
 40
0.0
176
     1
 90
        0
176
     1
290
     0
176
     1
290
     1
176
     1
290
     1
176
     1
290
     0
176
     1
290
     0
176
     1
290
     0
176
     1
290
     0
176
     1
290
     0
176
     1
290
     0
176
     1
 90
       50
176
     1
 40
0.0
176
     1
 40
1.0
176
     1
 90
        0
176
     1
 62
    18
420
        0
176
     1
 90
       50
176
     1
 90
        3
176
     1
 62
     5
420
      255
176
     1
290
     0
176
     1
 90
       50
176
     1
 90
       50
176
     1
 90
       50
176
     1
290
     0
176
     1
 90
       50
176
     1
 62
   256
176
     0
 40
1.0
176
     0
 90
        2
176
     1
  1
strokes_ogs.tif
176
     1
290
     0
176
     1
 40
1.0
176
     1
 40
1.0
176
     1
  0
VISUALSTYLE
  5
3C
102
{ACAD_REACTORS
330
2A
102
}
330
2A
100
AcDbVisualStyle
  2
OverhangOff
 70
    21
177
     3
291
     1
 70
    58
 90
        2
176
     0
 90
        2
176
     0
 90
        0
176
     0
 90
        0
176
     0
 40
0.6
176
     0
 40
30.0
176
     0
 62
     7
420
 16777215
176
     0
 90
        1
176
     0
 90
        4
176
     0
 62
     7
176
     0
 62
   257
176
     0
 90
        1
176
     0
 90
        1
176
     0
 40
1.0
176
     0
 90
        9
176
     2
 62
     7
176
     0
 40
1.0
176
     0
 90
        1
176
     0
 90
        6
176
     0
 90
        2
176
     0
 62
     7
176
     0
 90
        5
176
     0
 90
        0
176
     0
 90
        0
176
     0
290
     0
176
     0
 90
        1
176
     0
 40
0.0
176
     0
 90
        0
176
     0
290
     0
176
     0
290
     1
176
     0
290
     1
176
     0
290
     0
176
     0
290
     0
176
     0
290
     0
176
     0
290
     0
176
     0
290
     0
176
     0
290
     0
176
     0
 90
       50
176
     0
 40
0.0
176
     0
 40
1.0
176
     0
 90
        0
176
     0
 62
    18
420
        0
176
     0
 90
       50
176
     0
 90
        3
176
     0
 62
     5
420
      255
176
     0
290
     0
176
     0
 90
       50
176
     0
 90
       50
176
     0
 90
       50
176
     0
290
     0
176
     0
 90
       50
176
     0
 62
   256
176
     0
 40
1.0
176
     0
 90
        2
176
     0
  1
strokes_ogs.tif
176
     0
290
     0
176
     0
 40
1.0
176
     0
 40
1.0
176
     0
  0
VISUALSTYLE
  5
33
102
{ACAD_REACTORS
330
2A
102
}
330
2A
100
AcDbVisualStyle
  2
Realistic
 70
     8
177
     3
291
     0
 70
    58
 90
        2
176
     1
 90
        3
176
     1
 90
        0
176
     1
 90
        2
176
     1
 40
0.6
176
     1
 40
30.0
176
     1
 62
     7
420
 16777215
176
     1
 90
        0
176
     1
 90
        0
176
     1
 62
     7
176
     1
 62
   257
176
     1
 90
        1
176
     1
 90
        1
176
     1
 40
1.0
176
     1
 90
        8
176
     1
 62
   257
176
     1
 40
1.0
176
     1
 90
        1
176
     1
 90
        6
176
     1
 90
        2
176
     1
 62
     7
176
     1
 90
        3
176
     1
 90
        0
176
     1
 90
        0
176
     1
290
     0
176
     1
 90
       13
176
     1
 40
0.0
176
     1
 90
        0
176
     1
290
     0
176
     1
290
     1
176
     1
290
     1
176
     1
290
     0
176
     1
290
     0
176
     1
290
     0
176
     1
290
     0
176
     1
290
     0
176
     1
290
     0
176
     1
 90
       50
176
     1
 40
0.0
176
     1
 40
1.0
176
     1
 90
        0
176
     1
 62
    18
420
        0
176
     1
 90
       50
176
     1
 90
        3
176
     1
 62
     5
420
      255
176
     1
290
     0
176
     1
 90
       50
176
     1
 90
       50
176
     1
 90
       50
176
     1
290
     0
176
     1
 90
       50
176
     1
 62
   256
176
     0
 40
1.0
176
     0
 90
        2
176
     1
  1
strokes_ogs.tif
176
     1
290
     0
176
     1
 40
1.0
176
     1
 40
1.0
176
     1
  0
VISUALSTYLE
  5
42
102
{ACAD_REACTORS
330
2A
102
}
330
2A
100
AcDbVisualStyle
  2
Shaded
 70
    27
177
     3
291
     0
 70
    58
 90
        2
176
     1
 90
        2
176
     1
 90
        1
176
     1
 90
        2
176
     1
 40
0.6
176
     1
 40
30.0
176
     1
 62
     7
420
 16777215
176
     1
 90
        0
176
     1
 90
        4
176
     1
 62
     7
176
     1
 62
   257
176
     1
 90
        1
176
     1
 90
        1
176
     1
 40
1.0
176
     1
 90
        8
176
     1
 62
   257
176
     1
 40
1.0
176
     1
 90
        1
176
     1
 90
        6
176
     1
 90
        2
176
     1
 62
     8
420
  7895160
176
     1
 90
        3
176
     1
 90
        0
176
     1
 90
        0
176
     1
290
     0
176
     1
 90
        5
176
     1
 40
0.0
176
     1
 90
        0
176
     1
290
     0
176
     1
290
     1
176
     1
290
     1
176
     1
290
     0
176
     1
290
     0
176
     1
290
     0
176
     1
290
     0
176
     1
290
     0
176
     1
290
     0
176
     1
 90
       50
176
     1
 40
0.0
176
     1
 40
1.0
176
     1
 90
        0
176
     1
 62
    18
420
        0
176
     1
 90
       50
176
     1
 90
        3
176
     1
 62
     5
420
      255
176
     1
290
     0
176
     1
 90
       50
176
     1
 90
       50
176
     1
 90
       50
176
     1
290
     0
176
     1
 90
       50
176
     1
 62
   256
176
     0
 40
1.0
176
     0
 90
        2
176
     1
  1
strokes_ogs.tif
176
     1
290
     0
176
     1
 40
1.0
176
     1
 40
1.0
176
     1
  0
VISUALSTYLE
  5
41
102
{ACAD_REACTORS
330
2A
102
}
330
2A
100
AcDbVisualStyle
  2
Shaded with edges
 70
    26
177
     3
291
     0
 70
    58
 90
        2
176
     1
 90
        2
176
     1
 90
        1
176
     1
 90
        2
176
     1
 40
0.6
176
     1
 40
30.0
176
     1
 62
     7
420
 16777215
176
     1
 90
        1
176
     1
 90
       10
176
     1
 62
     7
176
     1
 62
   257
176
     1
 90
        2
176
     1
 90
        1
176
     1
 40
1.0
176
     1
 90
        8
176
     1
 62
   257
176
     1
 40
1.0
176
     1
 90
        1
176
     1
 90
        6
176
     1
 90
        2
176
     1
 62
     7
176
     1
 90
        3
176
     1
 90
        0
176
     1
 90
        0
176
     1
290
     0
176
     1
 90
        5
176
     1
 40
0.0
176
     1
 90
        0
176
     1
290
     0
176
     1
290
     1
176
     1
290
     1
176
     1
290
     0
176
     1
290
     0
176
     1
290
     0
176
     1
290
     0
176
     1
290
     0
176
     1
290
     0
176
     1
 90
       50
176
     1
 40
0.0
176
     1
 40
1.0
176
     1
 90
        0
176
     1
 62
    18
420
        0
176
     1
 90
       50
176
     1
 90
        3
176
     1
 62
     5
420
      255
176
     1
290
     0
176
     1
 90
       50
176
     1
 90
       50
176
     1
 90
       50
176
     1
290
     0
176
     1
 90
       50
176
     1
 62
   256
176
     0
 40
1.0
176
     0
 90
        2
176
     1
  1
strokes_ogs.tif
176
     1
290
     0
176
     1
 40
1.0
176
     1
 40
1.0
176
     1
  0
VISUALSTYLE
  5
3E
102
{ACAD_REACTORS
330
2A
102
}
330
2A
100
AcDbVisualStyle
  2
Shades of Gray
 70
    23
177
     3
291
     0
 70
    58
 90
        2
176
     1
 90
        2
176
     1
 90
        3
176
     1
 90
        0
176
     1
 40
0.6
176
     1
 40
30.0
176
     1
 62
     7
420
 16777215
176
     1
 90
        2
176
     1
 90
        2
176
     1
 62
     7
176
     1
 62
     7
176
     1
 90
        1
176
     1
 90
        1
176
     1
 40
40.0
176
     1
 90
        8
176
     1
 62
     7
176
     1
 40
1.0
176
     1
 90
        1
176
     1
 90
        6
176
     1
 90
        2
176
     1
 62
     7
176
     1
 90
        3
176
     1
 90
        0
176
     1
 90
        0
176
     1
290
     0
176
     1
 90
        1
176
     1
 40
0.0
176
     1
 90
        0
176
     1
290
     0
176
     1
290
     1
176
     1
290
     1
176
     1
290
     0
176
     1
290
     0
176
     1
290
     0
176
     1
290
     0
176
     1
290
     0
176
     1
290
     0
176
     1
 90
       50
176
     1
 40
0.0
176
     1
 40
1.0
176
     1
 90
        0
176
     1
 62
    18
420
        0
176
     1
 90
       50
176
     1
 90
        3
176
     1
 62
     5
420
      255
176
     1
290
     0
176
     1
 90
       50
176
     1
 90
       50
176
     1
 90
       50
176
     1
290
     0
176
     1
 90
       50
176
     1
 62
   256
176
     0
 40
1.0
176
     0
 90
        2
176
     1
  1
strokes_ogs.tif
176
     1
290
     0
176
     1
 40
1.0
176
     1
 40
1.0
176
     1
  0
VISUALSTYLE
  5
3F
102
{ACAD_REACTORS
330
2A
102
}
330
2A
100
AcDbVisualStyle
  2
Sketchy
 70
    24
177
     3
291
     0
 70
    58
 90
        1
176
     1
 90
        2
176
     1
 90
        2
176
     1
 90
        0
176
     1
 40
0.6
176
     1
 40
30.0
176
     1
 62
     7
420
 16777215
176
     1
 90
        2
176
     1
 90
        2
176
     1
 62
     7
176
     1
 62
     7
176
     1
 90
        1
176
     1
 90
        1
176
     1
 40
40.0
176
     1
 90
       11
176
     1
 62
     7
176
     1
 40
1.0
176
     1
 90
        1
176
     1
 90
        6
176
     1
 90
        2
176
     1
 62
     7
176
     1
 90
        6
176
     1
 90
        0
176
     1
 90
        0
176
     1
290
     0
176
     1
 90
        1
176
     1
 40
0.0
176
     1
 90
        0
176
     1
290
     0
176
     1
290
     1
176
     1
290
     1
176
     1
290
     0
176
     1
290
     0
176
     1
290
     0
176
     1
290
     0
176
     1
290
     0
176
     1
290
     0
176
     1
 90
       50
176
     1
 40
0.0
176
     1
 40
1.0
176
     1
 90
        0
176
     1
 62
    18
420
        0
176
     1
 90
       50
176
     1
 90
        3
176
     1
 62
     5
420
      255
176
     1
290
     0
176
     1
 90
       50
176
     1
 90
       50
176
     1
 90
       50
176
     1
290
     0
176
     1
 90
       50
176
     1
 62
   256
176
     0
 40
1.0
176
     0
 90
        2
176
     1
  1
strokes_ogs.tif
176
     1
290
     0
176
     1
 40
1.0
176
     1
 40
1.0
176
     1
  0
VISUALSTYLE
  5
37
102
{ACAD_REACTORS
330
2A
102
}
330
2A
100
AcDbVisualStyle
  2
Thicken
 70
    13
177
     3
291
     1
 70
    58
 90
        2
176
     1
 90
        2
176
     1
 90
        0
176
     1
 90
        0
176
     1
 40
0.6
176
     1
 40
30.0
176
     1
 62
     7
420
 16777215
176
     1
 90
        1
176
     1
 90
        4
176
     1
 62
     7
176
     1
 62
   257
176
     1
 90
        1
176
     1
 90
        1
176
     1
 40
1.0
176
     1
 90
       12
176
     1
 62
     7
176
     1
 40
1.0
176
     1
 90
        1
176
     1
 90
        6
176
     1
 90
        2
176
     1
 62
     7
176
     1
 90
        5
176
     1
 90
        0
176
     1
 90
        0
176
     1
290
     0
176
     1
 90
        1
176
     1
 40
0.0
176
     1
 90
        0
176
     1
290
     0
176
     1
290
     1
176
     1
290
     1
176
     1
290
     0
176
     1
290
     0
176
     1
290
     0
176
     1
290
     0
176
     1
290
     0
176
     1
290
     0
176
     1
 90
       50
176
     1
 40
0.0
176
     1
 40
1.0
176
     1
 90
        0
176
     1
 62
    18
420
        0
176
     1
 90
       50
176
     1
 90
        3
176
     1
 62
     5
420
      255
176
     1
290
     0
176
     1
 90
       50
176
     1
 90
       50
176
     1
 90
       50
176
     1
290
     0
176
     1
 90
       50
176
     1
 62
   256
176
     0
 40
1.0
176
     0
 90
        2
176
     1
  1
strokes_ogs.tif
176
     1
290
     0
176
     1
 40
1.0
176
     1
 40
1.0
176
     1
  0
VISUALSTYLE
  5
30
102
{ACAD_REACTORS
330
2A
102
}
330
2A
100
AcDbVisualStyle
  2
Wireframe
 70
     5
177
     3
291
     0
 70
    58
 90
        0
176
     1
 90
        2
176
     1
 90
        0
176
     1
 90
        0
176
     1
 40
0.6
176
     1
 40
30.0
176
     1
 62
     7
420
 16777215
176
     1
 90
        1
176
     1
 90
        4
176
     1
 62
     7
176
     1
 62
   257
176
     1
 90
        1
176
     1
 90
        1
176
     1
 40
1.0
176
     1
 90
        0
176
     1
 62
   257
176
     1
 40
1.0
176
     1
 90
        1
176
     1
 90
        6
176
     1
 90
        2
176
     1
 62
     7
176
     1
 90
        3
176
     1
 90
        0
176
     1
 90
        0
176
     1
290
     0
176
     1
 90
        1
176
     1
 40
0.0
176
     1
 90
        0
176
     1
290
     0
176
     1
290
     1
176
     1
290
     1
176
     1
290
     0
176
     1
290
     0
176
     1
290
     0
176
     1
290
     0
176
     1
290
     0
176
     1
290
     0
176
     1
 90
       50
176
     1
 40
0.0
176
     1
 40
1.0
176
     1
 90
        0
176
     1
 62
    18
420
        0
176
     1
 90
       50
176
     1
 90
        3
176
     1
 62
     5
420
      255
176
     1
290
     0
176
     1
 90
       50
176
     1
 90
       50
176
     1
 90
       50
176
     1
290
     0
176
     1
 90
       50
176
     1
 62
   256
176
     0
 40
1.0
176
     0
 90
        2
176
     1
  1
strokes_ogs.tif
176
     1
290
     0
176
     1
 40
1.0
176
     1
 40
1.0
176
     1
  0
VISUALSTYLE
  5
40
102
{ACAD_REACTORS
330
2A
102
}
330
2A
100
AcDbVisualStyle
  2
X-Ray
 70
    25
177
     3
291
     0
 70
    58
 90
        2
176
     1
 90
        2
176
     1
 90
        1
176
     1
 90
        1
176
     1
 40
0.5
176
     1
 40
30.0
176
     1
 62
     7
420
 16777215
176
     1
 90
        1
176
     1
 90
        0
176
     1
 62
     7
176
     1
 62
   257
176
     1
 90
        1
176
     1
 90
        1
176
     1
 40
1.0
176
     1
 90
        8
176
     1
 62
     7
176
     1
 40
1.0
176
     1
 90
        1
176
     1
 90
        6
176
     1
 90
        2
176
     1
 62
     7
176
     1
 90
        3
176
     1
 90
        0
176
     1
 90
        0
176
     1
290
     0
176
     1
 90
       13
176
     1
 40
0.0
176
     1
 90
        0
176
     1
290
     0
176
     1
290
     1
176
     1
290
     1
176
     1
290
     0
176
     1
290
     0
176
     1
290
     0
176
     1
290
     0
176
     1
290
     0
176
     1
290
     0
176
     1
 90
       50
176
     1
 40
0.0
176
     1
 40
1.0
176
     1
 90
        0
176
     1
 62
    18
420
        0
176
     1
 90
       50
176
     1
 90
        3
176
     1
 62
     5
420
      255
176
     1
290
     0
176
     1
 90
       50
176
     1
 90
       50
176
     1
 90
       50
176
     1
290
     0
176
     1
 90
       50
176
     1
 62
   256
176
     0
 40
1.0
176
     0
 90
        2
176
     1
  1
strokes_ogs.tif
176
     1
290
     0
176
     1
 40
1.0
176
     1
 40
1.0
176
     1
  0
DICTIONARYVAR
  5
A8
102
{ACAD_REACTORS
330
A7
102
}
330
A7
100
DictionaryVariables
280
     0
  1
1:1
  0
DICTIONARYVAR
  5
AD
102
{ACAD_REACTORS
330
A7
102
}
330
A7
100
DictionaryVariables
280
     0
  1
Standard
  0
DICTIONARYVAR
  5
AC
102
{ACAD_REACTORS
330
A7
102
}
330
A7
100
DictionaryVariables
280
     0
  1
Standard
  0
DICTIONARY
  5
A9
330
5A
100
AcDbDictionary
280
     1
281
     1
  3
ACAD_ROUNDTRIP_2008_TABLESTYLE_CELLSTYLEMAP
360
AA
  0
CELLSTYLEMAP
  5
AA
102
{ACAD_REACTORS
330
A9
102
}
330
A9
100
AcDbCellStyleMap
 90
        3
300
CELLSTYLE
  1
TABLEFORMAT_BEGIN
 90
        5
170
     1
 91
        0
 92
    32768
 62
   257
 93
        1
300
CONTENTFORMAT
  1
CONTENTFORMAT_BEGIN
 90
        0
 91
        0
 92
        4
 93
        0
300

 40
0.0
140
1.0
 94
        5
 62
     0
340
11
144
0.25
309
CONTENTFORMAT_END
171
     1
301
MARGIN
  1
CELLMARGIN_BEGIN
 40
0.06
 40
0.06
 40
0.06
 40
0.06
 40
0.06
 40
0.06
309
CELLMARGIN_END
 94
        6
 95
        1
302
GRIDFORMAT
  1
GRIDFORMAT_BEGIN
 90
        0
 91
        1
 62
     0
 92
       -2
340
14
 93
        0
 40
0.045
309
GRIDFORMAT_END
 95
        2
302
GRIDFORMAT
  1
GRIDFORMAT_BEGIN
 90
        0
 91
        1
 62
     0
 92
       -2
340
14
 93
        0
 40
0.045
309
GRIDFORMAT_END
 95
        4
302
GRIDFORMAT
  1
GRIDFORMAT_BEGIN
 90
        0
 91
        1
 62
     0
 92
       -2
340
14
 93
        0
 40
0.045
309
GRIDFORMAT_END
 95
        8
302
GRIDFORMAT
  1
GRIDFORMAT_BEGIN
 90
        0
 91
        1
 62
     0
 92
       -2
340
14
 93
        0
 40
0.045
309
GRIDFORMAT_END
 95
       16
302
GRIDFORMAT
  1
GRIDFORMAT_BEGIN
 90
        0
 91
        1
 62
     0
 92
       -2
340
14
 93
        0
 40
0.045
309
GRIDFORMAT_END
 95
       32
302
GRIDFORMAT
  1
GRIDFORMAT_BEGIN
 90
        0
 91
        1
 62
     0
 92
       -2
340
14
 93
        0
 40
0.045
309
GRIDFORMAT_END
309
TABLEFORMAT_END
  1
CELLSTYLE_BEGIN
 90
        1
 91
        1
300
_TITLE
309
CELLSTYLE_END
300
CELLSTYLE
  1
TABLEFORMAT_BEGIN
 90
        5
170
     1
 91
        0
 92
        0
 62
   257
 93
        1
300
CONTENTFORMAT
  1
CONTENTFORMAT_BEGIN
 90
        0
 91
        0
 92
        4
 93
        0
300

 40
0.0
140
1.0
 94
        5
 62
     0
340
11
144
0.18
309
CONTENTFORMAT_END
171
     1
301
MARGIN
  1
CELLMARGIN_BEGIN
 40
0.06
 40
0.06
 40
0.06
 40
0.06
 40
0.06
 40
0.06
309
CELLMARGIN_END
 94
        6
 95
        1
302
GRIDFORMAT
  1
GRIDFORMAT_BEGIN
 90
        0
 91
        1
 62
     0
 92
       -2
340
14
 93
        0
 40
0.045
309
GRIDFORMAT_END
 95
        2
302
GRIDFORMAT
  1
GRIDFORMAT_BEGIN
 90
        0
 91
        1
 62
     0
 92
       -2
340
14
 93
        0
 40
0.045
309
GRIDFORMAT_END
 95
        4
302
GRIDFORMAT
  1
GRIDFORMAT_BEGIN
 90
        0
 91
        1
 62
     0
 92
       -2
340
14
 93
        0
 40
0.045
309
GRIDFORMAT_END
 95
        8
302
GRIDFORMAT
  1
GRIDFORMAT_BEGIN
 90
        0
 91
        1
 62
     0
 92
       -2
340
14
 93
        0
 40
0.045
309
GRIDFORMAT_END
 95
       16
302
GRIDFORMAT
  1
GRIDFORMAT_BEGIN
 90
        0
 91
        1
 62
     0
 92
       -2
340
14
 93
        0
 40
0.045
309
GRIDFORMAT_END
 95
       32
302
GRIDFORMAT
  1
GRIDFORMAT_BEGIN
 90
        0
 91
        1
 62
     0
 92
       -2
340
14
 93
        0
 40
0.045
309
GRIDFORMAT_END
309
TABLEFORMAT_END
  1
CELLSTYLE_BEGIN
 90
        2
 91
        1
300
_HEADER
309
CELLSTYLE_END
300
CELLSTYLE
  1
TABLEFORMAT_BEGIN
 90
        5
170
     1
 91
        0
 92
        0
 62
   257
 93
        1
300
CONTENTFORMAT
  1
CONTENTFORMAT_BEGIN
 90
        0
 91
        0
 92
        4
 93
        0
300

 40
0.0
140
1.0
 94
        2
 62
     0
340
11
144
0.18
309
CONTENTFORMAT_END
171
     1
301
MARGIN
  1
CELLMARGIN_BEGIN
 40
0.06
 40
0.06
 40
0.06
 40
0.06
 40
0.06
 40
0.06
309
CELLMARGIN_END
 94
        6
 95
        1
302
GRIDFORMAT
  1
GRIDFORMAT_BEGIN
 90
        0
 91
        1
 62
     0
 92
       -2
340
14
 93
        0
 40
0.045
309
GRIDFORMAT_END
 95
        2
302
GRIDFORMAT
  1
GRIDFORMAT_BEGIN
 90
        0
 91
        1
 62
     0
 92
       -2
340
14
 93
        0
 40
0.045
309
GRIDFORMAT_END
 95
        4
302
GRIDFORMAT
  1
GRIDFORMAT_BEGIN
 90
        0
 91
        1
 62
     0
 92
       -2
340
14
 93
        0
 40
0.045
309
GRIDFORMAT_END
 95
        8
302
GRIDFORMAT
  1
GRIDFORMAT_BEGIN
 90
        0
 91
        1
 62
     0
 92
       -2
340
14
 93
        0
 40
0.045
309
GRIDFORMAT_END
 95
       16
302
GRIDFORMAT
  1
GRIDFORMAT_BEGIN
 90
        0
 91
        1
 62
     0
 92
       -2
340
14
 93
        0
 40
0.045
309
GRIDFORMAT_END
 95
       32
302
GRIDFORMAT
  1
GRIDFORMAT_BEGIN
 90
        0
 91
        1
 62
     0
 92
       -2
340
14
 93
        0
 40
0.045
309
GRIDFORMAT_END
309
TABLEFORMAT_END
  1
CELLSTYLE_BEGIN
 90
        3
 91
        2
300
_DATA
309
CELLSTYLE_END
  0
ENDSEC
  0
EOF
