  0
SECTION
  2
HEADER
  9
$ACADVER
  1
AC1032
  9
$ACADMAINTVER
 90
       55
  9
$DWGCODEPAGE
  3
ANSI_1251
  9
$LASTSAVEDBY
  1
torde
  9
$REQUIREDVERSIONS
160
                 0
  9
$INSBASE
 10
0.0
 20
0.0
 30
0.0
  9
$EXTMIN
 10
20.7566
 20
-12.2887
 30
0.0
  9
$EXTMAX
 10
69.4163
 20
16.23694
 30
0.0
  9
$LIMMIN
 10
0.0
 20
0.0
  9
$LIMMAX
 10
12.0
 20
9.0
  9
$ORTHOMODE
 70
     0
  9
$REGENMODE
 70
     1
  9
$FILLMODE
 70
     1
  9
$QTEXTMODE
 70
     0
  9
$MIRRTEXT
 70
     1
  9
$LTSCALE
 40
1.0
  9
$ATTMODE
 70
     1
  9
$TEXTSIZE
 40
0.2
  9
$TRACEWID
 40
0.05
  9
$TEXTSTYLE
  7
Standard
  9
$CLAYER
  8
0
  9
$CELTYPE
  6
ByLayer
  9
$CECOLOR
 62
   256
  9
$CELTSCALE
 40
1.0
  9
$DISPSILH
 70
     0
  9
$DIMSCALE
 40
1.0
  9
$DIMASZ
 40
0.18
  9
$DIMEXO
 40
0.0625
  9
$DIMDLI
 40
0.38
  9
$DIMRND
 40
0.0
  9
$DIMDLE
 40
0.0
  9
$DIMEXE
 40
0.18
  9
$DIMTP
 40
0.0
  9
$DIMTM
 40
0.0
  9
$DIMTXT
 40
0.18
  9
$DIMCEN
 40
0.09
  9
$DIMTSZ
 40
0.0
  9
$DIMTOL
 70
     0
  9
$DIMLIM
 70
     0
  9
$DIMTIH
 70
     1
  9
$DIMTOH
 70
     1
  9
$DIMSE1
 70
     0
  9
$DIMSE2
 70
     0
  9
$DIMTAD
 70
     0
  9
$DIMZIN
 70
     0
  9
$DIMBLK
  1

  9
$DIMASO
 70
     1
  9
$DIMSHO
 70
     1
  9
$DIMPOST
  1

  9
$DIMAPOST
  1

  9
$DIMALT
 70
     0
  9
$DIMALTD
 70
     2
  9
$DIMALTF
 40
25.4
  9
$DIMLFAC
 40
1.0
  9
$DIMTOFL
 70
     0
  9
$DIMTVP
 40
0.0
  9
$DIMTIX
 70
     0
  9
$DIMSOXD
 70
     0
  9
$DIMSAH
 70
     0
  9
$DIMBLK1
  1

  9
$DIMBLK2
  1

  9
$DIMSTYLE
  2
Standard
  9
$DIMCLRD
 70
     0
  9
$DIMCLRE
 70
     0
  9
$DIMCLRT
 70
     0
  9
$DIMTFAC
 40
1.0
  9
$DIMGAP
 40
0.09
  9
$DIMJUST
 70
     0
  9
$DIMSD1
 70
     0
  9
$DIMSD2
 70
     0
  9
$DIMTOLJ
 70
     1
  9
$DIMTZIN
 70
     0
  9
$DIMALTZ
 70
     0
  9
$DIMALTTZ
 70
     0
  9
$DIMUPT
 70
     0
  9
$DIMDEC
 70
     4
  9
$DIMTDEC
 70
     4
  9
$DIMALTU
 70
     2
  9
$DIMALTTD
 70
     2
  9
$DIMTXSTY
  7
Standard
  9
$DIMAUNIT
 70
     0
  9
$DIMADEC
 70
     0
  9
$DIMALTRND
 40
0.0
  9
$DIMAZIN
 70
     0
  9
$DIMDSEP
 70
    46
  9
$DIMATFIT
 70
     3
  9
$DIMFRAC
 70
     0
  9
$DIMLDRBLK
  1

  9
$DIMLUNIT
 70
     2
  9
$DIMLWD
 70
    -2
  9
$DIMLWE
 70
    -2
  9
$DIMTMOVE
 70
     0
  9
$DIMFXL
 40
1.0
  9
$DIMFXLON
 70
     0
  9
$DIMJOGANG
 40
0.7853981633974483
  9
$DIMTFILL
 70
     0
  9
$DIMTFILLCLR
 70
     0
  9
$DIMARCSYM
 70
     0
  9
$DIMLTYPE
  6

  9
$DIMLTEX1
  6

  9
$DIMLTEX2
  6

  9
$DIMTXTDIRECTION
 70
     0
  9
$LUNITS
 70
     2
  9
$LUPREC
 70
     4
  9
$SKETCHINC
 40
0.1
  9
$FILLETRAD
 40
0.0
  9
$AUNITS
 70
     0
  9
$AUPREC
 70
     0
  9
$MENU
  1
.
  9
$ELEVATION
 40
0.0
  9
$PELEVATION
 40
0.0
  9
$THICKNESS
 40
0.0
  9
$LIMCHECK
 70
     0
  9
$CHAMFERA
 40
0.0
  9
$CHAMFERB
 40
0.0
  9
$CHAMFERC
 40
0.0
  9
$CHAMFERD
 40
0.0
  9
$SKPOLY
 70
     0
  9
$TDCREATE
 40
2461096.632665961
  9
$TDUCREATE
 40
2461096.507665961
  9
$TDUPDATE
 40
2461096.632666053
  9
$TDUUPDATE
 40
2461096.507666053
  9
$TDINDWG
 40
0.0000000116
  9
$TDUSRTIMER
 40
0.0000000116
  9
$USRTIMER
 70
     1
  9
$ANGBASE
 50
0.0
  9
$ANGDIR
 70
     0
  9
$PDMODE
 70
     0
  9
$PDSIZE
 40
0.0
  9
$PLINEWID
 40
0.0
  9
$SPLFRAME
 70
     0
  9
$SPLINETYPE
 70
     6
  9
$SPLINESEGS
 70
     8
  9
$HANDSEED
  5
BD
  9
$SURFTAB1
 70
     6
  9
$SURFTAB2
 70
     6
  9
$SURFTYPE
 70
     6
  9
$SURFU
 70
     6
  9
$SURFV
 70
     6
  9
$UCSBASE
  2

  9
$UCSNAME
  2

  9
$UCSORG
 10
0.0
 20
0.0
 30
0.0
  9
$UCSXDIR
 10
1.0
 20
0.0
 30
0.0
  9
$UCSYDIR
 10
0.0
 20
1.0
 30
0.0
  9
$UCSORTHOREF
  2

  9
$UCSORTHOVIEW
 70
     0
  9
$UCSORGTOP
 10
0.0
 20
0.0
 30
0.0
  9
$UCSORGBOTTOM
 10
0.0
 20
0.0
 30
0.0
  9
$UCSORGLEFT
 10
0.0
 20
0.0
 30
0.0
  9
$UCSORGRIGHT
 10
0.0
 20
0.0
 30
0.0
  9
$UCSORGFRONT
 10
0.0
 20
0.0
 30
0.0
  9
$UCSORGBACK
 10
0.0
 20
0.0
 30
0.0
  9
$PUCSBASE
  2

  9
$PUCSNAME
  2

  9
$PUCSORG
 10
0.0
 20
0.0
 30
0.0
  9
$PUCSXDIR
 10
1.0
 20
0.0
 30
0.0
  9
$PUCSYDIR
 10
0.0
 20
1.0
 30
0.0
  9
$PUCSORTHOREF
  2

  9
$PUCSORTHOVIEW
 70
     0
  9
$PUCSORGTOP
 10
0.0
 20
0.0
 30
0.0
  9
$PUCSORGBOTTOM
 10
0.0
 20
0.0
 30
0.0
  9
$PUCSORGLEFT
 10
0.0
 20
0.0
 30
0.0
  9
$PUCSORGRIGHT
 10
0.0
 20
0.0
 30
0.0
  9
$PUCSORGFRONT
 10
0.0
 20
0.0
 30
0.0
  9
$PUCSORGBACK
 10
0.0
 20
0.0
 30
0.0
  9
$USERI1
 70
     0
  9
$USERI2
 70
     0
  9
$USERI3
 70
     0
  9
$USERI4
 70
     0
  9
$USERI5
 70
     0
  9
$USERR1
 40
0.0
  9
$USERR2
 40
0.0
  9
$USERR3
 40
0.0
  9
$USERR4
 40
0.0
  9
$USERR5
 40
0.0
  9
$WORLDVIEW
 70
     1
  9
$SHADEDGE
 70
     3
  9
$SHADEDIF
 70
    70
  9
$TILEMODE
 70
     1
  9
$MAXACTVP
 70
    64
  9
$PINSBASE
 10
0.0
 20
0.0
 30
0.0
  9
$PLIMCHECK
 70
     0
  9
$PEXTMIN
 10
1.000000000000000E+20
 20
1.000000000000000E+20
 30
1.000000000000000E+20
  9
$PEXTMAX
 10
-1.000000000000000E+20
 20
-1.000000000000000E+20
 30
-1.000000000000000E+20
  9
$PLIMMIN
 10
0.0
 20
0.0
  9
$PLIMMAX
 10
12.0
 20
9.0
  9
$UNITMODE
 70
     0
  9
$VISRETAIN
 70
     1
  9
$PLINEGEN
 70
     0
  9
$PSLTSCALE
 70
     1
  9
$TREEDEPTH
 70
  3020
  9
$CMLSTYLE
  2
Standard
  9
$CMLJUST
 70
     0
  9
$CMLSCALE
 40
1.0
  9
$PROXYGRAPHICS
 70
     1
  9
$MEASUREMENT
 70
     0
  9
$CELWEIGHT
370
    -1
  9
$ENDCAPS
280
     0
  9
$JOINSTYLE
280
     0
  9
$LWDISPLAY
290
     0
  9
$INSUNITS
 70
     5
  9
$HYPERLINKBASE
  1

  9
$STYLESHEET
  1

  9
$XEDIT
290
     1
  9
$CEPSNTYPE
380
     0
  9
$PSTYLEMODE
290
     1
  9
$FINGERPRINTGUID
  2
{5a825dad-ab1f-4517-94c8-639e924fbded}
  9
$VERSIONGUID
  2
{FAEB1C32-E019-11D5-929B-00C0DF256EC4}
  9
$EXTNAMES
290
     1
  9
$PSVPSCALE
 40
0.0
  9
$OLESTARTUP
290
     0
  9
$SORTENTS
280
   127
  9
$INDEXCTL
280
     0
  9
$HIDETEXT
280
     1
  9
$XCLIPFRAME
280
     2
  9
$HALOGAP
280
     0
  9
$OBSCOLOR
 70
   257
  9
$OBSLTYPE
280
     0
  9
$INTERSECTIONDISPLAY
280
     0
  9
$INTERSECTIONCOLOR
 70
   257
  9
$DIMASSOC
280
     2
  9
$PROJECTNAME
  1

  9
$CAMERADISPLAY
290
     0
  9
$LENSLENGTH
 40
50.0
  9
$CAMERAHEIGHT
 40
0.0
  9
$STEPSPERSEC
 40
2.0
  9
$STEPSIZE
 40
6.0
  9
$3DDWFPREC
 40
2.0
  9
$PSOLWIDTH
 40
0.25
  9
$PSOLHEIGHT
 40
4.0
  9
$LOFTANG1
 40
1.570796326794897
  9
$LOFTANG2
 40
1.570796326794897
  9
$LOFTMAG1
 40
0.0
  9
$LOFTMAG2
 40
0.0
  9
$LOFTPARAM
 70
     7
  9
$LOFTNORMALS
280
     1
  9
$LATITUDE
 40
37.795
  9
$LONGITUDE
 40
-122.394
  9
$NORTHDIRECTION
 40
0.0
  9
$TIMEZONE
 70
 -8000
  9
$LIGHTGLYPHDISPLAY
280
     1
  9
$TILEMODELIGHTSYNCH
280
     1
  9
$CMATERIAL
347
44
  9
$SOLIDHIST
280
     0
  9
$SHOWHIST
280
     1
  9
$DWFFRAME
280
     2
  9
$DGNFRAME
280
     2
  9
$REALWORLDSCALE
290
     1
  9
$INTERFERECOLOR
 62
   256
  9
$CSHADOW
280
     0
  9
$SHADOWPLANELOCATION
 40
0.0
  0
ENDSEC
  0
SECTION
  2
CLASSES
  0
CLASS
  1
ACDBDICTIONARYWDFLT
  2
AcDbDictionaryWithDefault
  3
ObjectDBX Classes
 90
        0
 91
        3
280
     0
281
     0
  0
CLASS
  1
VISUALSTYLE
  2
AcDbVisualStyle
  3
ObjectDBX Classes
 90
     4095
 91
        3
280
     0
281
     0
  0
CLASS
  1
MATERIAL
  2
AcDbMaterial
  3
ObjectDBX Classes
 90
     1153
 91
        3
280
     0
281
     0
  0
CLASS
  1
SCALE
  2
AcDbScale
  3
ObjectDBX Classes
 90
     1153
 91
        3
280
     0
281
     0
  0
CLASS
  1
TABLESTYLE
  2
AcDbTableStyle
  3
ObjectDBX Classes
 90
     4095
 91
        3
280
     0
281
     0
  0
CLASS
  1
MLEADERSTYLE
  2
AcDbMLeaderStyle
  3
ACDB_MLEADERSTYLE_CLASS
 90
     4095
 91
        3
280
     0
281
     0
  0
CLASS
  1
SUN
  2
AcDbSun
  3
SCENEOE
 90
     1153
 91
        3
280
     0
281
     0
  0
CLASS
  1
DICTIONARYVAR
  2
AcDbDictionaryVar
  3
ObjectDBX Classes
 90
        0
 91
        3
280
     0
281
     0
  0
CLASS
  1
CELLSTYLEMAP
  2
AcDbCellStyleMap
  3
ObjectDBX Classes
 90
     1152
 91
        3
280
     0
281
     0
  0
ENDSEC
  0
SECTION
  2
TABLES
  0
TABLE
  2
VPORT
  5
8
330
0
100
AcDbSymbolTable
 70
     1
  0
VPORT
  5
29
330
8
100
AcDbSymbolTableRecord
100
AcDbViewportTableRecord
  2
*Active
 70
     0
 10
0.0
 20
0.0
 11
1.0
 21
1.0
 12
10.42990654205607
 22
4.5
 13
0.0
 23
0.0
 14
0.5
 24
0.5
 15
0.5
 25
0.5
 16
0.0
 26
0.0
 36
1.0
 17
0.0
 27
0.0
 37
0.0
 40
9.0
 41
1.972972972850329
 42
50.0
 43
0.0
 44
0.0
 50
0.0
 51
0.0
 71
     0
 72
   100
 73
     1
 74
     3
 75
     0
 76
     0
 77
     0
 78
     0
281
     0
 65
     1
110
0.0
120
0.0
130
0.0
111
1.0
121
0.0
131
0.0
112
0.0
122
1.0
132
0.0
 79
     0
146
0.0
348
2F
 60
     3
 61
     5
292
     1
282
     1
141
0.0
142
0.0
 63
   250
361
5D
  0
ENDTAB
  0
TABLE
  2
LTYPE
  5
5
330
0
100
AcDbSymbolTable
 70
     1
  0
LTYPE
  5
14
330
5
100
AcDbSymbolTableRecord
100
AcDbLinetypeTableRecord
  2
ByBlock
 70
     0
  3

 72
    65
 73
     0
 40
0.0
  0
LTYPE
  5
15
330
5
100
AcDbSymbolTableRecord
100
AcDbLinetypeTableRecord
  2
ByLayer
 70
     0
  3

 72
    65
 73
     0
 40
0.0
  0
LTYPE
  5
16
330
5
100
AcDbSymbolTableRecord
100
AcDbLinetypeTableRecord
  2
Continuous
 70
     0
  3
Solid line
 72
    65
 73
     0
 40
0.0
  0
ENDTAB
  0
TABLE
  2
LAYER
  5
2
330
0
100
AcDbSymbolTable
 70
     2
  0
LAYER
  5
10
330
2
100
AcDbSymbolTableRecord
100
AcDbLayerTableRecord
  2
0
 70
     0
 62
     7
  6
Continuous
370
    -3
390
F
347
46
348
0
  0
LAYER
  5
5F
330
2
100
AcDbSymbolTableRecord
100
AcDbLayerTableRecord
  2
layer 1
 70
     0
 62
     7
  6
Continuous
370
    -3
390
F
347
46
348
0
  0
ENDTAB
  0
TABLE
  2
STYLE
  5
3
330
0
100
AcDbSymbolTable
 70
     1
  0
STYLE
  5
11
330
3
100
AcDbSymbolTableRecord
100
AcDbTextStyleTableRecord
  2
Standard
 70
     0
 40
0.0
 41
1.0
 50
0.0
 71
     0
 42
0.2
  3
txt
  4

  0
ENDTAB
  0
TABLE
  2
VIEW
  5
6
330
0
100
AcDbSymbolTable
 70
     0
  0
ENDTAB
  0
TABLE
  2
UCS
  5
7
330
0
100
AcDbSymbolTable
 70
     0
  0
ENDTAB
  0
TABLE
  2
APPID
  5
9
330
0
100
AcDbSymbolTable
 70
     2
  0
APPID
  5
12
330
9
100
AcDbSymbolTableRecord
100
AcDbRegAppTableRecord
  2
ACAD
 70
     0
  0
APPID
  5
5E
330
9
100
AcDbSymbolTableRecord
100
AcDbRegAppTableRecord
  2
ODA
 70
     0
  0
ENDTAB
  0
TABLE
  2
DIMSTYLE
  5
A
330
0
100
AcDbSymbolTable
 70
     1
100
AcDbDimStyleTable
  0
DIMSTYLE
105
27
330
A
100
AcDbSymbolTableRecord
100
AcDbDimStyleTableRecord
  2
Standard
 70
     0
178
     0
340
11
  0
ENDTAB
  0
TABLE
  2
BLOCK_RECORD
  5
1
330
0
100
AcDbSymbolTable
 70
     1
  0
BLOCK_RECORD
  5
1F
330
1
100
AcDbSymbolTableRecord
100
AcDbBlockTableRecord
  2
*Model_Space
340
22
 70
     0
280
     1
281
     0
  0
BLOCK_RECORD
  5
1B
330
1
100
AcDbSymbolTableRecord
100
AcDbBlockTableRecord
  2
*Paper_Space
340
1E
 70
     0
280
     1
281
     0
  0
BLOCK_RECORD
  5
23
330
1
100
AcDbSymbolTableRecord
100
AcDbBlockTableRecord
  2
*Paper_Space0
340
26
 70
     0
280
     1
281
     0
  0
ENDTAB
  0
ENDSEC
  0
SECTION
  2
BLOCKS
  0
BLOCK
  5
20
330
1F
100
AcDbEntity
  8
0
100
AcDbBlockBegin
  2
*Model_Space
 70
     0
 10
0.0
 20
0.0
 30
0.0
  3
*Model_Space
  1

  0
ENDBLK
  5
21
330
1F
100
AcDbEntity
  8
0
100
AcDbBlockEnd
  0
BLOCK
  5
1C
330
1B
100
AcDbEntity
 67
     1
  8
0
100
AcDbBlockBegin
  2
*Paper_Space
 70
     0
 10
0.0
 20
0.0
 30
0.0
  3
*Paper_Space
  1

  0
ENDBLK
  5
1D
330
1B
100
AcDbEntity
 67
     1
  8
0
100
AcDbBlockEnd
  0
BLOCK
  5
24
330
23
100
AcDbEntity
  8
0
100
AcDbBlockBegin
  2
*Paper_Space0
 70
     0
 10
0.0
 20
0.0
 30
0.0
  3
*Paper_Space0
  1

  0
ENDBLK
  5
25
330
23
100
AcDbEntity
  8
0
100
AcDbBlockEnd
  0
ENDSEC
  0
SECTION
  2
ENTITIES
  0
SPLINE
  5
60
330
1F
100
AcDbEntity
  8
layer 1
 62
   242
370
     9
100
AcDbSpline
210
0.0
220
0.0
230
1.0
 70
    11
 71
     3
 72
   113
 73
   109
 74
     0
 42
0.0000000001
 43
0.0000000001
 40
0.0
 40
0.0
 40
0.0
 40
0.0
 40
0.0277777777777778
 40
0.0277777777777778
 40
0.0277777777777778
 40
0.0555555555555556
 40
0.0555555555555556
 40
0.0555555555555556
 40
0.0833333333333333
 40
0.0833333333333333
 40
0.0833333333333333
 40
0.1111111111111111
 40
0.1111111111111111
 40
0.1111111111111111
 40
0.1388888888888889
 40
0.1388888888888889
 40
0.1388888888888889
 40
0.1666666666666667
 40
0.1666666666666667
 40
0.1666666666666667
 40
0.1944444444444444
 40
0.1944444444444444
 40
0.1944444444444444
 40
0.2222222222222222
 40
0.2222222222222222
 40
0.2222222222222222
 40
0.25
 40
0.25
 40
0.25
 40
0.2777777777777778
 40
0.2777777777777778
 40
0.2777777777777778
 40
0.3055555555555555
 40
0.3055555555555555
 40
0.3055555555555555
 40
0.3333333333333333
 40
0.3333333333333333
 40
0.3333333333333333
 40
0.3611111111111111
 40
0.3611111111111111
 40
0.3611111111111111
 40
0.3888888888888888
 40
0.3888888888888888
 40
0.3888888888888888
 40
0.4166666666666666
 40
0.4166666666666666
 40
0.4166666666666666
 40
0.4444444444444444
 40
0.4444444444444444
 40
0.4444444444444444
 40
0.4722222222222222
 40
0.4722222222222222
 40
0.4722222222222222
 40
0.5
 40
0.5
 40
0.5
 40
0.5277777777777778
 40
0.5277777777777778
 40
0.5277777777777778
 40
0.5555555555555556
 40
0.5555555555555556
 40
0.5555555555555556
 40
0.5833333333333333
 40
0.5833333333333333
 40
0.5833333333333333
 40
0.611111111111111
 40
0.611111111111111
 40
0.611111111111111
 40
0.6388888888888888
 40
0.6388888888888888
 40
0.6388888888888888
 40
0.6666666666666666
 40
0.6666666666666666
 40
0.6666666666666666
 40
0.6944444444444444
 40
0.6944444444444444
 40
0.6944444444444444
 40
0.7222222222222222
 40
0.7222222222222222
 40
0.7222222222222222
 40
0.75
 40
0.75
 40
0.75
 40
0.7777777777777777
 40
0.7777777777777777
 40
0.7777777777777777
 40
0.8055555555555555
 40
0.8055555555555555
 40
0.8055555555555555
 40
0.8333333333333333
 40
0.8333333333333333
 40
0.8333333333333333
 40
0.861111111111111
 40
0.861111111111111
 40
0.861111111111111
 40
0.8888888888888888
 40
0.8888888888888888
 40
0.8888888888888888
 40
0.9166666666666666
 40
0.9166666666666666
 40
0.9166666666666666
 40
0.9444444444444444
 40
0.9444444444444444
 40
0.9444444444444444
 40
0.9722222222222222
 40
0.9722222222222222
 40
0.9722222222222222
 40
1.0
 40
1.0
 40
1.0
 40
1.0
 10
26.06041
 20
-3.17726
 30
0.0
 10
26.06041
 20
-3.17726
 30
0.0
 10
26.06041
 20
-1.97726
 30
0.0
 10
26.06041
 20
-1.97726
 30
0.0
 10
26.06041
 20
-1.97726
 30
0.0
 10
25.76041
 20
-1.97726
 30
0.0
 10
25.76041
 20
-1.97726
 30
0.0
 10
25.76041
 20
-1.97726
 30
0.0
 10
25.76041
 20
-0.61726
 30
0.0
 10
25.76041
 20
-0.61726
 30
0.0
 10
25.76041
 20
-0.61726
 30
0.0
 10
26.06041
 20
-0.61726
 30
0.0
 10
26.06041
 20
-0.61726
 30
0.0
 10
26.06041
 20
-0.61726
 30
0.0
 10
26.06041
 20
0.58274
 30
0.0
 10
26.06041
 20
0.58274
 30
0.0
 10
26.06041
 20
0.58274
 30
0.0
 10
25.76041
 20
0.58274
 30
0.0
 10
25.76041
 20
0.58274
 30
0.0
 10
25.76041
 20
0.58274
 30
0.0
 10
25.76041
 20
1.94274
 30
0.0
 10
25.76041
 20
1.94274
 30
0.0
 10
25.76041
 20
1.94274
 30
0.0
 10
26.06041
 20
1.94274
 30
0.0
 10
26.06041
 20
1.94274
 30
0.0
 10
26.06041
 20
1.94274
 30
0.0
 10
26.06041
 20
3.14274
 30
0.0
 10
26.06041
 20
3.14274
 30
0.0
 10
26.06041
 20
3.14274
 30
0.0
 10
25.76041
 20
3.14274
 30
0.0
 10
25.76041
 20
3.14274
 30
0.0
 10
25.76041
 20
3.14274
 30
0.0
 10
25.76041
 20
4.50274
 30
0.0
 10
25.76041
 20
4.50274
 30
0.0
 10
25.76041
 20
4.50274
 30
0.0
 10
26.06041
 20
4.50274
 30
0.0
 10
26.06041
 20
4.50274
 30
0.0
 10
26.06041
 20
4.50274
 30
0.0
 10
26.06041
 20
5.70274
 30
0.0
 10
26.06041
 20
5.70274
 30
0.0
 10
26.06041
 20
5.70274
 30
0.0
 10
25.76041
 20
5.70274
 30
0.0
 10
25.76041
 20
5.70274
 30
0.0
 10
25.76041
 20
5.70274
 30
0.0
 10
25.76041
 20
6.76274
 30
0.0
 10
25.76041
 20
6.76274
 30
0.0
 10
25.76041
 20
6.76274
 30
0.0
 10
24.56041
 20
6.76274
 30
0.0
 10
24.56041
 20
6.76274
 30
0.0
 10
24.56041
 20
6.76274
 30
0.0
 10
24.56041
 20
7.06274
 30
0.0
 10
24.56041
 20
7.06274
 30
0.0
 10
24.56041
 20
7.06274
 30
0.0
 10
23.56041
 20
7.06274
 30
0.0
 10
23.56041
 20
7.06274
 30
0.0
 10
23.56041
 20
7.06274
 30
0.0
 10
23.56041
 20
6.76274
 30
0.0
 10
23.56041
 20
6.76274
 30
0.0
 10
23.56041
 20
6.76274
 30
0.0
 10
22.36041
 20
6.76274
 30
0.0
 10
22.36041
 20
6.76274
 30
0.0
 10
22.36041
 20
6.76274
 30
0.0
 10
22.36041
 20
7.06274
 30
0.0
 10
22.36041
 20
7.06274
 30
0.0
 10
22.36041
 20
7.06274
 30
0.0
 10
21.36041
 20
7.06274
 30
0.0
 10
21.36041
 20
7.06274
 30
0.0
 10
21.36041
 20
7.06274
 30
0.0
 10
21.36041
 20
6.76274
 30
0.0
 10
21.36041
 20
6.76274
 30
0.0
 10
21.36041
 20
6.76274
 30
0.0
 10
20.76041
 20
6.76274
 30
0.0
 10
20.76041
 20
6.76274
 30
0.0
 10
20.76041
 20
6.76274
 30
0.0
 10
20.76041
 20
-4.23726
 30
0.0
 10
20.76041
 20
-4.23726
 30
0.0
 10
20.76041
 20
-4.23726
 30
0.0
 10
21.36041
 20
-4.23726
 30
0.0
 10
21.36041
 20
-4.23726
 30
0.0
 10
21.36041
 20
-4.23726
 30
0.0
 10
21.36041
 20
-4.53726
 30
0.0
 10
21.36041
 20
-4.53726
 30
0.0
 10
21.36041
 20
-4.53726
 30
0.0
 10
22.36041
 20
-4.53726
 30
0.0
 10
22.36041
 20
-4.53726
 30
0.0
 10
22.36041
 20
-4.53726
 30
0.0
 10
22.36041
 20
-4.23726
 30
0.0
 10
22.36041
 20
-4.23726
 30
0.0
 10
22.36041
 20
-4.23726
 30
0.0
 10
23.56041
 20
-4.23726
 30
0.0
 10
23.56041
 20
-4.23726
 30
0.0
 10
23.56041
 20
-4.23726
 30
0.0
 10
23.56041
 20
-4.53726
 30
0.0
 10
23.56041
 20
-4.53726
 30
0.0
 10
23.56041
 20
-4.53726
 30
0.0
 10
24.56041
 20
-4.53726
 30
0.0
 10
24.56041
 20
-4.53726
 30
0.0
 10
24.56041
 20
-4.53726
 30
0.0
 10
24.56041
 20
-4.23726
 30
0.0
 10
24.56041
 20
-4.23726
 30
0.0
 10
24.56041
 20
-4.23726
 30
0.0
 10
25.76041
 20
-4.23726
 30
0.0
 10
25.76041
 20
-4.23726
 30
0.0
 10
25.76041
 20
-4.23726
 30
0.0
 10
25.76041
 20
-3.17726
 30
0.0
 10
25.76041
 20
-3.17726
 30
0.0
 10
25.76041
 20
-3.17726
 30
0.0
 10
26.06041
 20
-3.17726
 30
0.0
 10
26.06041
 20
-3.17726
 30
0.0
  0
SPLINE
  5
61
330
1F
100
AcDbEntity
  8
layer 1
 62
   242
370
     9
100
AcDbSpline
210
0.0
220
0.0
230
1.0
 70
    11
 71
     3
 72
   257
 73
   253
 74
     0
 42
0.0000000001
 43
0.0000000001
 40
0.0
 40
0.0
 40
0.0
 40
0.0
 40
0.0119047619047619
 40
0.0119047619047619
 40
0.0119047619047619
 40
0.0238095238095238
 40
0.0238095238095238
 40
0.0238095238095238
 40
0.0357142857142857
 40
0.0357142857142857
 40
0.0357142857142857
 40
0.0476190476190476
 40
0.0476190476190476
 40
0.0476190476190476
 40
0.0595238095238095
 40
0.0595238095238095
 40
0.0595238095238095
 40
0.0714285714285714
 40
0.0714285714285714
 40
0.0714285714285714
 40
0.0833333333333333
 40
0.0833333333333333
 40
0.0833333333333333
 40
0.0952380952380952
 40
0.0952380952380952
 40
0.0952380952380952
 40
0.1071428571428571
 40
0.1071428571428571
 40
0.1071428571428571
 40
0.119047619047619
 40
0.119047619047619
 40
0.119047619047619
 40
0.1309523809523809
 40
0.1309523809523809
 40
0.1309523809523809
 40
0.1428571428571428
 40
0.1428571428571428
 40
0.1428571428571428
 40
0.1547619047619048
 40
0.1547619047619048
 40
0.1547619047619048
 40
0.1666666666666667
 40
0.1666666666666667
 40
0.1666666666666667
 40
0.1785714285714285
 40
0.1785714285714285
 40
0.1785714285714285
 40
0.1904761904761905
 40
0.1904761904761905
 40
0.1904761904761905
 40
0.2023809523809524
 40
0.2023809523809524
 40
0.2023809523809524
 40
0.2142857142857143
 40
0.2142857142857143
 40
0.2142857142857143
 40
0.2261904761904762
 40
0.2261904761904762
 40
0.2261904761904762
 40
0.2380952380952381
 40
0.2380952380952381
 40
0.2380952380952381
 40
0.25
 40
0.25
 40
0.25
 40
0.2619047619047619
 40
0.2619047619047619
 40
0.2619047619047619
 40
0.2738095238095238
 40
0.2738095238095238
 40
0.2738095238095238
 40
0.2857142857142857
 40
0.2857142857142857
 40
0.2857142857142857
 40
0.2976190476190476
 40
0.2976190476190476
 40
0.2976190476190476
 40
0.3095238095238095
 40
0.3095238095238095
 40
0.3095238095238095
 40
0.3214285714285714
 40
0.3214285714285714
 40
0.3214285714285714
 40
0.3333333333333333
 40
0.3333333333333333
 40
0.3333333333333333
 40
0.3452380952380952
 40
0.3452380952380952
 40
0.3452380952380952
 40
0.3571428571428571
 40
0.3571428571428571
 40
0.3571428571428571
 40
0.369047619047619
 40
0.369047619047619
 40
0.369047619047619
 40
0.3809523809523809
 40
0.3809523809523809
 40
0.3809523809523809
 40
0.3928571428571428
 40
0.3928571428571428
 40
0.3928571428571428
 40
0.4047619047619048
 40
0.4047619047619048
 40
0.4047619047619048
 40
0.4166666666666666
 40
0.4166666666666666
 40
0.4166666666666666
 40
0.4285714285714285
 40
0.4285714285714285
 40
0.4285714285714285
 40
0.4404761904761905
 40
0.4404761904761905
 40
0.4404761904761905
 40
0.4523809523809523
 40
0.4523809523809523
 40
0.4523809523809523
 40
0.4642857142857142
 40
0.4642857142857142
 40
0.4642857142857142
 40
0.4761904761904762
 40
0.4761904761904762
 40
0.4761904761904762
 40
0.4880952380952381
 40
0.4880952380952381
 40
0.4880952380952381
 40
0.5
 40
0.5
 40
0.5
 40
0.5119047619047619
 40
0.5119047619047619
 40
0.5119047619047619
 40
0.5238095238095237
 40
0.5238095238095237
 40
0.5238095238095237
 40
0.5357142857142857
 40
0.5357142857142857
 40
0.5357142857142857
 40
0.5476190476190476
 40
0.5476190476190476
 40
0.5476190476190476
 40
0.5595238095238095
 40
0.5595238095238095
 40
0.5595238095238095
 40
0.5714285714285714
 40
0.5714285714285714
 40
0.5714285714285714
 40
0.5833333333333333
 40
0.5833333333333333
 40
0.5833333333333333
 40
0.5952380952380952
 40
0.5952380952380952
 40
0.5952380952380952
 40
0.6071428571428571
 40
0.6071428571428571
 40
0.6071428571428571
 40
0.6190476190476191
 40
0.6190476190476191
 40
0.6190476190476191
 40
0.6309523809523809
 40
0.6309523809523809
 40
0.6309523809523809
 40
0.6428571428571428
 40
0.6428571428571428
 40
0.6428571428571428
 40
0.6547619047619048
 40
0.6547619047619048
 40
0.6547619047619048
 40
0.6666666666666666
 40
0.6666666666666666
 40
0.6666666666666666
 40
0.6785714285714285
 40
0.6785714285714285
 40
0.6785714285714285
 40
0.6904761904761905
 40
0.6904761904761905
 40
0.6904761904761905
 40
0.7023809523809523
 40
0.7023809523809523
 40
0.7023809523809523
 40
0.7142857142857142
 40
0.7142857142857142
 40
0.7142857142857142
 40
0.7261904761904762
 40
0.7261904761904762
 40
0.7261904761904762
 40
0.738095238095238
 40
0.738095238095238
 40
0.738095238095238
 40
0.75
 40
0.75
 40
0.75
 40
0.7619047619047619
 40
0.7619047619047619
 40
0.7619047619047619
 40
0.7738095238095237
 40
0.7738095238095237
 40
0.7738095238095237
 40
0.7857142857142857
 40
0.7857142857142857
 40
0.7857142857142857
 40
0.7976190476190476
 40
0.7976190476190476
 40
0.7976190476190476
 40
0.8095238095238095
 40
0.8095238095238095
 40
0.8095238095238095
 40
0.8214285714285714
 40
0.8214285714285714
 40
0.8214285714285714
 40
0.8333333333333333
 40
0.8333333333333333
 40
0.8333333333333333
 40
0.8452380952380952
 40
0.8452380952380952
 40
0.8452380952380952
 40
0.8571428571428571
 40
0.8571428571428571
 40
0.8571428571428571
 40
0.869047619047619
 40
0.869047619047619
 40
0.869047619047619
 40
0.8809523809523809
 40
0.8809523809523809
 40
0.8809523809523809
 40
0.8928571428571428
 40
0.8928571428571428
 40
0.8928571428571428
 40
0.9047619047619047
 40
0.9047619047619047
 40
0.9047619047619047
 40
0.9166666666666666
 40
0.9166666666666666
 40
0.9166666666666666
 40
0.9285714285714285
 40
0.9285714285714285
 40
0.9285714285714285
 40
0.9404761904761905
 40
0.9404761904761905
 40
0.9404761904761905
 40
0.9523809523809523
 40
0.9523809523809523
 40
0.9523809523809523
 40
0.9642857142857142
 40
0.9642857142857142
 40
0.9642857142857142
 40
0.9761904761904762
 40
0.9761904761904762
 40
0.9761904761904762
 40
0.988095238095238
 40
0.988095238095238
 40
0.988095238095238
 40
1.0
 40
1.0
 40
1.0
 40
1.0
 10
26.67041
 20
-4.53726
 30
0.0
 10
26.67041
 20
-4.53726
 30
0.0
 10
28.01327
 20
-4.53726
 30
0.0
 10
28.01327
 20
-4.53726
 30
0.0
 10
28.01327
 20
-4.53726
 30
0.0
 10
28.01327
 20
-4.23726
 30
0.0
 10
28.01327
 20
-4.23726
 30
0.0
 10
28.01327
 20
-4.23726
 30
0.0
 10
29.21327
 20
-4.23726
 30
0.0
 10
29.21327
 20
-4.23726
 30
0.0
 10
29.21327
 20
-4.23726
 30
0.0
 10
29.21327
 20
-4.53726
 30
0.0
 10
29.21327
 20
-4.53726
 30
0.0
 10
29.21327
 20
-4.53726
 30
0.0
 10
30.55612
 20
-4.53726
 30
0.0
 10
30.55612
 20
-4.53726
 30
0.0
 10
30.55612
 20
-4.53726
 30
0.0
 10
30.55612
 20
-4.23726
 30
0.0
 10
30.55612
 20
-4.23726
 30
0.0
 10
30.55612
 20
-4.23726
 30
0.0
 10
31.75612
 20
-4.23726
 30
0.0
 10
31.75612
 20
-4.23726
 30
0.0
 10
31.75612
 20
-4.23726
 30
0.0
 10
31.75612
 20
-4.53726
 30
0.0
 10
31.75612
 20
-4.53726
 30
0.0
 10
31.75612
 20
-4.53726
 30
0.0
 10
33.09898
 20
-4.53726
 30
0.0
 10
33.09898
 20
-4.53726
 30
0.0
 10
33.09898
 20
-4.53726
 30
0.0
 10
33.09898
 20
-4.23726
 30
0.0
 10
33.09898
 20
-4.23726
 30
0.0
 10
33.09898
 20
-4.23726
 30
0.0
 10
34.29898
 20
-4.23726
 30
0.0
 10
34.29898
 20
-4.23726
 30
0.0
 10
34.29898
 20
-4.23726
 30
0.0
 10
34.29898
 20
-4.53726
 30
0.0
 10
34.29898
 20
-4.53726
 30
0.0
 10
34.29898
 20
-4.53726
 30
0.0
 10
35.64184
 20
-4.53726
 30
0.0
 10
35.64184
 20
-4.53726
 30
0.0
 10
35.64184
 20
-4.53726
 30
0.0
 10
35.64184
 20
-4.23726
 30
0.0
 10
35.64184
 20
-4.23726
 30
0.0
 10
35.64184
 20
-4.23726
 30
0.0
 10
36.84184
 20
-4.23726
 30
0.0
 10
36.84184
 20
-4.23726
 30
0.0
 10
36.84184
 20
-4.23726
 30
0.0
 10
36.84184
 20
-4.53726
 30
0.0
 10
36.84184
 20
-4.53726
 30
0.0
 10
36.84184
 20
-4.53726
 30
0.0
 10
38.1847
 20
-4.53726
 30
0.0
 10
38.1847
 20
-4.53726
 30
0.0
 10
38.1847
 20
-4.53726
 30
0.0
 10
38.1847
 20
-4.23726
 30
0.0
 10
38.1847
 20
-4.23726
 30
0.0
 10
38.1847
 20
-4.23726
 30
0.0
 10
39.3847
 20
-4.23726
 30
0.0
 10
39.3847
 20
-4.23726
 30
0.0
 10
39.3847
 20
-4.23726
 30
0.0
 10
39.3847
 20
-4.53726
 30
0.0
 10
39.3847
 20
-4.53726
 30
0.0
 10
39.3847
 20
-4.53726
 30
0.0
 10
40.72755
 20
-4.53726
 30
0.0
 10
40.72755
 20
-4.53726
 30
0.0
 10
40.72755
 20
-4.53726
 30
0.0
 10
40.72755
 20
-4.23726
 30
0.0
 10
40.72755
 20
-4.23726
 30
0.0
 10
40.72755
 20
-4.23726
 30
0.0
 10
41.92755
 20
-4.23726
 30
0.0
 10
41.92755
 20
-4.23726
 30
0.0
 10
41.92755
 20
-4.23726
 30
0.0
 10
41.92755
 20
-4.53726
 30
0.0
 10
41.92755
 20
-4.53726
 30
0.0
 10
41.92755
 20
-4.53726
 30
0.0
 10
43.27041
 20
-4.53726
 30
0.0
 10
43.27041
 20
-4.53726
 30
0.0
 10
43.27041
 20
-4.53726
 30
0.0
 10
43.27041
 20
-3.17726
 30
0.0
 10
43.27041
 20
-3.17726
 30
0.0
 10
43.27041
 20
-3.17726
 30
0.0
 10
42.97041
 20
-3.17726
 30
0.0
 10
42.97041
 20
-3.17726
 30
0.0
 10
42.97041
 20
-3.17726
 30
0.0
 10
42.97041
 20
-1.97726
 30
0.0
 10
42.97041
 20
-1.97726
 30
0.0
 10
42.97041
 20
-1.97726
 30
0.0
 10
43.27041
 20
-1.97726
 30
0.0
 10
43.27041
 20
-1.97726
 30
0.0
 10
43.27041
 20
-1.97726
 30
0.0
 10
43.27041
 20
-0.61726
 30
0.0
 10
43.27041
 20
-0.61726
 30
0.0
 10
43.27041
 20
-0.61726
 30
0.0
 10
42.97041
 20
-0.61726
 30
0.0
 10
42.97041
 20
-0.61726
 30
0.0
 10
42.97041
 20
-0.61726
 30
0.0
 10
42.97041
 20
0.58274
 30
0.0
 10
42.97041
 20
0.58274
 30
0.0
 10
42.97041
 20
0.58274
 30
0.0
 10
43.27041
 20
0.58274
 30
0.0
 10
43.27041
 20
0.58274
 30
0.0
 10
43.27041
 20
0.58274
 30
0.0
 10
43.27041
 20
1.94274
 30
0.0
 10
43.27041
 20
1.94274
 30
0.0
 10
43.27041
 20
1.94274
 30
0.0
 10
42.97041
 20
1.94274
 30
0.0
 10
42.97041
 20
1.94274
 30
0.0
 10
42.97041
 20
1.94274
 30
0.0
 10
42.97041
 20
3.14274
 30
0.0
 10
42.97041
 20
3.14274
 30
0.0
 10
42.97041
 20
3.14274
 30
0.0
 10
43.27041
 20
3.14274
 30
0.0
 10
43.27041
 20
3.14274
 30
0.0
 10
43.27041
 20
3.14274
 30
0.0
 10
43.27041
 20
4.50274
 30
0.0
 10
43.27041
 20
4.50274
 30
0.0
 10
43.27041
 20
4.50274
 30
0.0
 10
42.97041
 20
4.50274
 30
0.0
 10
42.97041
 20
4.50274
 30
0.0
 10
42.97041
 20
4.50274
 30
0.0
 10
42.97041
 20
5.70274
 30
0.0
 10
42.97041
 20
5.70274
 30
0.0
 10
42.97041
 20
5.70274
 30
0.0
 10
43.27041
 20
5.70274
 30
0.0
 10
43.27041
 20
5.70274
 30
0.0
 10
43.27041
 20
5.70274
 30
0.0
 10
43.27041
 20
7.06274
 30
0.0
 10
43.27041
 20
7.06274
 30
0.0
 10
43.27041
 20
7.06274
 30
0.0
 10
41.92755
 20
7.06274
 30
0.0
 10
41.92755
 20
7.06274
 30
0.0
 10
41.92755
 20
7.06274
 30
0.0
 10
41.92755
 20
6.76274
 30
0.0
 10
41.92755
 20
6.76274
 30
0.0
 10
41.92755
 20
6.76274
 30
0.0
 10
40.72755
 20
6.76274
 30
0.0
 10
40.72755
 20
6.76274
 30
0.0
 10
40.72755
 20
6.76274
 30
0.0
 10
40.72755
 20
7.06274
 30
0.0
 10
40.72755
 20
7.06274
 30
0.0
 10
40.72755
 20
7.06274
 30
0.0
 10
39.3847
 20
7.06274
 30
0.0
 10
39.3847
 20
7.06274
 30
0.0
 10
39.3847
 20
7.06274
 30
0.0
 10
39.3847
 20
6.76274
 30
0.0
 10
39.3847
 20
6.76274
 30
0.0
 10
39.3847
 20
6.76274
 30
0.0
 10
38.1847
 20
6.76274
 30
0.0
 10
38.1847
 20
6.76274
 30
0.0
 10
38.1847
 20
6.76274
 30
0.0
 10
38.1847
 20
7.06274
 30
0.0
 10
38.1847
 20
7.06274
 30
0.0
 10
38.1847
 20
7.06274
 30
0.0
 10
36.84184
 20
7.06274
 30
0.0
 10
36.84184
 20
7.06274
 30
0.0
 10
36.84184
 20
7.06274
 30
0.0
 10
36.84184
 20
6.76274
 30
0.0
 10
36.84184
 20
6.76274
 30
0.0
 10
36.84184
 20
6.76274
 30
0.0
 10
35.64184
 20
6.76274
 30
0.0
 10
35.64184
 20
6.76274
 30
0.0
 10
35.64184
 20
6.76274
 30
0.0
 10
35.64184
 20
7.06274
 30
0.0
 10
35.64184
 20
7.06274
 30
0.0
 10
35.64184
 20
7.06274
 30
0.0
 10
34.29898
 20
7.06274
 30
0.0
 10
34.29898
 20
7.06274
 30
0.0
 10
34.29898
 20
7.06274
 30
0.0
 10
34.29898
 20
6.76274
 30
0.0
 10
34.29898
 20
6.76274
 30
0.0
 10
34.29898
 20
6.76274
 30
0.0
 10
33.09898
 20
6.76274
 30
0.0
 10
33.09898
 20
6.76274
 30
0.0
 10
33.09898
 20
6.76274
 30
0.0
 10
33.09898
 20
7.06274
 30
0.0
 10
33.09898
 20
7.06274
 30
0.0
 10
33.09898
 20
7.06274
 30
0.0
 10
31.75612
 20
7.06274
 30
0.0
 10
31.75612
 20
7.06274
 30
0.0
 10
31.75612
 20
7.06274
 30
0.0
 10
31.75612
 20
6.76274
 30
0.0
 10
31.75612
 20
6.76274
 30
0.0
 10
31.75612
 20
6.76274
 30
0.0
 10
30.55612
 20
6.76274
 30
0.0
 10
30.55612
 20
6.76274
 30
0.0
 10
30.55612
 20
6.76274
 30
0.0
 10
30.55612
 20
7.06274
 30
0.0
 10
30.55612
 20
7.06274
 30
0.0
 10
30.55612
 20
7.06274
 30
0.0
 10
29.21327
 20
7.06274
 30
0.0
 10
29.21327
 20
7.06274
 30
0.0
 10
29.21327
 20
7.06274
 30
0.0
 10
29.21327
 20
6.76274
 30
0.0
 10
29.21327
 20
6.76274
 30
0.0
 10
29.21327
 20
6.76274
 30
0.0
 10
28.01327
 20
6.76274
 30
0.0
 10
28.01327
 20
6.76274
 30
0.0
 10
28.01327
 20
6.76274
 30
0.0
 10
28.01327
 20
7.06274
 30
0.0
 10
28.01327
 20
7.06274
 30
0.0
 10
28.01327
 20
7.06274
 30
0.0
 10
26.67041
 20
7.06274
 30
0.0
 10
26.67041
 20
7.06274
 30
0.0
 10
26.67041
 20
7.06274
 30
0.0
 10
26.67041
 20
5.70274
 30
0.0
 10
26.67041
 20
5.70274
 30
0.0
 10
26.67041
 20
5.70274
 30
0.0
 10
26.97041
 20
5.70274
 30
0.0
 10
26.97041
 20
5.70274
 30
0.0
 10
26.97041
 20
5.70274
 30
0.0
 10
26.97041
 20
4.50274
 30
0.0
 10
26.97041
 20
4.50274
 30
0.0
 10
26.97041
 20
4.50274
 30
0.0
 10
26.67041
 20
4.50274
 30
0.0
 10
26.67041
 20
4.50274
 30
0.0
 10
26.67041
 20
4.50274
 30
0.0
 10
26.67041
 20
3.14274
 30
0.0
 10
26.67041
 20
3.14274
 30
0.0
 10
26.67041
 20
3.14274
 30
0.0
 10
26.97041
 20
3.14274
 30
0.0
 10
26.97041
 20
3.14274
 30
0.0
 10
26.97041
 20
3.14274
 30
0.0
 10
26.97041
 20
1.94274
 30
0.0
 10
26.97041
 20
1.94274
 30
0.0
 10
26.97041
 20
1.94274
 30
0.0
 10
26.67041
 20
1.94274
 30
0.0
 10
26.67041
 20
1.94274
 30
0.0
 10
26.67041
 20
1.94274
 30
0.0
 10
26.67041
 20
0.58274
 30
0.0
 10
26.67041
 20
0.58274
 30
0.0
 10
26.67041
 20
0.58274
 30
0.0
 10
26.97041
 20
0.58274
 30
0.0
 10
26.97041
 20
0.58274
 30
0.0
 10
26.97041
 20
0.58274
 30
0.0
 10
26.97041
 20
-0.61726
 30
0.0
 10
26.97041
 20
-0.61726
 30
0.0
 10
26.97041
 20
-0.61726
 30
0.0
 10
26.67041
 20
-0.61726
 30
0.0
 10
26.67041
 20
-0.61726
 30
0.0
 10
26.67041
 20
-0.61726
 30
0.0
 10
26.67041
 20
-1.97726
 30
0.0
 10
26.67041
 20
-1.97726
 30
0.0
 10
26.67041
 20
-1.97726
 30
0.0
 10
26.97041
 20
-1.97726
 30
0.0
 10
26.97041
 20
-1.97726
 30
0.0
 10
26.97041
 20
-1.97726
 30
0.0
 10
26.97041
 20
-3.17726
 30
0.0
 10
26.97041
 20
-3.17726
 30
0.0
 10
26.97041
 20
-3.17726
 30
0.0
 10
26.67041
 20
-3.17726
 30
0.0
 10
26.67041
 20
-3.17726
 30
0.0
 10
26.67041
 20
-3.17726
 30
0.0
 10
26.67041
 20
-4.53726
 30
0.0
 10
26.67041
 20
-4.53726
 30
0.0
  0
SPLINE
  5
62
330
1F
100
AcDbEntity
  8
layer 1
 62
   242
370
     9
100
AcDbSpline
210
0.0
220
0.0
230
1.0
 70
    11
 71
     3
 72
   143
 73
   139
 74
     0
 42
0.0000000001
 43
0.0000000001
 40
0.0
 40
0.0
 40
0.0
 40
0.0
 40
0.0217391304347826
 40
0.0217391304347826
 40
0.0217391304347826
 40
0.0434782608695652
 40
0.0434782608695652
 40
0.0434782608695652
 40
0.0652173913043478
 40
0.0652173913043478
 40
0.0652173913043478
 40
0.0869565217391304
 40
0.0869565217391304
 40
0.0869565217391304
 40
0.108695652173913
 40
0.108695652173913
 40
0.108695652173913
 40
0.1304347826086956
 40
0.1304347826086956
 40
0.1304347826086956
 40
0.1521739130434783
 40
0.1521739130434783
 40
0.1521739130434783
 40
0.1739130434782609
 40
0.1739130434782609
 40
0.1739130434782609
 40
0.1956521739130435
 40
0.1956521739130435
 40
0.1956521739130435
 40
0.2173913043478261
 40
0.2173913043478261
 40
0.2173913043478261
 40
0.2391304347826087
 40
0.2391304347826087
 40
0.2391304347826087
 40
0.2608695652173913
 40
0.2608695652173913
 40
0.2608695652173913
 40
0.2826086956521739
 40
0.2826086956521739
 40
0.2826086956521739
 40
0.3043478260869565
 40
0.3043478260869565
 40
0.3043478260869565
 40
0.3260869565217391
 40
0.3260869565217391
 40
0.3260869565217391
 40
0.3478260869565217
 40
0.3478260869565217
 40
0.3478260869565217
 40
0.3695652173913043
 40
0.3695652173913043
 40
0.3695652173913043
 40
0.3913043478260869
 40
0.3913043478260869
 40
0.3913043478260869
 40
0.4130434782608696
 40
0.4130434782608696
 40
0.4130434782608696
 40
0.4347826086956522
 40
0.4347826086956522
 40
0.4347826086956522
 40
0.4565217391304348
 40
0.4565217391304348
 40
0.4565217391304348
 40
0.4782608695652174
 40
0.4782608695652174
 40
0.4782608695652174
 40
0.5
 40
0.5
 40
0.5
 40
0.5217391304347826
 40
0.5217391304347826
 40
0.5217391304347826
 40
0.5434782608695652
 40
0.5434782608695652
 40
0.5434782608695652
 40
0.5652173913043478
 40
0.5652173913043478
 40
0.5652173913043478
 40
0.5869565217391304
 40
0.5869565217391304
 40
0.5869565217391304
 40
0.6086956521739131
 40
0.6086956521739131
 40
0.6086956521739131
 40
0.6304347826086957
 40
0.6304347826086957
 40
0.6304347826086957
 40
0.6521739130434783
 40
0.6521739130434783
 40
0.6521739130434783
 40
0.6739130434782609
 40
0.6739130434782609
 40
0.6739130434782609
 40
0.6956521739130435
 40
0.6956521739130435
 40
0.6956521739130435
 40
0.717391304347826
 40
0.717391304347826
 40
0.717391304347826
 40
0.7391304347826086
 40
0.7391304347826086
 40
0.7391304347826086
 40
0.7608695652173912
 40
0.7608695652173912
 40
0.7608695652173912
 40
0.7826086956521738
 40
0.7826086956521738
 40
0.7826086956521738
 40
0.8043478260869565
 40
0.8043478260869565
 40
0.8043478260869565
 40
0.8260869565217391
 40
0.8260869565217391
 40
0.8260869565217391
 40
0.8478260869565217
 40
0.8478260869565217
 40
0.8478260869565217
 40
0.8695652173913043
 40
0.8695652173913043
 40
0.8695652173913043
 40
0.8913043478260869
 40
0.8913043478260869
 40
0.8913043478260869
 40
0.9130434782608695
 40
0.9130434782608695
 40
0.9130434782608695
 40
0.9347826086956521
 40
0.9347826086956521
 40
0.9347826086956521
 40
0.9565217391304348
 40
0.9565217391304348
 40
0.9565217391304348
 40
0.9782608695652174
 40
0.9782608695652174
 40
0.9782608695652174
 40
1.0
 40
1.0
 40
1.0
 40
1.0
 10
28.01327
 20
8.06274
 30
0.0
 10
28.01327
 20
8.06274
 30
0.0
 10
29.21327
 20
8.06274
 30
0.0
 10
29.21327
 20
8.06274
 30
0.0
 10
29.21327
 20
8.06274
 30
0.0
 10
29.21327
 20
8.36274
 30
0.0
 10
29.21327
 20
8.36274
 30
0.0
 10
29.21327
 20
8.36274
 30
0.0
 10
30.55612
 20
8.36274
 30
0.0
 10
30.55612
 20
8.36274
 30
0.0
 10
30.55612
 20
8.36274
 30
0.0
 10
30.55612
 20
8.06274
 30
0.0
 10
30.55612
 20
8.06274
 30
0.0
 10
30.55612
 20
8.06274
 30
0.0
 10
31.75612
 20
8.06274
 30
0.0
 10
31.75612
 20
8.06274
 30
0.0
 10
31.75612
 20
8.06274
 30
0.0
 10
31.75612
 20
8.36274
 30
0.0
 10
31.75612
 20
8.36274
 30
0.0
 10
31.75612
 20
8.36274
 30
0.0
 10
33.09898
 20
8.36274
 30
0.0
 10
33.09898
 20
8.36274
 30
0.0
 10
33.09898
 20
8.36274
 30
0.0
 10
33.09898
 20
8.06274
 30
0.0
 10
33.09898
 20
8.06274
 30
0.0
 10
33.09898
 20
8.06274
 30
0.0
 10
34.29898
 20
8.06274
 30
0.0
 10
34.29898
 20
8.06274
 30
0.0
 10
34.29898
 20
8.06274
 30
0.0
 10
34.29898
 20
8.36274
 30
0.0
 10
34.29898
 20
8.36274
 30
0.0
 10
34.29898
 20
8.36274
 30
0.0
 10
35.64184
 20
8.36274
 30
0.0
 10
35.64184
 20
8.36274
 30
0.0
 10
35.64184
 20
8.36274
 30
0.0
 10
35.64184
 20
8.06274
 30
0.0
 10
35.64184
 20
8.06274
 30
0.0
 10
35.64184
 20
8.06274
 30
0.0
 10
36.84184
 20
8.06274
 30
0.0
 10
36.84184
 20
8.06274
 30
0.0
 10
36.84184
 20
8.06274
 30
0.0
 10
36.84184
 20
8.36274
 30
0.0
 10
36.84184
 20
8.36274
 30
0.0
 10
36.84184
 20
8.36274
 30
0.0
 10
38.1847
 20
8.36274
 30
0.0
 10
38.1847
 20
8.36274
 30
0.0
 10
38.1847
 20
8.36274
 30
0.0
 10
38.1847
 20
8.06274
 30
0.0
 10
38.1847
 20
8.06274
 30
0.0
 10
38.1847
 20
8.06274
 30
0.0
 10
39.3847
 20
8.06274
 30
0.0
 10
39.3847
 20
8.06274
 30
0.0
 10
39.3847
 20
8.06274
 30
0.0
 10
39.3847
 20
8.36274
 30
0.0
 10
39.3847
 20
8.36274
 30
0.0
 10
39.3847
 20
8.36274
 30
0.0
 10
40.72755
 20
8.36274
 30
0.0
 10
40.72755
 20
8.36274
 30
0.0
 10
40.72755
 20
8.36274
 30
0.0
 10
40.72755
 20
8.06274
 30
0.0
 10
40.72755
 20
8.06274
 30
0.0
 10
40.72755
 20
8.06274
 30
0.0
 10
41.92755
 20
8.06274
 30
0.0
 10
41.92755
 20
8.06274
 30
0.0
 10
41.92755
 20
8.06274
 30
0.0
 10
41.92755
 20
8.36274
 30
0.0
 10
41.92755
 20
8.36274
 30
0.0
 10
41.92755
 20
8.36274
 30
0.0
 10
43.27041
 20
8.36274
 30
0.0
 10
43.27041
 20
8.36274
 30
0.0
 10
43.27041
 20
8.36274
 30
0.0
 10
43.27041
 20
9.56274
 30
0.0
 10
43.27041
 20
9.56274
 30
0.0
 10
43.27041
 20
9.56274
 30
0.0
 10
42.97041
 20
9.56274
 30
0.0
 10
42.97041
 20
9.56274
 30
0.0
 10
42.97041
 20
9.56274
 30
0.0
 10
42.97041
 20
10.56274
 30
0.0
 10
42.97041
 20
10.56274
 30
0.0
 10
42.97041
 20
10.56274
 30
0.0
 10
43.27041
 20
10.56274
 30
0.0
 10
43.27041
 20
10.56274
 30
0.0
 10
43.27041
 20
10.56274
 30
0.0
 10
43.27041
 20
11.76274
 30
0.0
 10
43.27041
 20
11.76274
 30
0.0
 10
43.27041
 20
11.76274
 30
0.0
 10
42.97041
 20
11.76274
 30
0.0
 10
42.97041
 20
11.76274
 30
0.0
 10
42.97041
 20
11.76274
 30
0.0
 10
42.97041
 20
12.76274
 30
0.0
 10
42.97041
 20
12.76274
 30
0.0
 10
42.97041
 20
12.76274
 30
0.0
 10
43.27041
 20
12.76274
 30
0.0
 10
43.27041
 20
12.76274
 30
0.0
 10
43.27041
 20
12.76274
 30
0.0
 10
43.27041
 20
13.76274
 30
0.0
 10
43.27041
 20
13.76274
 30
0.0
 10
43.27041
 20
13.8729
 30
0.0
 10
43.18057
 20
13.96274
 30
0.0
 10
43.07041
 20
13.96274
 30
0.0
 10
43.07041
 20
13.96274
 30
0.0
 10
26.87041
 20
13.96274
 30
0.0
 10
26.87041
 20
13.96274
 30
0.0
 10
26.76025
 20
13.96274
 30
0.0
 10
26.67041
 20
13.8729
 30
0.0
 10
26.67041
 20
13.76274
 30
0.0
 10
26.67041
 20
13.76274
 30
0.0
 10
26.67041
 20
12.76274
 30
0.0
 10
26.67041
 20
12.76274
 30
0.0
 10
26.67041
 20
12.76274
 30
0.0
 10
26.97041
 20
12.76274
 30
0.0
 10
26.97041
 20
12.76274
 30
0.0
 10
26.97041
 20
12.76274
 30
0.0
 10
26.97041
 20
11.76274
 30
0.0
 10
26.97041
 20
11.76274
 30
0.0
 10
26.97041
 20
11.76274
 30
0.0
 10
26.67041
 20
11.76274
 30
0.0
 10
26.67041
 20
11.76274
 30
0.0
 10
26.67041
 20
11.76274
 30
0.0
 10
26.67041
 20
10.56274
 30
0.0
 10
26.67041
 20
10.56274
 30
0.0
 10
26.67041
 20
10.56274
 30
0.0
 10
26.97041
 20
10.56274
 30
0.0
 10
26.97041
 20
10.56274
 30
0.0
 10
26.97041
 20
10.56274
 30
0.0
 10
26.97041
 20
9.56274
 30
0.0
 10
26.97041
 20
9.56274
 30
0.0
 10
26.97041
 20
9.56274
 30
0.0
 10
26.67041
 20
9.56274
 30
0.0
 10
26.67041
 20
9.56274
 30
0.0
 10
26.67041
 20
9.56274
 30
0.0
 10
26.67041
 20
8.36274
 30
0.0
 10
26.67041
 20
8.36274
 30
0.0
 10
26.67041
 20
8.36274
 30
0.0
 10
28.01327
 20
8.36274
 30
0.0
 10
28.01327
 20
8.36274
 30
0.0
 10
28.01327
 20
8.36274
 30
0.0
 10
28.01327
 20
8.06274
 30
0.0
 10
28.01327
 20
8.06274
 30
0.0
  0
SPLINE
  5
63
330
1F
100
AcDbEntity
  8
layer 1
 62
   250
370
     9
100
AcDbSpline
210
0.0
220
0.0
230
1.0
 70
    11
 71
     3
 72
    17
 73
    13
 74
     0
 42
0.0000000001
 43
0.0000000001
 40
0.0
 40
0.0
 40
0.0
 40
0.0
 40
0.25
 40
0.25
 40
0.25
 40
0.5
 40
0.5
 40
0.5
 40
0.75
 40
0.75
 40
0.75
 40
1.0
 40
1.0
 40
1.0
 40
1.0
 10
26.67041
 20
13.36274
 30
0.0
 10
26.67041
 20
13.36274
 30
0.0
 10
43.27041
 20
13.36274
 30
0.0
 10
43.27041
 20
13.36274
 30
0.0
 10
43.27041
 20
13.36274
 30
0.0
 10
43.27041
 20
13.66274
 30
0.0
 10
43.27041
 20
13.66274
 30
0.0
 10
43.27041
 20
13.66274
 30
0.0
 10
26.67041
 20
13.66274
 30
0.0
 10
26.67041
 20
13.66274
 30
0.0
 10
26.67041
 20
13.66274
 30
0.0
 10
26.67041
 20
13.36274
 30
0.0
 10
26.67041
 20
13.36274
 30
0.0
  0
SPLINE
  5
64
330
1F
100
AcDbEntity
  8
layer 1
 62
   242
370
     9
100
AcDbSpline
210
0.0
220
0.0
230
1.0
 70
    11
 71
     3
 72
    44
 73
    40
 74
     0
 42
0.0000000001
 43
0.0000000001
 40
0.0
 40
0.0
 40
0.0
 40
0.0
 40
0.0769230769230769
 40
0.0769230769230769
 40
0.0769230769230769
 40
0.1538461538461539
 40
0.1538461538461539
 40
0.1538461538461539
 40
0.2307692307692308
 40
0.2307692307692308
 40
0.2307692307692308
 40
0.3076923076923077
 40
0.3076923076923077
 40
0.3076923076923077
 40
0.3846153846153846
 40
0.3846153846153846
 40
0.3846153846153846
 40
0.4615384615384616
 40
0.4615384615384616
 40
0.4615384615384616
 40
0.5384615384615385
 40
0.5384615384615385
 40
0.5384615384615385
 40
0.6153846153846154
 40
0.6153846153846154
 40
0.6153846153846154
 40
0.6923076923076923
 40
0.6923076923076923
 40
0.6923076923076923
 40
0.7692307692307693
 40
0.7692307692307693
 40
0.7692307692307693
 40
0.8461538461538463
 40
0.8461538461538463
 40
0.8461538461538463
 40
0.9230769230769231
 40
0.9230769230769231
 40
0.9230769230769231
 40
1.0
 40
1.0
 40
1.0
 40
1.0
 10
69.41249
 20
-4.38726
 30
0.0
 10
69.41249
 20
-4.38726
 30
0.0
 10
61.11249
 20
-4.38726
 30
0.0
 10
61.11249
 20
-4.38726
 30
0.0
 10
61.11249
 20
-4.38726
 30
0.0
 10
61.11249
 20
-1.37813
 30
0.0
 10
61.11249
 20
-1.37813
 30
0.0
 10
61.54076
 20
-1.05742
 30
0.0
 10
61.9684
 20
-0.73534
 30
0.0
 10
62.38649
 20
-0.40157
 30
0.0
 10
62.81797
 20
-0.05711
 30
0.0
 10
63.24537
 20
0.30298
 30
0.0
 10
63.63638
 20
0.69317
 30
0.0
 10
64.1432
 20
1.19893
 30
0.0
 10
64.79183
 20
1.95416
 30
0.0
 10
64.79183
 20
2.7145
 30
0.0
 10
64.79183
 20
2.78834
 30
0.0
 10
64.78198
 20
2.86152
 30
0.0
 10
64.76271
 20
2.93279
 30
0.0
 10
64.68435
 20
3.22258
 30
0.0
 10
64.46093
 20
3.45277
 30
0.0
 10
64.21134
 20
3.6073
 30
0.0
 10
63.8831
 20
3.81053
 30
0.0
 10
63.48594
 20
3.90361
 30
0.0
 10
63.10217
 20
3.90361
 30
0.0
 10
62.24544
 20
3.90361
 30
0.0
 10
61.82636
 20
3.6153
 30
0.0
 10
61.36194
 20
2.92013
 30
0.0
 10
61.36194
 20
2.92013
 30
0.0
 10
61.11249
 20
2.54673
 30
0.0
 10
61.11249
 20
2.54673
 30
0.0
 10
61.11249
 20
2.54673
 30
0.0
 10
61.11249
 20
6.91274
 30
0.0
 10
61.11249
 20
6.91274
 30
0.0
 10
61.11249
 20
6.91274
 30
0.0
 10
69.41249
 20
6.91274
 30
0.0
 10
69.41249
 20
6.91274
 30
0.0
 10
69.41249
 20
6.91274
 30
0.0
 10
69.41249
 20
-4.38726
 30
0.0
 10
69.41249
 20
-4.38726
 30
0.0
  0
SPLINE
  5
65
330
1F
100
AcDbEntity
  8
layer 1
 62
   242
370
     9
100
AcDbSpline
210
0.0
220
0.0
230
1.0
 70
    11
 71
     3
 72
    44
 73
    40
 74
     0
 42
0.0000000001
 43
0.0000000001
 40
0.0
 40
0.0
 40
0.0
 40
0.0
 40
0.0769230769230769
 40
0.0769230769230769
 40
0.0769230769230769
 40
0.1538461538461539
 40
0.1538461538461539
 40
0.1538461538461539
 40
0.2307692307692308
 40
0.2307692307692308
 40
0.2307692307692308
 40
0.3076923076923077
 40
0.3076923076923077
 40
0.3076923076923077
 40
0.3846153846153846
 40
0.3846153846153846
 40
0.3846153846153846
 40
0.4615384615384616
 40
0.4615384615384616
 40
0.4615384615384616
 40
0.5384615384615385
 40
0.5384615384615385
 40
0.5384615384615385
 40
0.6153846153846154
 40
0.6153846153846154
 40
0.6153846153846154
 40
0.6923076923076923
 40
0.6923076923076923
 40
0.6923076923076923
 40
0.7692307692307693
 40
0.7692307692307693
 40
0.7692307692307693
 40
0.8461538461538463
 40
0.8461538461538463
 40
0.8461538461538463
 40
0.9230769230769231
 40
0.9230769230769231
 40
0.9230769230769231
 40
1.0
 40
1.0
 40
1.0
 40
1.0
 10
52.57041
 20
-4.38726
 30
0.0
 10
52.57041
 20
-4.38726
 30
0.0
 10
60.87041
 20
-4.38726
 30
0.0
 10
60.87041
 20
-4.38726
 30
0.0
 10
60.87041
 20
-4.38726
 30
0.0
 10
60.87041
 20
-1.37813
 30
0.0
 10
60.87041
 20
-1.37813
 30
0.0
 10
60.44214
 20
-1.05742
 30
0.0
 10
60.01451
 20
-0.73534
 30
0.0
 10
59.59642
 20
-0.40157
 30
0.0
 10
59.16494
 20
-0.05711
 30
0.0
 10
58.73754
 20
0.30298
 30
0.0
 10
58.34653
 20
0.69317
 30
0.0
 10
57.8397
 20
1.19893
 30
0.0
 10
57.19108
 20
1.95416
 30
0.0
 10
57.19108
 20
2.7145
 30
0.0
 10
57.19108
 20
2.78834
 30
0.0
 10
57.20093
 20
2.86152
 30
0.0
 10
57.2202
 20
2.93279
 30
0.0
 10
57.29856
 20
3.22258
 30
0.0
 10
57.52198
 20
3.45277
 30
0.0
 10
57.77157
 20
3.6073
 30
0.0
 10
58.09981
 20
3.81053
 30
0.0
 10
58.49697
 20
3.90361
 30
0.0
 10
58.88074
 20
3.90361
 30
0.0
 10
59.73746
 20
3.90361
 30
0.0
 10
60.15654
 20
3.6153
 30
0.0
 10
60.62096
 20
2.92013
 30
0.0
 10
60.62096
 20
2.92013
 30
0.0
 10
60.87041
 20
2.54673
 30
0.0
 10
60.87041
 20
2.54673
 30
0.0
 10
60.87041
 20
2.54673
 30
0.0
 10
60.87041
 20
6.91274
 30
0.0
 10
60.87041
 20
6.91274
 30
0.0
 10
60.87041
 20
6.91274
 30
0.0
 10
52.57041
 20
6.91274
 30
0.0
 10
52.57041
 20
6.91274
 30
0.0
 10
52.57041
 20
6.91274
 30
0.0
 10
52.57041
 20
-4.38726
 30
0.0
 10
52.57041
 20
-4.38726
 30
0.0
  0
SPLINE
  5
66
330
1F
100
AcDbEntity
  8
layer 1
 62
   242
370
     9
100
AcDbSpline
210
0.0
220
0.0
230
1.0
 70
    11
 71
     3
 72
    23
 73
    19
 74
     0
 42
0.0000000001
 43
0.0000000001
 40
0.0
 40
0.0
 40
0.0
 40
0.0
 40
0.1666666666666667
 40
0.1666666666666667
 40
0.1666666666666667
 40
0.3333333333333333
 40
0.3333333333333333
 40
0.3333333333333333
 40
0.5
 40
0.5
 40
0.5
 40
0.6666666666666666
 40
0.6666666666666666
 40
0.6666666666666666
 40
0.8333333333333333
 40
0.8333333333333333
 40
0.8333333333333333
 40
1.0
 40
1.0
 40
1.0
 40
1.0
 10
60.87041
 20
-7.4443
 30
0.0
 10
61.36782
 20
-6.69974
 30
0.0
 10
61.86524
 20
-6.32747
 30
0.0
 10
62.86009
 20
-6.32747
 30
0.0
 10
63.95838
 20
-6.32747
 30
0.0
 10
64.84975
 20
-6.99459
 30
0.0
 10
64.84975
 20
-7.81658
 30
0.0
 10
64.84975
 20
-9.3057
 30
0.0
 10
62.86009
 20
-10.79483
 30
0.0
 10
60.87041
 20
-12.28394
 30
0.0
 10
58.88074
 20
-10.79483
 30
0.0
 10
56.89108
 20
-9.3057
 30
0.0
 10
56.89108
 20
-7.81658
 30
0.0
 10
56.89108
 20
-6.99459
 30
0.0
 10
57.78245
 20
-6.32747
 30
0.0
 10
58.88074
 20
-6.32747
 30
0.0
 10
59.87558
 20
-6.32747
 30
0.0
 10
60.373
 20
-6.69974
 30
0.0
 10
60.87041
 20
-7.4443
 30
0.0
  0
SPLINE
  5
67
330
1F
100
AcDbEntity
  8
layer 1
 62
   242
370
     9
100
AcDbSpline
210
0.0
220
0.0
230
1.0
 70
    11
 71
     3
 72
   113
 73
   109
 74
     0
 42
0.0000000001
 43
0.0000000001
 40
0.0
 40
0.0
 40
0.0
 40
0.0
 40
0.0277777777777778
 40
0.0277777777777778
 40
0.0277777777777778
 40
0.0555555555555556
 40
0.0555555555555556
 40
0.0555555555555556
 40
0.0833333333333333
 40
0.0833333333333333
 40
0.0833333333333333
 40
0.1111111111111111
 40
0.1111111111111111
 40
0.1111111111111111
 40
0.1388888888888889
 40
0.1388888888888889
 40
0.1388888888888889
 40
0.1666666666666667
 40
0.1666666666666667
 40
0.1666666666666667
 40
0.1944444444444444
 40
0.1944444444444444
 40
0.1944444444444444
 40
0.2222222222222222
 40
0.2222222222222222
 40
0.2222222222222222
 40
0.25
 40
0.25
 40
0.25
 40
0.2777777777777778
 40
0.2777777777777778
 40
0.2777777777777778
 40
0.3055555555555555
 40
0.3055555555555555
 40
0.3055555555555555
 40
0.3333333333333333
 40
0.3333333333333333
 40
0.3333333333333333
 40
0.3611111111111111
 40
0.3611111111111111
 40
0.3611111111111111
 40
0.3888888888888888
 40
0.3888888888888888
 40
0.3888888888888888
 40
0.4166666666666666
 40
0.4166666666666666
 40
0.4166666666666666
 40
0.4444444444444444
 40
0.4444444444444444
 40
0.4444444444444444
 40
0.4722222222222222
 40
0.4722222222222222
 40
0.4722222222222222
 40
0.5
 40
0.5
 40
0.5
 40
0.5277777777777778
 40
0.5277777777777778
 40
0.5277777777777778
 40
0.5555555555555556
 40
0.5555555555555556
 40
0.5555555555555556
 40
0.5833333333333333
 40
0.5833333333333333
 40
0.5833333333333333
 40
0.611111111111111
 40
0.611111111111111
 40
0.611111111111111
 40
0.6388888888888888
 40
0.6388888888888888
 40
0.6388888888888888
 40
0.6666666666666666
 40
0.6666666666666666
 40
0.6666666666666666
 40
0.6944444444444444
 40
0.6944444444444444
 40
0.6944444444444444
 40
0.7222222222222222
 40
0.7222222222222222
 40
0.7222222222222222
 40
0.75
 40
0.75
 40
0.75
 40
0.7777777777777777
 40
0.7777777777777777
 40
0.7777777777777777
 40
0.8055555555555555
 40
0.8055555555555555
 40
0.8055555555555555
 40
0.8333333333333333
 40
0.8333333333333333
 40
0.8333333333333333
 40
0.861111111111111
 40
0.861111111111111
 40
0.861111111111111
 40
0.8888888888888888
 40
0.8888888888888888
 40
0.8888888888888888
 40
0.9166666666666666
 40
0.9166666666666666
 40
0.9166666666666666
 40
0.9444444444444444
 40
0.9444444444444444
 40
0.9444444444444444
 40
0.9722222222222222
 40
0.9722222222222222
 40
0.9722222222222222
 40
1.0
 40
1.0
 40
1.0
 40
1.0
 10
43.88041
 20
-3.17726
 30
0.0
 10
43.88041
 20
-3.17726
 30
0.0
 10
43.88041
 20
-1.97726
 30
0.0
 10
43.88041
 20
-1.97726
 30
0.0
 10
43.88041
 20
-1.97726
 30
0.0
 10
44.18041
 20
-1.97726
 30
0.0
 10
44.18041
 20
-1.97726
 30
0.0
 10
44.18041
 20
-1.97726
 30
0.0
 10
44.18041
 20
-0.61726
 30
0.0
 10
44.18041
 20
-0.61726
 30
0.0
 10
44.18041
 20
-0.61726
 30
0.0
 10
43.88041
 20
-0.61726
 30
0.0
 10
43.88041
 20
-0.61726
 30
0.0
 10
43.88041
 20
-0.61726
 30
0.0
 10
43.88041
 20
0.58274
 30
0.0
 10
43.88041
 20
0.58274
 30
0.0
 10
43.88041
 20
0.58274
 30
0.0
 10
44.18041
 20
0.58274
 30
0.0
 10
44.18041
 20
0.58274
 30
0.0
 10
44.18041
 20
0.58274
 30
0.0
 10
44.18041
 20
1.94274
 30
0.0
 10
44.18041
 20
1.94274
 30
0.0
 10
44.18041
 20
1.94274
 30
0.0
 10
43.88041
 20
1.94274
 30
0.0
 10
43.88041
 20
1.94274
 30
0.0
 10
43.88041
 20
1.94274
 30
0.0
 10
43.88041
 20
3.14274
 30
0.0
 10
43.88041
 20
3.14274
 30
0.0
 10
43.88041
 20
3.14274
 30
0.0
 10
44.18041
 20
3.14274
 30
0.0
 10
44.18041
 20
3.14274
 30
0.0
 10
44.18041
 20
3.14274
 30
0.0
 10
44.18041
 20
4.50274
 30
0.0
 10
44.18041
 20
4.50274
 30
0.0
 10
44.18041
 20
4.50274
 30
0.0
 10
43.88041
 20
4.50274
 30
0.0
 10
43.88041
 20
4.50274
 30
0.0
 10
43.88041
 20
4.50274
 30
0.0
 10
43.88041
 20
5.70274
 30
0.0
 10
43.88041
 20
5.70274
 30
0.0
 10
43.88041
 20
5.70274
 30
0.0
 10
44.18041
 20
5.70274
 30
0.0
 10
44.18041
 20
5.70274
 30
0.0
 10
44.18041
 20
5.70274
 30
0.0
 10
44.18041
 20
6.76274
 30
0.0
 10
44.18041
 20
6.76274
 30
0.0
 10
44.18041
 20
6.76274
 30
0.0
 10
45.38041
 20
6.76274
 30
0.0
 10
45.38041
 20
6.76274
 30
0.0
 10
45.38041
 20
6.76274
 30
0.0
 10
45.38041
 20
7.06274
 30
0.0
 10
45.38041
 20
7.06274
 30
0.0
 10
45.38041
 20
7.06274
 30
0.0
 10
46.38041
 20
7.06274
 30
0.0
 10
46.38041
 20
7.06274
 30
0.0
 10
46.38041
 20
7.06274
 30
0.0
 10
46.38041
 20
6.76274
 30
0.0
 10
46.38041
 20
6.76274
 30
0.0
 10
46.38041
 20
6.76274
 30
0.0
 10
47.58041
 20
6.76274
 30
0.0
 10
47.58041
 20
6.76274
 30
0.0
 10
47.58041
 20
6.76274
 30
0.0
 10
47.58041
 20
7.06274
 30
0.0
 10
47.58041
 20
7.06274
 30
0.0
 10
47.58041
 20
7.06274
 30
0.0
 10
48.58041
 20
7.06274
 30
0.0
 10
48.58041
 20
7.06274
 30
0.0
 10
48.58041
 20
7.06274
 30
0.0
 10
48.58041
 20
6.76274
 30
0.0
 10
48.58041
 20
6.76274
 30
0.0
 10
48.58041
 20
6.76274
 30
0.0
 10
49.18041
 20
6.76274
 30
0.0
 10
49.18041
 20
6.76274
 30
0.0
 10
49.18041
 20
6.76274
 30
0.0
 10
49.18041
 20
-4.23726
 30
0.0
 10
49.18041
 20
-4.23726
 30
0.0
 10
49.18041
 20
-4.23726
 30
0.0
 10
48.58041
 20
-4.23726
 30
0.0
 10
48.58041
 20
-4.23726
 30
0.0
 10
48.58041
 20
-4.23726
 30
0.0
 10
48.58041
 20
-4.53726
 30
0.0
 10
48.58041
 20
-4.53726
 30
0.0
 10
48.58041
 20
-4.53726
 30
0.0
 10
47.58041
 20
-4.53726
 30
0.0
 10
47.58041
 20
-4.53726
 30
0.0
 10
47.58041
 20
-4.53726
 30
0.0
 10
47.58041
 20
-4.23726
 30
0.0
 10
47.58041
 20
-4.23726
 30
0.0
 10
47.58041
 20
-4.23726
 30
0.0
 10
46.38041
 20
-4.23726
 30
0.0
 10
46.38041
 20
-4.23726
 30
0.0
 10
46.38041
 20
-4.23726
 30
0.0
 10
46.38041
 20
-4.53726
 30
0.0
 10
46.38041
 20
-4.53726
 30
0.0
 10
46.38041
 20
-4.53726
 30
0.0
 10
45.38041
 20
-4.53726
 30
0.0
 10
45.38041
 20
-4.53726
 30
0.0
 10
45.38041
 20
-4.53726
 30
0.0
 10
45.38041
 20
-4.23726
 30
0.0
 10
45.38041
 20
-4.23726
 30
0.0
 10
45.38041
 20
-4.23726
 30
0.0
 10
44.18041
 20
-4.23726
 30
0.0
 10
44.18041
 20
-4.23726
 30
0.0
 10
44.18041
 20
-4.23726
 30
0.0
 10
44.18041
 20
-3.17726
 30
0.0
 10
44.18041
 20
-3.17726
 30
0.0
 10
44.18041
 20
-3.17726
 30
0.0
 10
43.88041
 20
-3.17726
 30
0.0
 10
43.88041
 20
-3.17726
 30
0.0
  0
SPLINE
  5
68
330
1F
100
AcDbEntity
  8
layer 1
 62
   242
370
     9
100
AcDbSpline
210
0.0
220
0.0
230
1.0
 70
    11
 71
     3
 72
   143
 73
   139
 74
     0
 42
0.0000000001
 43
0.0000000001
 40
0.0
 40
0.0
 40
0.0
 40
0.0
 40
0.0217391304347826
 40
0.0217391304347826
 40
0.0217391304347826
 40
0.0434782608695652
 40
0.0434782608695652
 40
0.0434782608695652
 40
0.0652173913043478
 40
0.0652173913043478
 40
0.0652173913043478
 40
0.0869565217391304
 40
0.0869565217391304
 40
0.0869565217391304
 40
0.108695652173913
 40
0.108695652173913
 40
0.108695652173913
 40
0.1304347826086956
 40
0.1304347826086956
 40
0.1304347826086956
 40
0.1521739130434783
 40
0.1521739130434783
 40
0.1521739130434783
 40
0.1739130434782609
 40
0.1739130434782609
 40
0.1739130434782609
 40
0.1956521739130435
 40
0.1956521739130435
 40
0.1956521739130435
 40
0.2173913043478261
 40
0.2173913043478261
 40
0.2173913043478261
 40
0.2391304347826087
 40
0.2391304347826087
 40
0.2391304347826087
 40
0.2608695652173913
 40
0.2608695652173913
 40
0.2608695652173913
 40
0.2826086956521739
 40
0.2826086956521739
 40
0.2826086956521739
 40
0.3043478260869565
 40
0.3043478260869565
 40
0.3043478260869565
 40
0.3260869565217391
 40
0.3260869565217391
 40
0.3260869565217391
 40
0.3478260869565217
 40
0.3478260869565217
 40
0.3478260869565217
 40
0.3695652173913043
 40
0.3695652173913043
 40
0.3695652173913043
 40
0.3913043478260869
 40
0.3913043478260869
 40
0.3913043478260869
 40
0.4130434782608696
 40
0.4130434782608696
 40
0.4130434782608696
 40
0.4347826086956522
 40
0.4347826086956522
 40
0.4347826086956522
 40
0.4565217391304348
 40
0.4565217391304348
 40
0.4565217391304348
 40
0.4782608695652174
 40
0.4782608695652174
 40
0.4782608695652174
 40
0.5
 40
0.5
 40
0.5
 40
0.5217391304347826
 40
0.5217391304347826
 40
0.5217391304347826
 40
0.5434782608695652
 40
0.5434782608695652
 40
0.5434782608695652
 40
0.5652173913043478
 40
0.5652173913043478
 40
0.5652173913043478
 40
0.5869565217391304
 40
0.5869565217391304
 40
0.5869565217391304
 40
0.6086956521739131
 40
0.6086956521739131
 40
0.6086956521739131
 40
0.6304347826086957
 40
0.6304347826086957
 40
0.6304347826086957
 40
0.6521739130434783
 40
0.6521739130434783
 40
0.6521739130434783
 40
0.6739130434782609
 40
0.6739130434782609
 40
0.6739130434782609
 40
0.6956521739130435
 40
0.6956521739130435
 40
0.6956521739130435
 40
0.717391304347826
 40
0.717391304347826
 40
0.717391304347826
 40
0.7391304347826086
 40
0.7391304347826086
 40
0.7391304347826086
 40
0.7608695652173912
 40
0.7608695652173912
 40
0.7608695652173912
 40
0.7826086956521738
 40
0.7826086956521738
 40
0.7826086956521738
 40
0.8043478260869565
 40
0.8043478260869565
 40
0.8043478260869565
 40
0.8260869565217391
 40
0.8260869565217391
 40
0.8260869565217391
 40
0.8478260869565217
 40
0.8478260869565217
 40
0.8478260869565217
 40
0.8695652173913043
 40
0.8695652173913043
 40
0.8695652173913043
 40
0.8913043478260869
 40
0.8913043478260869
 40
0.8913043478260869
 40
0.9130434782608695
 40
0.9130434782608695
 40
0.9130434782608695
 40
0.9347826086956521
 40
0.9347826086956521
 40
0.9347826086956521
 40
0.9565217391304348
 40
0.9565217391304348
 40
0.9565217391304348
 40
0.9782608695652174
 40
0.9782608695652174
 40
0.9782608695652174
 40
1.0
 40
1.0
 40
1.0
 40
1.0
 10
28.01327
 20
-4.83327
 30
0.0
 10
28.01327
 20
-4.83327
 30
0.0
 10
29.21327
 20
-4.83327
 30
0.0
 10
29.21327
 20
-4.83327
 30
0.0
 10
29.21327
 20
-4.83327
 30
0.0
 10
29.21327
 20
-5.13327
 30
0.0
 10
29.21327
 20
-5.13327
 30
0.0
 10
29.21327
 20
-5.13327
 30
0.0
 10
30.55612
 20
-5.13327
 30
0.0
 10
30.55612
 20
-5.13327
 30
0.0
 10
30.55612
 20
-5.13327
 30
0.0
 10
30.55612
 20
-4.83327
 30
0.0
 10
30.55612
 20
-4.83327
 30
0.0
 10
30.55612
 20
-4.83327
 30
0.0
 10
31.75612
 20
-4.83327
 30
0.0
 10
31.75612
 20
-4.83327
 30
0.0
 10
31.75612
 20
-4.83327
 30
0.0
 10
31.75612
 20
-5.13327
 30
0.0
 10
31.75612
 20
-5.13327
 30
0.0
 10
31.75612
 20
-5.13327
 30
0.0
 10
33.09898
 20
-5.13327
 30
0.0
 10
33.09898
 20
-5.13327
 30
0.0
 10
33.09898
 20
-5.13327
 30
0.0
 10
33.09898
 20
-4.83327
 30
0.0
 10
33.09898
 20
-4.83327
 30
0.0
 10
33.09898
 20
-4.83327
 30
0.0
 10
34.29898
 20
-4.83327
 30
0.0
 10
34.29898
 20
-4.83327
 30
0.0
 10
34.29898
 20
-4.83327
 30
0.0
 10
34.29898
 20
-5.13327
 30
0.0
 10
34.29898
 20
-5.13327
 30
0.0
 10
34.29898
 20
-5.13327
 30
0.0
 10
35.64184
 20
-5.13327
 30
0.0
 10
35.64184
 20
-5.13327
 30
0.0
 10
35.64184
 20
-5.13327
 30
0.0
 10
35.64184
 20
-4.83327
 30
0.0
 10
35.64184
 20
-4.83327
 30
0.0
 10
35.64184
 20
-4.83327
 30
0.0
 10
36.84184
 20
-4.83327
 30
0.0
 10
36.84184
 20
-4.83327
 30
0.0
 10
36.84184
 20
-4.83327
 30
0.0
 10
36.84184
 20
-5.13327
 30
0.0
 10
36.84184
 20
-5.13327
 30
0.0
 10
36.84184
 20
-5.13327
 30
0.0
 10
38.1847
 20
-5.13327
 30
0.0
 10
38.1847
 20
-5.13327
 30
0.0
 10
38.1847
 20
-5.13327
 30
0.0
 10
38.1847
 20
-4.83327
 30
0.0
 10
38.1847
 20
-4.83327
 30
0.0
 10
38.1847
 20
-4.83327
 30
0.0
 10
39.3847
 20
-4.83327
 30
0.0
 10
39.3847
 20
-4.83327
 30
0.0
 10
39.3847
 20
-4.83327
 30
0.0
 10
39.3847
 20
-5.13327
 30
0.0
 10
39.3847
 20
-5.13327
 30
0.0
 10
39.3847
 20
-5.13327
 30
0.0
 10
40.72755
 20
-5.13327
 30
0.0
 10
40.72755
 20
-5.13327
 30
0.0
 10
40.72755
 20
-5.13327
 30
0.0
 10
40.72755
 20
-4.83327
 30
0.0
 10
40.72755
 20
-4.83327
 30
0.0
 10
40.72755
 20
-4.83327
 30
0.0
 10
41.92755
 20
-4.83327
 30
0.0
 10
41.92755
 20
-4.83327
 30
0.0
 10
41.92755
 20
-4.83327
 30
0.0
 10
41.92755
 20
-5.13327
 30
0.0
 10
41.92755
 20
-5.13327
 30
0.0
 10
41.92755
 20
-5.13327
 30
0.0
 10
43.27041
 20
-5.13327
 30
0.0
 10
43.27041
 20
-5.13327
 30
0.0
 10
43.27041
 20
-5.13327
 30
0.0
 10
43.27041
 20
-6.33327
 30
0.0
 10
43.27041
 20
-6.33327
 30
0.0
 10
43.27041
 20
-6.33327
 30
0.0
 10
42.97041
 20
-6.33327
 30
0.0
 10
42.97041
 20
-6.33327
 30
0.0
 10
42.97041
 20
-6.33327
 30
0.0
 10
42.97041
 20
-7.33327
 30
0.0
 10
42.97041
 20
-7.33327
 30
0.0
 10
42.97041
 20
-7.33327
 30
0.0
 10
43.27041
 20
-7.33327
 30
0.0
 10
43.27041
 20
-7.33327
 30
0.0
 10
43.27041
 20
-7.33327
 30
0.0
 10
43.27041
 20
-8.53327
 30
0.0
 10
43.27041
 20
-8.53327
 30
0.0
 10
43.27041
 20
-8.53327
 30
0.0
 10
42.97041
 20
-8.53327
 30
0.0
 10
42.97041
 20
-8.53327
 30
0.0
 10
42.97041
 20
-8.53327
 30
0.0
 10
42.97041
 20
-9.53327
 30
0.0
 10
42.97041
 20
-9.53327
 30
0.0
 10
42.97041
 20
-9.53327
 30
0.0
 10
43.27041
 20
-9.53327
 30
0.0
 10
43.27041
 20
-9.53327
 30
0.0
 10
43.27041
 20
-9.53327
 30
0.0
 10
43.27041
 20
-10.53327
 30
0.0
 10
43.27041
 20
-10.53327
 30
0.0
 10
43.27041
 20
-10.64343
 30
0.0
 10
43.18057
 20
-10.73327
 30
0.0
 10
43.07041
 20
-10.73327
 30
0.0
 10
43.07041
 20
-10.73327
 30
0.0
 10
26.87041
 20
-10.73327
 30
0.0
 10
26.87041
 20
-10.73327
 30
0.0
 10
26.76025
 20
-10.73327
 30
0.0
 10
26.67041
 20
-10.64343
 30
0.0
 10
26.67041
 20
-10.53327
 30
0.0
 10
26.67041
 20
-10.53327
 30
0.0
 10
26.67041
 20
-9.53327
 30
0.0
 10
26.67041
 20
-9.53327
 30
0.0
 10
26.67041
 20
-9.53327
 30
0.0
 10
26.97041
 20
-9.53327
 30
0.0
 10
26.97041
 20
-9.53327
 30
0.0
 10
26.97041
 20
-9.53327
 30
0.0
 10
26.97041
 20
-8.53327
 30
0.0
 10
26.97041
 20
-8.53327
 30
0.0
 10
26.97041
 20
-8.53327
 30
0.0
 10
26.67041
 20
-8.53327
 30
0.0
 10
26.67041
 20
-8.53327
 30
0.0
 10
26.67041
 20
-8.53327
 30
0.0
 10
26.67041
 20
-7.33327
 30
0.0
 10
26.67041
 20
-7.33327
 30
0.0
 10
26.67041
 20
-7.33327
 30
0.0
 10
26.97041
 20
-7.33327
 30
0.0
 10
26.97041
 20
-7.33327
 30
0.0
 10
26.97041
 20
-7.33327
 30
0.0
 10
26.97041
 20
-6.33327
 30
0.0
 10
26.97041
 20
-6.33327
 30
0.0
 10
26.97041
 20
-6.33327
 30
0.0
 10
26.67041
 20
-6.33327
 30
0.0
 10
26.67041
 20
-6.33327
 30
0.0
 10
26.67041
 20
-6.33327
 30
0.0
 10
26.67041
 20
-5.13327
 30
0.0
 10
26.67041
 20
-5.13327
 30
0.0
 10
26.67041
 20
-5.13327
 30
0.0
 10
28.01327
 20
-5.13327
 30
0.0
 10
28.01327
 20
-5.13327
 30
0.0
 10
28.01327
 20
-5.13327
 30
0.0
 10
28.01327
 20
-4.83327
 30
0.0
 10
28.01327
 20
-4.83327
 30
0.0
  0
SPLINE
  5
69
330
1F
100
AcDbEntity
  8
layer 1
 62
   250
370
     9
100
AcDbSpline
210
0.0
220
0.0
230
1.0
 70
    11
 71
     3
 72
    17
 73
    13
 74
     0
 42
0.0000000001
 43
0.0000000001
 40
0.0
 40
0.0
 40
0.0
 40
0.0
 40
0.25
 40
0.25
 40
0.25
 40
0.5
 40
0.5
 40
0.5
 40
0.75
 40
0.75
 40
0.75
 40
1.0
 40
1.0
 40
1.0
 40
1.0
 10
26.67041
 20
-10.13327
 30
0.0
 10
26.67041
 20
-10.13327
 30
0.0
 10
43.27041
 20
-10.13327
 30
0.0
 10
43.27041
 20
-10.13327
 30
0.0
 10
43.27041
 20
-10.13327
 30
0.0
 10
43.27041
 20
-10.43327
 30
0.0
 10
43.27041
 20
-10.43327
 30
0.0
 10
43.27041
 20
-10.43327
 30
0.0
 10
26.67041
 20
-10.43327
 30
0.0
 10
26.67041
 20
-10.43327
 30
0.0
 10
26.67041
 20
-10.43327
 30
0.0
 10
26.67041
 20
-10.13327
 30
0.0
 10
26.67041
 20
-10.13327
 30
0.0
  0
SPLINE
  5
6A
330
1F
100
AcDbEntity
  8
layer 1
 62
   250
370
     9
100
AcDbSpline
210
0.0
220
0.0
230
1.0
 70
    11
 71
     3
 72
    71
 73
    67
 74
     0
 42
0.0000000001
 43
0.0000000001
 40
0.0
 40
0.0
 40
0.0
 40
0.0
 40
0.0454545454545455
 40
0.0454545454545455
 40
0.0454545454545455
 40
0.0909090909090909
 40
0.0909090909090909
 40
0.0909090909090909
 40
0.1363636363636364
 40
0.1363636363636364
 40
0.1363636363636364
 40
0.1818181818181818
 40
0.1818181818181818
 40
0.1818181818181818
 40
0.2272727272727273
 40
0.2272727272727273
 40
0.2272727272727273
 40
0.2727272727272727
 40
0.2727272727272727
 40
0.2727272727272727
 40
0.3181818181818182
 40
0.3181818181818182
 40
0.3181818181818182
 40
0.3636363636363636
 40
0.3636363636363636
 40
0.3636363636363636
 40
0.4090909090909091
 40
0.4090909090909091
 40
0.4090909090909091
 40
0.4545454545454546
 40
0.4545454545454546
 40
0.4545454545454546
 40
0.5
 40
0.5
 40
0.5
 40
0.5454545454545454
 40
0.5454545454545454
 40
0.5454545454545454
 40
0.5909090909090909
 40
0.5909090909090909
 40
0.5909090909090909
 40
0.6363636363636364
 40
0.6363636363636364
 40
0.6363636363636364
 40
0.6818181818181819
 40
0.6818181818181819
 40
0.6818181818181819
 40
0.7272727272727273
 40
0.7272727272727273
 40
0.7272727272727273
 40
0.7727272727272727
 40
0.7727272727272727
 40
0.7727272727272727
 40
0.8181818181818182
 40
0.8181818181818182
 40
0.8181818181818182
 40
0.8636363636363636
 40
0.8636363636363636
 40
0.8636363636363636
 40
0.9090909090909092
 40
0.9090909090909092
 40
0.9090909090909092
 40
0.9545454545454546
 40
0.9545454545454546
 40
0.9545454545454546
 40
1.0
 40
1.0
 40
1.0
 40
1.0
 10
26.37198
 20
16.23059
 30
0.0
 10
26.37198
 20
16.23059
 30
0.0
 10
26.44649
 20
16.23059
 30
0.0
 10
26.44649
 20
16.23059
 30
0.0
 10
26.44649
 20
16.23059
 30
0.0
 10
26.44649
 20
16.02061
 30
0.0
 10
26.44649
 20
16.02061
 30
0.0
 10
26.46187
 20
16.03825
 30
0.0
 10
26.47881
 20
16.05137
 30
0.0
 10
26.49729
 20
16.06012
 30
0.0
 10
26.51564
 20
16.06873
 30
0.0
 10
26.53553
 20
16.07311
 30
0.0
 10
26.5567
 20
16.07311
 30
0.0
 10
26.60863
 20
16.07311
 30
0.0
 10
26.64983
 20
16.05137
 30
0.0
 10
26.68031
 20
16.00805
 30
0.0
 10
26.71065
 20
15.96473
 30
0.0
 10
26.72589
 20
15.91026
 30
0.0
 10
26.72589
 20
15.8445
 30
0.0
 10
26.72589
 20
15.77592
 30
0.0
 10
26.70952
 20
15.72061
 30
0.0
 10
26.67679
 20
15.67842
 30
0.0
 10
26.64405
 20
15.63622
 30
0.0
 10
26.60327
 20
15.61506
 30
0.0
 10
26.55458
 20
15.61506
 30
0.0
 10
26.53864
 20
15.61506
 30
0.0
 10
26.52241
 20
15.6176
 30
0.0
 10
26.5059
 20
15.62254
 30
0.0
 10
26.48939
 20
15.62747
 30
0.0
 10
26.46963
 20
15.64102
 30
0.0
 10
26.44649
 20
15.66303
 30
0.0
 10
26.44649
 20
15.66303
 30
0.0
 10
26.44649
 20
15.45588
 30
0.0
 10
26.44649
 20
15.45588
 30
0.0
 10
26.44649
 20
15.45588
 30
0.0
 10
26.37198
 20
15.45588
 30
0.0
 10
26.37198
 20
15.45588
 30
0.0
 10
26.37198
 20
15.45588
 30
0.0
 10
26.37198
 20
15.66303
 30
0.0
 10
26.37198
 20
15.66303
 30
0.0
 10
26.35717
 20
15.64709
 30
0.0
 10
26.34066
 20
15.63509
 30
0.0
 10
26.3226
 20
15.62705
 30
0.0
 10
26.30453
 20
15.61901
 30
0.0
 10
26.28506
 20
15.61506
 30
0.0
 10
26.26403
 20
15.61506
 30
0.0
 10
26.21803
 20
15.61506
 30
0.0
 10
26.17781
 20
15.63524
 30
0.0
 10
26.14338
 20
15.67545
 30
0.0
 10
26.10895
 20
15.71581
 30
0.0
 10
26.09174
 20
15.77353
 30
0.0
 10
26.09174
 20
15.8486
 30
0.0
 10
26.09174
 20
15.91224
 30
0.0
 10
26.10726
 20
15.96544
 30
0.0
 10
26.13844
 20
16.00848
 30
0.0
 10
26.16963
 20
16.05152
 30
0.0
 10
26.2114
 20
16.07311
 30
0.0
 10
26.26403
 20
16.07311
 30
0.0
 10
26.28619
 20
16.07311
 30
0.0
 10
26.30609
 20
16.06873
 30
0.0
 10
26.32401
 20
16.06012
 30
0.0
 10
26.34193
 20
16.05137
 30
0.0
 10
26.35787
 20
16.03825
 30
0.0
 10
26.37198
 20
16.02061
 30
0.0
 10
26.37198
 20
16.02061
 30
0.0
 10
26.37198
 20
16.23059
 30
0.0
 10
26.37198
 20
16.23059
 30
0.0
  0
SPLINE
  5
6B
330
1F
100
AcDbEntity
  8
layer 1
 62
   250
370
     9
100
AcDbSpline
210
0.0
220
0.0
230
1.0
 70
    11
 71
     3
 72
    29
 73
    25
 74
     0
 42
0.0000000001
 43
0.0000000001
 40
0.0
 40
0.0
 40
0.0
 40
0.0
 40
0.125
 40
0.125
 40
0.125
 40
0.25
 40
0.25
 40
0.25
 40
0.375
 40
0.375
 40
0.375
 40
0.5
 40
0.5
 40
0.5
 40
0.625
 40
0.625
 40
0.625
 40
0.75
 40
0.75
 40
0.75
 40
0.875
 40
0.875
 40
0.875
 40
1.0
 40
1.0
 40
1.0
 40
1.0
 10
26.44607
 20
15.84225
 30
0.0
 10
26.44607
 20
15.77621
 30
0.0
 10
26.4551
 20
15.7319
 30
0.0
 10
26.4733
 20
15.70918
 30
0.0
 10
26.49137
 20
15.68646
 30
0.0
 10
26.51408
 20
15.67517
 30
0.0
 10
26.54132
 20
15.67517
 30
0.0
 10
26.57152
 20
15.67517
 30
0.0
 10
26.59734
 20
15.68914
 30
0.0
 10
26.61865
 20
15.71708
 30
0.0
 10
26.63996
 20
15.74488
 30
0.0
 10
26.65054
 20
15.78834
 30
0.0
 10
26.65054
 20
15.84719
 30
0.0
 10
26.65054
 20
15.90264
 30
0.0
 10
26.64066
 20
15.94413
 30
0.0
 10
26.62105
 20
15.97136
 30
0.0
 10
26.60143
 20
15.9986
 30
0.0
 10
26.57617
 20
16.01214
 30
0.0
 10
26.54541
 20
16.01214
 30
0.0
 10
26.51239
 20
16.01214
 30
0.0
 10
26.4877
 20
15.99803
 30
0.0
 10
26.47104
 20
15.96967
 30
0.0
 10
26.45439
 20
15.94131
 30
0.0
 10
26.44607
 20
15.89883
 30
0.0
 10
26.44607
 20
15.84225
 30
0.0
  0
SPLINE
  5
6C
330
1F
100
AcDbEntity
  8
layer 1
 62
   250
370
     9
100
AcDbSpline
210
0.0
220
0.0
230
1.0
 70
    11
 71
     3
 72
    29
 73
    25
 74
     0
 42
0.0000000001
 43
0.0000000001
 40
0.0
 40
0.0
 40
0.0
 40
0.0
 40
0.125
 40
0.125
 40
0.125
 40
0.25
 40
0.25
 40
0.25
 40
0.375
 40
0.375
 40
0.375
 40
0.5
 40
0.5
 40
0.5
 40
0.625
 40
0.625
 40
0.625
 40
0.75
 40
0.75
 40
0.75
 40
0.875
 40
0.875
 40
0.875
 40
1.0
 40
1.0
 40
1.0
 40
1.0
 10
26.16794
 20
15.85071
 30
0.0
 10
26.16794
 20
15.78877
 30
0.0
 10
26.17838
 20
15.74417
 30
0.0
 10
26.19912
 20
15.71694
 30
0.0
 10
26.21987
 20
15.6897
 30
0.0
 10
26.24555
 20
15.67602
 30
0.0
 10
26.27631
 20
15.67602
 30
0.0
 10
26.30848
 20
15.67602
 30
0.0
 10
26.33261
 20
15.68956
 30
0.0
 10
26.34856
 20
15.71666
 30
0.0
 10
26.36436
 20
15.74375
 30
0.0
 10
26.37241
 20
15.78453
 30
0.0
 10
26.37241
 20
15.83872
 30
0.0
 10
26.37241
 20
15.89657
 30
0.0
 10
26.36408
 20
15.9399
 30
0.0
 10
26.34729
 20
15.96882
 30
0.0
 10
26.3305
 20
15.99775
 30
0.0
 10
26.30524
 20
16.01214
 30
0.0
 10
26.27137
 20
16.01214
 30
0.0
 10
26.24089
 20
16.01214
 30
0.0
 10
26.21606
 20
15.99803
 30
0.0
 10
26.19672
 20
15.96981
 30
0.0
 10
26.17753
 20
15.94159
 30
0.0
 10
26.16794
 20
15.90194
 30
0.0
 10
26.16794
 20
15.85071
 30
0.0
  0
SPLINE
  5
6D
330
1F
100
AcDbEntity
  8
layer 1
 62
   250
370
     9
100
AcDbSpline
210
0.0
220
0.0
230
1.0
 70
    11
 71
     3
 72
    86
 73
    82
 74
     0
 42
0.0000000001
 43
0.0000000001
 40
0.0
 40
0.0
 40
0.0
 40
0.0
 40
0.037037037037037
 40
0.037037037037037
 40
0.037037037037037
 40
0.0740740740740741
 40
0.0740740740740741
 40
0.0740740740740741
 40
0.1111111111111111
 40
0.1111111111111111
 40
0.1111111111111111
 40
0.1481481481481481
 40
0.1481481481481481
 40
0.1481481481481481
 40
0.1851851851851852
 40
0.1851851851851852
 40
0.1851851851851852
 40
0.2222222222222222
 40
0.2222222222222222
 40
0.2222222222222222
 40
0.2592592592592592
 40
0.2592592592592592
 40
0.2592592592592592
 40
0.2962962962962963
 40
0.2962962962962963
 40
0.2962962962962963
 40
0.3333333333333333
 40
0.3333333333333333
 40
0.3333333333333333
 40
0.3703703703703703
 40
0.3703703703703703
 40
0.3703703703703703
 40
0.4074074074074074
 40
0.4074074074074074
 40
0.4074074074074074
 40
0.4444444444444444
 40
0.4444444444444444
 40
0.4444444444444444
 40
0.4814814814814815
 40
0.4814814814814815
 40
0.4814814814814815
 40
0.5185185185185185
 40
0.5185185185185185
 40
0.5185185185185185
 40
0.5555555555555556
 40
0.5555555555555556
 40
0.5555555555555556
 40
0.5925925925925926
 40
0.5925925925925926
 40
0.5925925925925926
 40
0.6296296296296295
 40
0.6296296296296295
 40
0.6296296296296295
 40
0.6666666666666666
 40
0.6666666666666666
 40
0.6666666666666666
 40
0.7037037037037037
 40
0.7037037037037037
 40
0.7037037037037037
 40
0.7407407407407407
 40
0.7407407407407407
 40
0.7407407407407407
 40
0.7777777777777777
 40
0.7777777777777777
 40
0.7777777777777777
 40
0.8148148148148148
 40
0.8148148148148148
 40
0.8148148148148148
 40
0.8518518518518519
 40
0.8518518518518519
 40
0.8518518518518519
 40
0.8888888888888888
 40
0.8888888888888888
 40
0.8888888888888888
 40
0.9259259259259258
 40
0.9259259259259258
 40
0.9259259259259258
 40
0.9629629629629629
 40
0.9629629629629629
 40
0.9629629629629629
 40
1.0
 40
1.0
 40
1.0
 40
1.0
 10
27.09998
 20
15.6794
 30
0.0
 10
27.07232
 20
15.65584
 30
0.0
 10
27.04565
 20
15.63933
 30
0.0
 10
27.02011
 20
15.62959
 30
0.0
 10
26.99457
 20
15.61985
 30
0.0
 10
26.9672
 20
15.61506
 30
0.0
 10
26.93784
 20
15.61506
 30
0.0
 10
26.88958
 20
15.61506
 30
0.0
 10
26.85247
 20
15.62677
 30
0.0
 10
26.82651
 20
15.65033
 30
0.0
 10
26.80054
 20
15.67376
 30
0.0
 10
26.78756
 20
15.70382
 30
0.0
 10
26.78756
 20
15.74036
 30
0.0
 10
26.78756
 20
15.76181
 30
0.0
 10
26.7925
 20
15.78143
 30
0.0
 10
26.80224
 20
15.79921
 30
0.0
 10
26.81211
 20
15.81699
 30
0.0
 10
26.82495
 20
15.8311
 30
0.0
 10
26.84076
 20
15.84182
 30
0.0
 10
26.8567
 20
15.85255
 30
0.0
 10
26.87448
 20
15.86073
 30
0.0
 10
26.89438
 20
15.86624
 30
0.0
 10
26.90906
 20
15.87005
 30
0.0
 10
26.93121
 20
15.87371
 30
0.0
 10
26.9607
 20
15.87738
 30
0.0
 10
27.02082
 20
15.88444
 30
0.0
 10
27.06527
 20
15.89305
 30
0.0
 10
27.09363
 20
15.90292
 30
0.0
 10
27.09391
 20
15.91308
 30
0.0
 10
27.09405
 20
15.91958
 30
0.0
 10
27.09405
 20
15.92226
 30
0.0
 10
27.09405
 20
15.95245
 30
0.0
 10
27.087
 20
15.97376
 30
0.0
 10
27.07289
 20
15.98618
 30
0.0
 10
27.05384
 20
16.00297
 30
0.0
 10
27.02547
 20
16.0113
 30
0.0
 10
26.98794
 20
16.0113
 30
0.0
 10
26.9528
 20
16.0113
 30
0.0
 10
26.92684
 20
16.00509
 30
0.0
 10
26.91019
 20
15.99281
 30
0.0
 10
26.89339
 20
15.98054
 30
0.0
 10
26.88112
 20
15.9588
 30
0.0
 10
26.87307
 20
15.92748
 30
0.0
 10
26.87307
 20
15.92748
 30
0.0
 10
26.80026
 20
15.93764
 30
0.0
 10
26.80026
 20
15.93764
 30
0.0
 10
26.80689
 20
15.96882
 30
0.0
 10
26.81776
 20
15.99408
 30
0.0
 10
26.833
 20
16.01327
 30
0.0
 10
26.84824
 20
16.03246
 30
0.0
 10
26.87025
 20
16.04714
 30
0.0
 10
26.89904
 20
16.05758
 30
0.0
 10
26.92768
 20
16.06788
 30
0.0
 10
26.96113
 20
16.07311
 30
0.0
 10
26.99895
 20
16.07311
 30
0.0
 10
27.03648
 20
16.07311
 30
0.0
 10
27.0671
 20
16.06873
 30
0.0
 10
27.09067
 20
16.05984
 30
0.0
 10
27.11409
 20
16.05095
 30
0.0
 10
27.13145
 20
16.03994
 30
0.0
 10
27.14246
 20
16.02654
 30
0.0
 10
27.15346
 20
16.01313
 30
0.0
 10
27.16122
 20
15.9962
 30
0.0
 10
27.16574
 20
15.97574
 30
0.0
 10
27.16814
 20
15.96304
 30
0.0
 10
27.16941
 20
15.94018
 30
0.0
 10
27.16941
 20
15.9073
 30
0.0
 10
27.16941
 20
15.9073
 30
0.0
 10
27.16941
 20
15.80852
 30
0.0
 10
27.16941
 20
15.80852
 30
0.0
 10
27.16941
 20
15.73952
 30
0.0
 10
27.17096
 20
15.69591
 30
0.0
 10
27.17406
 20
15.67743
 30
0.0
 10
27.17703
 20
15.65894
 30
0.0
 10
27.18324
 20
15.6413
 30
0.0
 10
27.19227
 20
15.62437
 30
0.0
 10
27.19227
 20
15.62437
 30
0.0
 10
27.11437
 20
15.62437
 30
0.0
 10
27.11437
 20
15.62437
 30
0.0
 10
27.1069
 20
15.64003
 30
0.0
 10
27.1021
 20
15.65838
 30
0.0
 10
27.09998
 20
15.6794
 30
0.0
  0
SPLINE
  5
6E
330
1F
100
AcDbEntity
  8
layer 1
 62
   250
370
     9
100
AcDbSpline
210
0.0
220
0.0
230
1.0
 70
    11
 71
     3
 72
    35
 73
    31
 74
     0
 42
0.0000000001
 43
0.0000000001
 40
0.0
 40
0.0
 40
0.0
 40
0.0
 40
0.1
 40
0.1
 40
0.1
 40
0.2
 40
0.2
 40
0.2
 40
0.3
 40
0.3
 40
0.3
 40
0.4
 40
0.4
 40
0.4
 40
0.5
 40
0.5
 40
0.5
 40
0.6000000000000001
 40
0.6000000000000001
 40
0.6000000000000001
 40
0.7000000000000001
 40
0.7000000000000001
 40
0.7000000000000001
 40
0.8
 40
0.8
 40
0.8
 40
0.9
 40
0.9
 40
0.9
 40
1.0
 40
1.0
 40
1.0
 40
1.0
 10
27.09405
 20
15.8445
 30
0.0
 10
27.06696
 20
15.8335
 30
0.0
 10
27.02632
 20
15.82418
 30
0.0
 10
26.97213
 20
15.81656
 30
0.0
 10
26.94137
 20
15.81219
 30
0.0
 10
26.91964
 20
15.80725
 30
0.0
 10
26.90694
 20
15.80175
 30
0.0
 10
26.89424
 20
15.79624
 30
0.0
 10
26.8845
 20
15.7882
 30
0.0
 10
26.87759
 20
15.77776
 30
0.0
 10
26.87067
 20
15.76718
 30
0.0
 10
26.86715
 20
15.75546
 30
0.0
 10
26.86715
 20
15.74248
 30
0.0
 10
26.86715
 20
15.72287
 30
0.0
 10
26.87463
 20
15.70636
 30
0.0
 10
26.88972
 20
15.69323
 30
0.0
 10
26.90482
 20
15.68011
 30
0.0
 10
26.92684
 20
15.67348
 30
0.0
 10
26.95577
 20
15.67348
 30
0.0
 10
26.98441
 20
15.67348
 30
0.0
 10
27.00995
 20
15.67969
 30
0.0
 10
27.03239
 20
15.69224
 30
0.0
 10
27.05468
 20
15.70466
 30
0.0
 10
27.07119
 20
15.72174
 30
0.0
 10
27.08164
 20
15.74333
 30
0.0
 10
27.08968
 20
15.76012
 30
0.0
 10
27.09363
 20
15.78481
 30
0.0
 10
27.09363
 20
15.81741
 30
0.0
 10
27.09363
 20
15.81741
 30
0.0
 10
27.09405
 20
15.8445
 30
0.0
 10
27.09405
 20
15.8445
 30
0.0
  0
SPLINE
  5
6F
330
1F
100
AcDbEntity
  8
layer 1
 62
   250
370
     9
100
AcDbSpline
210
0.0
220
0.0
230
1.0
 70
    11
 71
     3
 72
    41
 73
    37
 74
     0
 42
0.0000000001
 43
0.0000000001
 40
0.0
 40
0.0
 40
0.0
 40
0.0
 40
0.0833333333333333
 40
0.0833333333333333
 40
0.0833333333333333
 40
0.1666666666666667
 40
0.1666666666666667
 40
0.1666666666666667
 40
0.25
 40
0.25
 40
0.25
 40
0.3333333333333333
 40
0.3333333333333333
 40
0.3333333333333333
 40
0.4166666666666666
 40
0.4166666666666666
 40
0.4166666666666666
 40
0.5
 40
0.5
 40
0.5
 40
0.5833333333333333
 40
0.5833333333333333
 40
0.5833333333333333
 40
0.6666666666666666
 40
0.6666666666666666
 40
0.6666666666666666
 40
0.75
 40
0.75
 40
0.75
 40
0.8333333333333333
 40
0.8333333333333333
 40
0.8333333333333333
 40
0.9166666666666666
 40
0.9166666666666666
 40
0.9166666666666666
 40
1.0
 40
1.0
 40
1.0
 40
1.0
 10
27.28385
 20
16.06379
 30
0.0
 10
27.28385
 20
16.06379
 30
0.0
 10
27.35836
 20
16.06379
 30
0.0
 10
27.35836
 20
16.06379
 30
0.0
 10
27.35836
 20
16.06379
 30
0.0
 10
27.35836
 20
15.88091
 30
0.0
 10
27.35836
 20
15.88091
 30
0.0
 10
27.35836
 20
15.88091
 30
0.0
 10
27.56494
 20
15.88091
 30
0.0
 10
27.56494
 20
15.88091
 30
0.0
 10
27.56494
 20
15.88091
 30
0.0
 10
27.56494
 20
16.06379
 30
0.0
 10
27.56494
 20
16.06379
 30
0.0
 10
27.56494
 20
16.06379
 30
0.0
 10
27.63945
 20
16.06379
 30
0.0
 10
27.63945
 20
16.06379
 30
0.0
 10
27.63945
 20
16.06379
 30
0.0
 10
27.63945
 20
15.62437
 30
0.0
 10
27.63945
 20
15.62437
 30
0.0
 10
27.63945
 20
15.62437
 30
0.0
 10
27.56494
 20
15.62437
 30
0.0
 10
27.56494
 20
15.62437
 30
0.0
 10
27.56494
 20
15.62437
 30
0.0
 10
27.56494
 20
15.8191
 30
0.0
 10
27.56494
 20
15.8191
 30
0.0
 10
27.56494
 20
15.8191
 30
0.0
 10
27.35836
 20
15.8191
 30
0.0
 10
27.35836
 20
15.8191
 30
0.0
 10
27.35836
 20
15.8191
 30
0.0
 10
27.35836
 20
15.62437
 30
0.0
 10
27.35836
 20
15.62437
 30
0.0
 10
27.35836
 20
15.62437
 30
0.0
 10
27.28385
 20
15.62437
 30
0.0
 10
27.28385
 20
15.62437
 30
0.0
 10
27.28385
 20
15.62437
 30
0.0
 10
27.28385
 20
16.06379
 30
0.0
 10
27.28385
 20
16.06379
 30
0.0
  0
SPLINE
  5
70
330
1F
100
AcDbEntity
  8
layer 1
 62
   250
370
     9
100
AcDbSpline
210
0.0
220
0.0
230
1.0
 70
    11
 71
     3
 72
    50
 73
    46
 74
     0
 42
0.0000000001
 43
0.0000000001
 40
0.0
 40
0.0
 40
0.0
 40
0.0
 40
0.0666666666666667
 40
0.0666666666666667
 40
0.0666666666666667
 40
0.1333333333333333
 40
0.1333333333333333
 40
0.1333333333333333
 40
0.2
 40
0.2
 40
0.2
 40
0.2666666666666667
 40
0.2666666666666667
 40
0.2666666666666667
 40
0.3333333333333333
 40
0.3333333333333333
 40
0.3333333333333333
 40
0.4
 40
0.4
 40
0.4
 40
0.4666666666666667
 40
0.4666666666666667
 40
0.4666666666666667
 40
0.5333333333333333
 40
0.5333333333333333
 40
0.5333333333333333
 40
0.6
 40
0.6
 40
0.6
 40
0.6666666666666666
 40
0.6666666666666666
 40
0.6666666666666666
 40
0.7333333333333333
 40
0.7333333333333333
 40
0.7333333333333333
 40
0.8
 40
0.8
 40
0.8
 40
0.8666666666666667
 40
0.8666666666666667
 40
0.8666666666666667
 40
0.9333333333333333
 40
0.9333333333333333
 40
0.9333333333333333
 40
1.0
 40
1.0
 40
1.0
 40
1.0
 10
28.05107
 20
15.76661
 30
0.0
 10
28.05107
 20
15.76661
 30
0.0
 10
28.12812
 20
15.75645
 30
0.0
 10
28.12812
 20
15.75645
 30
0.0
 10
28.11612
 20
15.71172
 30
0.0
 10
28.09369
 20
15.67686
 30
0.0
 10
28.06095
 20
15.65217
 30
0.0
 10
28.02821
 20
15.62747
 30
0.0
 10
27.98644
 20
15.61506
 30
0.0
 10
27.9355
 20
15.61506
 30
0.0
 10
27.87144
 20
15.61506
 30
0.0
 10
27.82064
 20
15.63481
 30
0.0
 10
27.7831
 20
15.67432
 30
0.0
 10
27.74556
 20
15.71369
 30
0.0
 10
27.7268
 20
15.76915
 30
0.0
 10
27.7268
 20
15.84041
 30
0.0
 10
27.7268
 20
15.91407
 30
0.0
 10
27.74571
 20
15.97136
 30
0.0
 10
27.78366
 20
16.012
 30
0.0
 10
27.82162
 20
16.05279
 30
0.0
 10
27.87087
 20
16.07311
 30
0.0
 10
27.93141
 20
16.07311
 30
0.0
 10
27.98997
 20
16.07311
 30
0.0
 10
28.03781
 20
16.05321
 30
0.0
 10
28.07492
 20
16.01327
 30
0.0
 10
28.11203
 20
15.97334
 30
0.0
 10
28.13066
 20
15.91718
 30
0.0
 10
28.13066
 20
15.84479
 30
0.0
 10
28.13066
 20
15.84041
 30
0.0
 10
28.13052
 20
15.83378
 30
0.0
 10
28.13024
 20
15.82503
 30
0.0
 10
28.13024
 20
15.82503
 30
0.0
 10
27.803
 20
15.82503
 30
0.0
 10
27.803
 20
15.82503
 30
0.0
 10
27.80582
 20
15.77691
 30
0.0
 10
27.81937
 20
15.73994
 30
0.0
 10
27.84392
 20
15.7144
 30
0.0
 10
27.86833
 20
15.68886
 30
0.0
 10
27.89895
 20
15.67602
 30
0.0
 10
27.9355
 20
15.67602
 30
0.0
 10
27.96274
 20
15.67602
 30
0.0
 10
27.98602
 20
15.68321
 30
0.0
 10
28.00521
 20
15.69761
 30
0.0
 10
28.02454
 20
15.712
 30
0.0
 10
28.03978
 20
15.735
 30
0.0
 10
28.05107
 20
15.76661
 30
0.0
  0
SPLINE
  5
71
330
1F
100
AcDbEntity
  8
layer 1
 62
   250
370
     9
100
AcDbSpline
210
0.0
220
0.0
230
1.0
 70
    11
 71
     3
 72
    20
 73
    16
 74
     0
 42
0.0000000001
 43
0.0000000001
 40
0.0
 40
0.0
 40
0.0
 40
0.0
 40
0.2
 40
0.2
 40
0.2
 40
0.4
 40
0.4
 40
0.4
 40
0.6000000000000001
 40
0.6000000000000001
 40
0.6000000000000001
 40
0.8
 40
0.8
 40
0.8
 40
1.0
 40
1.0
 40
1.0
 40
1.0
 10
27.80723
 20
15.88599
 30
0.0
 10
27.80723
 20
15.88599
 30
0.0
 10
28.05192
 20
15.88599
 30
0.0
 10
28.05192
 20
15.88599
 30
0.0
 10
28.04867
 20
15.92296
 30
0.0
 10
28.03922
 20
15.95062
 30
0.0
 10
28.02384
 20
15.96911
 30
0.0
 10
28.00027
 20
15.99775
 30
0.0
 10
27.96951
 20
16.01214
 30
0.0
 10
27.93183
 20
16.01214
 30
0.0
 10
27.89768
 20
16.01214
 30
0.0
 10
27.86904
 20
16.00071
 30
0.0
 10
27.84575
 20
15.97785
 30
0.0
 10
27.82261
 20
15.95499
 30
0.0
 10
27.80977
 20
15.92437
 30
0.0
 10
27.80723
 20
15.88599
 30
0.0
  0
SPLINE
  5
72
330
1F
100
AcDbEntity
  8
layer 1
 62
   250
370
     9
100
AcDbSpline
210
0.0
220
0.0
230
1.0
 70
    11
 71
     3
 72
    50
 73
    46
 74
     0
 42
0.0000000001
 43
0.0000000001
 40
0.0
 40
0.0
 40
0.0
 40
0.0
 40
0.0666666666666667
 40
0.0666666666666667
 40
0.0666666666666667
 40
0.1333333333333333
 40
0.1333333333333333
 40
0.1333333333333333
 40
0.2
 40
0.2
 40
0.2
 40
0.2666666666666667
 40
0.2666666666666667
 40
0.2666666666666667
 40
0.3333333333333333
 40
0.3333333333333333
 40
0.3333333333333333
 40
0.4
 40
0.4
 40
0.4
 40
0.4666666666666667
 40
0.4666666666666667
 40
0.4666666666666667
 40
0.5333333333333333
 40
0.5333333333333333
 40
0.5333333333333333
 40
0.6
 40
0.6
 40
0.6
 40
0.6666666666666666
 40
0.6666666666666666
 40
0.6666666666666666
 40
0.7333333333333333
 40
0.7333333333333333
 40
0.7333333333333333
 40
0.8
 40
0.8
 40
0.8
 40
0.8666666666666667
 40
0.8666666666666667
 40
0.8666666666666667
 40
0.9333333333333333
 40
0.9333333333333333
 40
0.9333333333333333
 40
1.0
 40
1.0
 40
1.0
 40
1.0
 10
28.22224
 20
15.45588
 30
0.0
 10
28.22224
 20
15.45588
 30
0.0
 10
28.22224
 20
16.06379
 30
0.0
 10
28.22224
 20
16.06379
 30
0.0
 10
28.22224
 20
16.06379
 30
0.0
 10
28.28997
 20
16.06379
 30
0.0
 10
28.28997
 20
16.06379
 30
0.0
 10
28.28997
 20
16.06379
 30
0.0
 10
28.28997
 20
16.00608
 30
0.0
 10
28.28997
 20
16.00608
 30
0.0
 10
28.30592
 20
16.02837
 30
0.0
 10
28.32398
 20
16.04516
 30
0.0
 10
28.34416
 20
16.05631
 30
0.0
 10
28.3642
 20
16.06746
 30
0.0
 10
28.38861
 20
16.07311
 30
0.0
 10
28.41726
 20
16.07311
 30
0.0
 10
28.45479
 20
16.07311
 30
0.0
 10
28.48781
 20
16.06351
 30
0.0
 10
28.51646
 20
16.04418
 30
0.0
 10
28.5451
 20
16.02499
 30
0.0
 10
28.56669
 20
15.99775
 30
0.0
 10
28.58137
 20
15.96276
 30
0.0
 10
28.5959
 20
15.92762
 30
0.0
 10
28.60324
 20
15.88924
 30
0.0
 10
28.60324
 20
15.84733
 30
0.0
 10
28.60324
 20
15.80259
 30
0.0
 10
28.5952
 20
15.76224
 30
0.0
 10
28.57911
 20
15.72625
 30
0.0
 10
28.56302
 20
15.69041
 30
0.0
 10
28.5396
 20
15.66289
 30
0.0
 10
28.50884
 20
15.6437
 30
0.0
 10
28.47822
 20
15.62465
 30
0.0
 10
28.4459
 20
15.61506
 30
0.0
 10
28.41204
 20
15.61506
 30
0.0
 10
28.3872
 20
15.61506
 30
0.0
 10
28.3649
 20
15.62028
 30
0.0
 10
28.34529
 20
15.63072
 30
0.0
 10
28.32553
 20
15.64116
 30
0.0
 10
28.30945
 20
15.65429
 30
0.0
 10
28.29675
 20
15.67023
 30
0.0
 10
28.29675
 20
15.67023
 30
0.0
 10
28.29675
 20
15.45588
 30
0.0
 10
28.29675
 20
15.45588
 30
0.0
 10
28.29675
 20
15.45588
 30
0.0
 10
28.22224
 20
15.45588
 30
0.0
 10
28.22224
 20
15.45588
 30
0.0
  0
SPLINE
  5
73
330
1F
100
AcDbEntity
  8
layer 1
 62
   250
370
     9
100
AcDbSpline
210
0.0
220
0.0
230
1.0
 70
    11
 71
     3
 72
    29
 73
    25
 74
     0
 42
0.0000000001
 43
0.0000000001
 40
0.0
 40
0.0
 40
0.0
 40
0.0
 40
0.125
 40
0.125
 40
0.125
 40
0.25
 40
0.25
 40
0.25
 40
0.375
 40
0.375
 40
0.375
 40
0.5
 40
0.5
 40
0.5
 40
0.625
 40
0.625
 40
0.625
 40
0.75
 40
0.75
 40
0.75
 40
0.875
 40
0.875
 40
0.875
 40
1.0
 40
1.0
 40
1.0
 40
1.0
 10
28.28997
 20
15.8414
 30
0.0
 10
28.28997
 20
15.7851
 30
0.0
 10
28.3014
 20
15.74347
 30
0.0
 10
28.32412
 20
15.71652
 30
0.0
 10
28.34698
 20
15.68956
 30
0.0
 10
28.37464
 20
15.67602
 30
0.0
 10
28.4071
 20
15.67602
 30
0.0
 10
28.44012
 20
15.67602
 30
0.0
 10
28.46834
 20
15.68999
 30
0.0
 10
28.49176
 20
15.71793
 30
0.0
 10
28.51533
 20
15.74587
 30
0.0
 10
28.52704
 20
15.78905
 30
0.0
 10
28.52704
 20
15.84761
 30
0.0
 10
28.52704
 20
15.90349
 30
0.0
 10
28.51561
 20
15.94526
 30
0.0
 10
28.49261
 20
15.97306
 30
0.0
 10
28.46961
 20
16.00086
 30
0.0
 10
28.44223
 20
16.01468
 30
0.0
 10
28.41034
 20
16.01468
 30
0.0
 10
28.37873
 20
16.01468
 30
0.0
 10
28.35079
 20
15.99987
 30
0.0
 10
28.32652
 20
15.97038
 30
0.0
 10
28.30211
 20
15.94074
 30
0.0
 10
28.28997
 20
15.89784
 30
0.0
 10
28.28997
 20
15.8414
 30
0.0
  0
SPLINE
  5
74
330
1F
100
AcDbEntity
  8
layer 1
 62
   250
370
     9
100
AcDbSpline
210
0.0
220
0.0
230
1.0
 70
    11
 71
     3
 72
    86
 73
    82
 74
     0
 42
0.0000000001
 43
0.0000000001
 40
0.0
 40
0.0
 40
0.0
 40
0.0
 40
0.037037037037037
 40
0.037037037037037
 40
0.037037037037037
 40
0.0740740740740741
 40
0.0740740740740741
 40
0.0740740740740741
 40
0.1111111111111111
 40
0.1111111111111111
 40
0.1111111111111111
 40
0.1481481481481481
 40
0.1481481481481481
 40
0.1481481481481481
 40
0.1851851851851852
 40
0.1851851851851852
 40
0.1851851851851852
 40
0.2222222222222222
 40
0.2222222222222222
 40
0.2222222222222222
 40
0.2592592592592592
 40
0.2592592592592592
 40
0.2592592592592592
 40
0.2962962962962963
 40
0.2962962962962963
 40
0.2962962962962963
 40
0.3333333333333333
 40
0.3333333333333333
 40
0.3333333333333333
 40
0.3703703703703703
 40
0.3703703703703703
 40
0.3703703703703703
 40
0.4074074074074074
 40
0.4074074074074074
 40
0.4074074074074074
 40
0.4444444444444444
 40
0.4444444444444444
 40
0.4444444444444444
 40
0.4814814814814815
 40
0.4814814814814815
 40
0.4814814814814815
 40
0.5185185185185185
 40
0.5185185185185185
 40
0.5185185185185185
 40
0.5555555555555556
 40
0.5555555555555556
 40
0.5555555555555556
 40
0.5925925925925926
 40
0.5925925925925926
 40
0.5925925925925926
 40
0.6296296296296295
 40
0.6296296296296295
 40
0.6296296296296295
 40
0.6666666666666666
 40
0.6666666666666666
 40
0.6666666666666666
 40
0.7037037037037037
 40
0.7037037037037037
 40
0.7037037037037037
 40
0.7407407407407407
 40
0.7407407407407407
 40
0.7407407407407407
 40
0.7777777777777777
 40
0.7777777777777777
 40
0.7777777777777777
 40
0.8148148148148148
 40
0.8148148148148148
 40
0.8148148148148148
 40
0.8518518518518519
 40
0.8518518518518519
 40
0.8518518518518519
 40
0.8888888888888888
 40
0.8888888888888888
 40
0.8888888888888888
 40
0.9259259259259258
 40
0.9259259259259258
 40
0.9259259259259258
 40
0.9629629629629629
 40
0.9629629629629629
 40
0.9629629629629629
 40
1.0
 40
1.0
 40
1.0
 40
1.0
 10
28.98015
 20
15.6794
 30
0.0
 10
28.95249
 20
15.65584
 30
0.0
 10
28.92582
 20
15.63933
 30
0.0
 10
28.90028
 20
15.62959
 30
0.0
 10
28.87474
 20
15.61985
 30
0.0
 10
28.84737
 20
15.61506
 30
0.0
 10
28.81801
 20
15.61506
 30
0.0
 10
28.76975
 20
15.61506
 30
0.0
 10
28.73264
 20
15.62677
 30
0.0
 10
28.70668
 20
15.65033
 30
0.0
 10
28.68071
 20
15.67376
 30
0.0
 10
28.66773
 20
15.70382
 30
0.0
 10
28.66773
 20
15.74036
 30
0.0
 10
28.66773
 20
15.76181
 30
0.0
 10
28.67267
 20
15.78143
 30
0.0
 10
28.68241
 20
15.79921
 30
0.0
 10
28.69228
 20
15.81699
 30
0.0
 10
28.70512
 20
15.8311
 30
0.0
 10
28.72093
 20
15.84182
 30
0.0
 10
28.73687
 20
15.85255
 30
0.0
 10
28.75465
 20
15.86073
 30
0.0
 10
28.77455
 20
15.86624
 30
0.0
 10
28.78923
 20
15.87005
 30
0.0
 10
28.81138
 20
15.87371
 30
0.0
 10
28.84087
 20
15.87738
 30
0.0
 10
28.90099
 20
15.88444
 30
0.0
 10
28.94544
 20
15.89305
 30
0.0
 10
28.9738
 20
15.90292
 30
0.0
 10
28.97408
 20
15.91308
 30
0.0
 10
28.97422
 20
15.91958
 30
0.0
 10
28.97422
 20
15.92226
 30
0.0
 10
28.97422
 20
15.95245
 30
0.0
 10
28.96717
 20
15.97376
 30
0.0
 10
28.95306
 20
15.98618
 30
0.0
 10
28.93401
 20
16.00297
 30
0.0
 10
28.90564
 20
16.0113
 30
0.0
 10
28.86811
 20
16.0113
 30
0.0
 10
28.83297
 20
16.0113
 30
0.0
 10
28.80701
 20
16.00509
 30
0.0
 10
28.79036
 20
15.99281
 30
0.0
 10
28.77356
 20
15.98054
 30
0.0
 10
28.76129
 20
15.9588
 30
0.0
 10
28.75324
 20
15.92748
 30
0.0
 10
28.75324
 20
15.92748
 30
0.0
 10
28.68043
 20
15.93764
 30
0.0
 10
28.68043
 20
15.93764
 30
0.0
 10
28.68706
 20
15.96882
 30
0.0
 10
28.69793
 20
15.99408
 30
0.0
 10
28.71317
 20
16.01327
 30
0.0
 10
28.72841
 20
16.03246
 30
0.0
 10
28.75042
 20
16.04714
 30
0.0
 10
28.77921
 20
16.05758
 30
0.0
 10
28.80785
 20
16.06788
 30
0.0
 10
28.8413
 20
16.07311
 30
0.0
 10
28.87912
 20
16.07311
 30
0.0
 10
28.91665
 20
16.07311
 30
0.0
 10
28.94727
 20
16.06873
 30
0.0
 10
28.97084
 20
16.05984
 30
0.0
 10
28.99426
 20
16.05095
 30
0.0
 10
29.01162
 20
16.03994
 30
0.0
 10
29.02263
 20
16.02654
 30
0.0
 10
29.03363
 20
16.01313
 30
0.0
 10
29.04139
 20
15.9962
 30
0.0
 10
29.04591
 20
15.97574
 30
0.0
 10
29.04831
 20
15.96304
 30
0.0
 10
29.04958
 20
15.94018
 30
0.0
 10
29.04958
 20
15.9073
 30
0.0
 10
29.04958
 20
15.9073
 30
0.0
 10
29.04958
 20
15.80852
 30
0.0
 10
29.04958
 20
15.80852
 30
0.0
 10
29.04958
 20
15.73952
 30
0.0
 10
29.05113
 20
15.69591
 30
0.0
 10
29.05423
 20
15.67743
 30
0.0
 10
29.0572
 20
15.65894
 30
0.0
 10
29.06341
 20
15.6413
 30
0.0
 10
29.07244
 20
15.62437
 30
0.0
 10
29.07244
 20
15.62437
 30
0.0
 10
28.99454
 20
15.62437
 30
0.0
 10
28.99454
 20
15.62437
 30
0.0
 10
28.98707
 20
15.64003
 30
0.0
 10
28.98227
 20
15.65838
 30
0.0
 10
28.98015
 20
15.6794
 30
0.0
  0
SPLINE
  5
75
330
1F
100
AcDbEntity
  8
layer 1
 62
   250
370
     9
100
AcDbSpline
210
0.0
220
0.0
230
1.0
 70
    11
 71
     3
 72
    35
 73
    31
 74
     0
 42
0.0000000001
 43
0.0000000001
 40
0.0
 40
0.0
 40
0.0
 40
0.0
 40
0.1
 40
0.1
 40
0.1
 40
0.2
 40
0.2
 40
0.2
 40
0.3
 40
0.3
 40
0.3
 40
0.4
 40
0.4
 40
0.4
 40
0.5
 40
0.5
 40
0.5
 40
0.6000000000000001
 40
0.6000000000000001
 40
0.6000000000000001
 40
0.7000000000000001
 40
0.7000000000000001
 40
0.7000000000000001
 40
0.8
 40
0.8
 40
0.8
 40
0.9
 40
0.9
 40
0.9
 40
1.0
 40
1.0
 40
1.0
 40
1.0
 10
28.97422
 20
15.8445
 30
0.0
 10
28.94713
 20
15.8335
 30
0.0
 10
28.90649
 20
15.82418
 30
0.0
 10
28.8523
 20
15.81656
 30
0.0
 10
28.82154
 20
15.81219
 30
0.0
 10
28.79981
 20
15.80725
 30
0.0
 10
28.78711
 20
15.80175
 30
0.0
 10
28.77441
 20
15.79624
 30
0.0
 10
28.76467
 20
15.7882
 30
0.0
 10
28.75776
 20
15.77776
 30
0.0
 10
28.75084
 20
15.76718
 30
0.0
 10
28.74732
 20
15.75546
 30
0.0
 10
28.74732
 20
15.74248
 30
0.0
 10
28.74732
 20
15.72287
 30
0.0
 10
28.7548
 20
15.70636
 30
0.0
 10
28.76989
 20
15.69323
 30
0.0
 10
28.78499
 20
15.68011
 30
0.0
 10
28.80701
 20
15.67348
 30
0.0
 10
28.83594
 20
15.67348
 30
0.0
 10
28.86458
 20
15.67348
 30
0.0
 10
28.89012
 20
15.67969
 30
0.0
 10
28.91256
 20
15.69224
 30
0.0
 10
28.93485
 20
15.70466
 30
0.0
 10
28.95136
 20
15.72174
 30
0.0
 10
28.96181
 20
15.74333
 30
0.0
 10
28.96985
 20
15.76012
 30
0.0
 10
28.9738
 20
15.78481
 30
0.0
 10
28.9738
 20
15.81741
 30
0.0
 10
28.9738
 20
15.81741
 30
0.0
 10
28.97422
 20
15.8445
 30
0.0
 10
28.97422
 20
15.8445
 30
0.0
  0
SPLINE
  5
76
330
1F
100
AcDbEntity
  8
layer 1
 62
   250
370
     9
100
AcDbSpline
210
0.0
220
0.0
230
1.0
 70
    11
 71
     3
 72
    95
 73
    91
 74
     0
 42
0.0000000001
 43
0.0000000001
 40
0.0
 40
0.0
 40
0.0
 40
0.0
 40
0.0333333333333333
 40
0.0333333333333333
 40
0.0333333333333333
 40
0.0666666666666667
 40
0.0666666666666667
 40
0.0666666666666667
 40
0.1
 40
0.1
 40
0.1
 40
0.1333333333333333
 40
0.1333333333333333
 40
0.1333333333333333
 40
0.1666666666666667
 40
0.1666666666666667
 40
0.1666666666666667
 40
0.2
 40
0.2
 40
0.2
 40
0.2333333333333333
 40
0.2333333333333333
 40
0.2333333333333333
 40
0.2666666666666667
 40
0.2666666666666667
 40
0.2666666666666667
 40
0.3
 40
0.3
 40
0.3
 40
0.3333333333333333
 40
0.3333333333333333
 40
0.3333333333333333
 40
0.3666666666666666
 40
0.3666666666666666
 40
0.3666666666666666
 40
0.4
 40
0.4
 40
0.4
 40
0.4333333333333333
 40
0.4333333333333333
 40
0.4333333333333333
 40
0.4666666666666667
 40
0.4666666666666667
 40
0.4666666666666667
 40
0.5
 40
0.5
 40
0.5
 40
0.5333333333333333
 40
0.5333333333333333
 40
0.5333333333333333
 40
0.5666666666666667
 40
0.5666666666666667
 40
0.5666666666666667
 40
0.6
 40
0.6
 40
0.6
 40
0.6333333333333333
 40
0.6333333333333333
 40
0.6333333333333333
 40
0.6666666666666666
 40
0.6666666666666666
 40
0.6666666666666666
 40
0.7
 40
0.7
 40
0.7
 40
0.7333333333333333
 40
0.7333333333333333
 40
0.7333333333333333
 40
0.7666666666666666
 40
0.7666666666666666
 40
0.7666666666666666
 40
0.8
 40
0.8
 40
0.8
 40
0.8333333333333334
 40
0.8333333333333334
 40
0.8333333333333334
 40
0.8666666666666667
 40
0.8666666666666667
 40
0.8666666666666667
 40
0.9
 40
0.9
 40
0.9
 40
0.9333333333333333
 40
0.9333333333333333
 40
0.9333333333333333
 40
0.9666666666666667
 40
0.9666666666666667
 40
0.9666666666666667
 40
1.0
 40
1.0
 40
1.0
 40
1.0
 10
29.37893
 20
15.78524
 30
0.0
 10
29.37893
 20
15.78524
 30
0.0
 10
29.45344
 20
15.7954
 30
0.0
 10
29.45344
 20
15.7954
 30
0.0
 10
29.46204
 20
15.75306
 30
0.0
 10
29.47644
 20
15.72258
 30
0.0
 10
29.4969
 20
15.70396
 30
0.0
 10
29.51736
 20
15.68533
 30
0.0
 10
29.54248
 20
15.67602
 30
0.0
 10
29.57225
 20
15.67602
 30
0.0
 10
29.60753
 20
15.67602
 30
0.0
 10
29.63731
 20
15.68815
 30
0.0
 10
29.66129
 20
15.71242
 30
0.0
 10
29.68528
 20
15.73669
 30
0.0
 10
29.69728
 20
15.76675
 30
0.0
 10
29.69728
 20
15.80259
 30
0.0
 10
29.69728
 20
15.83674
 30
0.0
 10
29.68613
 20
15.86497
 30
0.0
 10
29.66369
 20
15.88726
 30
0.0
 10
29.6414
 20
15.90942
 30
0.0
 10
29.61303
 20
15.92056
 30
0.0
 10
29.57846
 20
15.92056
 30
0.0
 10
29.56435
 20
15.92056
 30
0.0
 10
29.54685
 20
15.91774
 30
0.0
 10
29.52583
 20
15.91224
 30
0.0
 10
29.52583
 20
15.91224
 30
0.0
 10
29.53415
 20
15.97743
 30
0.0
 10
29.53415
 20
15.97743
 30
0.0
 10
29.53909
 20
15.97687
 30
0.0
 10
29.54318
 20
15.97658
 30
0.0
 10
29.54615
 20
15.97658
 30
0.0
 10
29.57804
 20
15.97658
 30
0.0
 10
29.60654
 20
15.98491
 30
0.0
 10
29.63208
 20
16.00142
 30
0.0
 10
29.65748
 20
16.01793
 30
0.0
 10
29.67018
 20
16.04333
 30
0.0
 10
29.67018
 20
16.07762
 30
0.0
 10
29.67018
 20
16.10486
 30
0.0
 10
29.66087
 20
16.12743
 30
0.0
 10
29.64239
 20
16.14535
 30
0.0
 10
29.6239
 20
16.16328
 30
0.0
 10
29.60005
 20
16.17217
 30
0.0
 10
29.57084
 20
16.17217
 30
0.0
 10
29.54177
 20
16.17217
 30
0.0
 10
29.51764
 20
16.16299
 30
0.0
 10
29.49831
 20
16.14465
 30
0.0
 10
29.47898
 20
16.1263
 30
0.0
 10
29.46656
 20
16.09879
 30
0.0
 10
29.46106
 20
16.0621
 30
0.0
 10
29.46106
 20
16.0621
 30
0.0
 10
29.38655
 20
16.07565
 30
0.0
 10
29.38655
 20
16.07565
 30
0.0
 10
29.39572
 20
16.1256
 30
0.0
 10
29.41632
 20
16.1644
 30
0.0
 10
29.44864
 20
16.19192
 30
0.0
 10
29.48081
 20
16.21944
 30
0.0
 10
29.52103
 20
16.23313
 30
0.0
 10
29.56901
 20
16.23313
 30
0.0
 10
29.60203
 20
16.23313
 30
0.0
 10
29.63251
 20
16.22607
 30
0.0
 10
29.66031
 20
16.21182
 30
0.0
 10
29.68825
 20
16.19771
 30
0.0
 10
29.70955
 20
16.17837
 30
0.0
 10
29.72423
 20
16.15396
 30
0.0
 10
29.73905
 20
16.12941
 30
0.0
 10
29.74638
 20
16.10344
 30
0.0
 10
29.74638
 20
16.07593
 30
0.0
 10
29.74638
 20
16.04982
 30
0.0
 10
29.73933
 20
16.02611
 30
0.0
 10
29.72536
 20
16.00467
 30
0.0
 10
29.71125
 20
15.98322
 30
0.0
 10
29.69036
 20
15.96614
 30
0.0
 10
29.66285
 20
15.95344
 30
0.0
 10
29.69869
 20
15.94526
 30
0.0
 10
29.72649
 20
15.92804
 30
0.0
 10
29.74638
 20
15.90194
 30
0.0
 10
29.76614
 20
15.87597
 30
0.0
 10
29.77602
 20
15.84323
 30
0.0
 10
29.77602
 20
15.80415
 30
0.0
 10
29.77602
 20
15.75123
 30
0.0
 10
29.75669
 20
15.70621
 30
0.0
 10
29.71816
 20
15.66938
 30
0.0
 10
29.6795
 20
15.63255
 30
0.0
 10
29.63067
 20
15.61421
 30
0.0
 10
29.57169
 20
15.61421
 30
0.0
 10
29.51849
 20
15.61421
 30
0.0
 10
29.47432
 20
15.63016
 30
0.0
 10
29.43918
 20
15.66191
 30
0.0
 10
29.40391
 20
15.69366
 30
0.0
 10
29.38387
 20
15.73472
 30
0.0
 10
29.37893
 20
15.78524
 30
0.0
  0
SPLINE
  5
77
330
1F
100
AcDbEntity
  8
layer 1
 62
   250
370
     9
100
AcDbSpline
210
0.0
220
0.0
230
1.0
 70
    11
 71
     3
 72
    44
 73
    40
 74
     0
 42
0.0000000001
 43
0.0000000001
 40
0.0
 40
0.0
 40
0.0
 40
0.0
 40
0.0769230769230769
 40
0.0769230769230769
 40
0.0769230769230769
 40
0.1538461538461539
 40
0.1538461538461539
 40
0.1538461538461539
 40
0.2307692307692308
 40
0.2307692307692308
 40
0.2307692307692308
 40
0.3076923076923077
 40
0.3076923076923077
 40
0.3076923076923077
 40
0.3846153846153846
 40
0.3846153846153846
 40
0.3846153846153846
 40
0.4615384615384616
 40
0.4615384615384616
 40
0.4615384615384616
 40
0.5384615384615385
 40
0.5384615384615385
 40
0.5384615384615385
 40
0.6153846153846154
 40
0.6153846153846154
 40
0.6153846153846154
 40
0.6923076923076923
 40
0.6923076923076923
 40
0.6923076923076923
 40
0.7692307692307693
 40
0.7692307692307693
 40
0.7692307692307693
 40
0.8461538461538463
 40
0.8461538461538463
 40
0.8461538461538463
 40
0.9230769230769231
 40
0.9230769230769231
 40
0.9230769230769231
 40
1.0
 40
1.0
 40
1.0
 40
1.0
 10
29.87268
 20
16.06379
 30
0.0
 10
29.87268
 20
16.06379
 30
0.0
 10
29.98726
 20
16.06379
 30
0.0
 10
29.98726
 20
16.06379
 30
0.0
 10
29.98726
 20
16.06379
 30
0.0
 10
30.1034
 20
15.71214
 30
0.0
 10
30.1034
 20
15.71214
 30
0.0
 10
30.1034
 20
15.71214
 30
0.0
 10
30.23195
 20
16.06379
 30
0.0
 10
30.23195
 20
16.06379
 30
0.0
 10
30.23195
 20
16.06379
 30
0.0
 10
30.33835
 20
16.06379
 30
0.0
 10
30.33835
 20
16.06379
 30
0.0
 10
30.33835
 20
16.06379
 30
0.0
 10
30.33835
 20
15.62437
 30
0.0
 10
30.33835
 20
15.62437
 30
0.0
 10
30.33835
 20
15.62437
 30
0.0
 10
30.26384
 20
15.62437
 30
0.0
 10
30.26384
 20
15.62437
 30
0.0
 10
30.26384
 20
15.62437
 30
0.0
 10
30.26384
 20
15.97814
 30
0.0
 10
30.26384
 20
15.97814
 30
0.0
 10
30.26384
 20
15.97814
 30
0.0
 10
30.13444
 20
15.62437
 30
0.0
 10
30.13444
 20
15.62437
 30
0.0
 10
30.13444
 20
15.62437
 30
0.0
 10
30.06784
 20
15.62437
 30
0.0
 10
30.06784
 20
15.62437
 30
0.0
 10
30.06784
 20
15.62437
 30
0.0
 10
29.94549
 20
15.99507
 30
0.0
 10
29.94549
 20
15.99507
 30
0.0
 10
29.94549
 20
15.99507
 30
0.0
 10
29.94549
 20
15.62437
 30
0.0
 10
29.94549
 20
15.62437
 30
0.0
 10
29.94549
 20
15.62437
 30
0.0
 10
29.87268
 20
15.62437
 30
0.0
 10
29.87268
 20
15.62437
 30
0.0
 10
29.87268
 20
15.62437
 30
0.0
 10
29.87268
 20
16.06379
 30
0.0
 10
29.87268
 20
16.06379
 30
0.0
  0
SPLINE
  5
78
330
1F
100
AcDbEntity
  8
layer 1
 62
   250
370
     9
100
AcDbSpline
210
0.0
220
0.0
230
1.0
 70
    11
 71
     3
 72
    44
 73
    40
 74
     0
 42
0.0000000001
 43
0.0000000001
 40
0.0
 40
0.0
 40
0.0
 40
0.0
 40
0.0769230769230769
 40
0.0769230769230769
 40
0.0769230769230769
 40
0.1538461538461539
 40
0.1538461538461539
 40
0.1538461538461539
 40
0.2307692307692308
 40
0.2307692307692308
 40
0.2307692307692308
 40
0.3076923076923077
 40
0.3076923076923077
 40
0.3076923076923077
 40
0.3846153846153846
 40
0.3846153846153846
 40
0.3846153846153846
 40
0.4615384615384616
 40
0.4615384615384616
 40
0.4615384615384616
 40
0.5384615384615385
 40
0.5384615384615385
 40
0.5384615384615385
 40
0.6153846153846154
 40
0.6153846153846154
 40
0.6153846153846154
 40
0.6923076923076923
 40
0.6923076923076923
 40
0.6923076923076923
 40
0.7692307692307693
 40
0.7692307692307693
 40
0.7692307692307693
 40
0.8461538461538463
 40
0.8461538461538463
 40
0.8461538461538463
 40
0.9230769230769231
 40
0.9230769230769231
 40
0.9230769230769231
 40
1.0
 40
1.0
 40
1.0
 40
1.0
 10
30.45477
 20
16.06379
 30
0.0
 10
30.45477
 20
16.06379
 30
0.0
 10
30.56935
 20
16.06379
 30
0.0
 10
30.56935
 20
16.06379
 30
0.0
 10
30.56935
 20
16.06379
 30
0.0
 10
30.68549
 20
15.71214
 30
0.0
 10
30.68549
 20
15.71214
 30
0.0
 10
30.68549
 20
15.71214
 30
0.0
 10
30.81404
 20
16.06379
 30
0.0
 10
30.81404
 20
16.06379
 30
0.0
 10
30.81404
 20
16.06379
 30
0.0
 10
30.92044
 20
16.06379
 30
0.0
 10
30.92044
 20
16.06379
 30
0.0
 10
30.92044
 20
16.06379
 30
0.0
 10
30.92044
 20
15.62437
 30
0.0
 10
30.92044
 20
15.62437
 30
0.0
 10
30.92044
 20
15.62437
 30
0.0
 10
30.84593
 20
15.62437
 30
0.0
 10
30.84593
 20
15.62437
 30
0.0
 10
30.84593
 20
15.62437
 30
0.0
 10
30.84593
 20
15.97814
 30
0.0
 10
30.84593
 20
15.97814
 30
0.0
 10
30.84593
 20
15.97814
 30
0.0
 10
30.71653
 20
15.62437
 30
0.0
 10
30.71653
 20
15.62437
 30
0.0
 10
30.71653
 20
15.62437
 30
0.0
 10
30.64993
 20
15.62437
 30
0.0
 10
30.64993
 20
15.62437
 30
0.0
 10
30.64993
 20
15.62437
 30
0.0
 10
30.52758
 20
15.99507
 30
0.0
 10
30.52758
 20
15.99507
 30
0.0
 10
30.52758
 20
15.99507
 30
0.0
 10
30.52758
 20
15.62437
 30
0.0
 10
30.52758
 20
15.62437
 30
0.0
 10
30.52758
 20
15.62437
 30
0.0
 10
30.45477
 20
15.62437
 30
0.0
 10
30.45477
 20
15.62437
 30
0.0
 10
30.45477
 20
15.62437
 30
0.0
 10
30.45477
 20
16.06379
 30
0.0
 10
30.45477
 20
16.06379
 30
0.0
  0
SPLINE
  5
79
330
1F
100
AcDbEntity
  8
layer 1
 62
   250
370
     9
100
AcDbSpline
210
0.0
220
0.0
230
1.0
 70
    11
 71
     3
 72
    50
 73
    46
 74
     0
 42
0.0000000001
 43
0.0000000001
 40
0.0
 40
0.0
 40
0.0
 40
0.0
 40
0.0666666666666667
 40
0.0666666666666667
 40
0.0666666666666667
 40
0.1333333333333333
 40
0.1333333333333333
 40
0.1333333333333333
 40
0.2
 40
0.2
 40
0.2
 40
0.2666666666666667
 40
0.2666666666666667
 40
0.2666666666666667
 40
0.3333333333333333
 40
0.3333333333333333
 40
0.3333333333333333
 40
0.4
 40
0.4
 40
0.4
 40
0.4666666666666667
 40
0.4666666666666667
 40
0.4666666666666667
 40
0.5333333333333333
 40
0.5333333333333333
 40
0.5333333333333333
 40
0.6
 40
0.6
 40
0.6
 40
0.6666666666666666
 40
0.6666666666666666
 40
0.6666666666666666
 40
0.7333333333333333
 40
0.7333333333333333
 40
0.7333333333333333
 40
0.8
 40
0.8
 40
0.8
 40
0.8666666666666667
 40
0.8666666666666667
 40
0.8666666666666667
 40
0.9333333333333333
 40
0.9333333333333333
 40
0.9333333333333333
 40
1.0
 40
1.0
 40
1.0
 40
1.0
 10
26.11629
 20
14.51001
 30
0.0
 10
26.11629
 20
14.51001
 30
0.0
 10
26.11629
 20
15.11792
 30
0.0
 10
26.11629
 20
15.11792
 30
0.0
 10
26.11629
 20
15.11792
 30
0.0
 10
26.18402
 20
15.11792
 30
0.0
 10
26.18402
 20
15.11792
 30
0.0
 10
26.18402
 20
15.11792
 30
0.0
 10
26.18402
 20
15.06021
 30
0.0
 10
26.18402
 20
15.06021
 30
0.0
 10
26.19997
 20
15.0825
 30
0.0
 10
26.21803
 20
15.09929
 30
0.0
 10
26.23821
 20
15.11044
 30
0.0
 10
26.25825
 20
15.12159
 30
0.0
 10
26.28266
 20
15.12724
 30
0.0
 10
26.31131
 20
15.12724
 30
0.0
 10
26.34884
 20
15.12724
 30
0.0
 10
26.38186
 20
15.11764
 30
0.0
 10
26.41051
 20
15.09831
 30
0.0
 10
26.43915
 20
15.07912
 30
0.0
 10
26.46074
 20
15.05188
 30
0.0
 10
26.47542
 20
15.01689
 30
0.0
 10
26.48995
 20
14.98175
 30
0.0
 10
26.49729
 20
14.94337
 30
0.0
 10
26.49729
 20
14.90146
 30
0.0
 10
26.49729
 20
14.85672
 30
0.0
 10
26.48925
 20
14.81637
 30
0.0
 10
26.47316
 20
14.78038
 30
0.0
 10
26.45707
 20
14.74454
 30
0.0
 10
26.43365
 20
14.71702
 30
0.0
 10
26.40289
 20
14.69783
 30
0.0
 10
26.37227
 20
14.67878
 30
0.0
 10
26.33995
 20
14.66919
 30
0.0
 10
26.30609
 20
14.66919
 30
0.0
 10
26.28125
 20
14.66919
 30
0.0
 10
26.25895
 20
14.67441
 30
0.0
 10
26.23934
 20
14.68485
 30
0.0
 10
26.21958
 20
14.69529
 30
0.0
 10
26.2035
 20
14.70842
 30
0.0
 10
26.1908
 20
14.72436
 30
0.0
 10
26.1908
 20
14.72436
 30
0.0
 10
26.1908
 20
14.51001
 30
0.0
 10
26.1908
 20
14.51001
 30
0.0
 10
26.1908
 20
14.51001
 30
0.0
 10
26.11629
 20
14.51001
 30
0.0
 10
26.11629
 20
14.51001
 30
0.0
  0
SPLINE
  5
7A
330
1F
100
AcDbEntity
  8
layer 1
 62
   250
370
     9
100
AcDbSpline
210
0.0
220
0.0
230
1.0
 70
    11
 71
     3
 72
    29
 73
    25
 74
     0
 42
0.0000000001
 43
0.0000000001
 40
0.0
 40
0.0
 40
0.0
 40
0.0
 40
0.125
 40
0.125
 40
0.125
 40
0.25
 40
0.25
 40
0.25
 40
0.375
 40
0.375
 40
0.375
 40
0.5
 40
0.5
 40
0.5
 40
0.625
 40
0.625
 40
0.625
 40
0.75
 40
0.75
 40
0.75
 40
0.875
 40
0.875
 40
0.875
 40
1.0
 40
1.0
 40
1.0
 40
1.0
 10
26.18402
 20
14.89553
 30
0.0
 10
26.18402
 20
14.83923
 30
0.0
 10
26.19545
 20
14.7976
 30
0.0
 10
26.21817
 20
14.77065
 30
0.0
 10
26.24103
 20
14.74369
 30
0.0
 10
26.26869
 20
14.73015
 30
0.0
 10
26.30115
 20
14.73015
 30
0.0
 10
26.33417
 20
14.73015
 30
0.0
 10
26.36239
 20
14.74412
 30
0.0
 10
26.38581
 20
14.77206
 30
0.0
 10
26.40938
 20
14.8
 30
0.0
 10
26.42109
 20
14.84318
 30
0.0
 10
26.42109
 20
14.90174
 30
0.0
 10
26.42109
 20
14.95762
 30
0.0
 10
26.40966
 20
14.99939
 30
0.0
 10
26.38666
 20
15.02719
 30
0.0
 10
26.36366
 20
15.05499
 30
0.0
 10
26.33628
 20
15.06881
 30
0.0
 10
26.30439
 20
15.06881
 30
0.0
 10
26.27278
 20
15.06881
 30
0.0
 10
26.24484
 20
15.054
 30
0.0
 10
26.22057
 20
15.02451
 30
0.0
 10
26.19616
 20
14.99487
 30
0.0
 10
26.18402
 20
14.95197
 30
0.0
 10
26.18402
 20
14.89553
 30
0.0
  0
SPLINE
  5
7B
330
1F
100
AcDbEntity
  8
layer 1
 62
   250
370
     9
100
AcDbSpline
210
0.0
220
0.0
230
1.0
 70
    11
 71
     3
 72
    86
 73
    82
 74
     0
 42
0.0000000001
 43
0.0000000001
 40
0.0
 40
0.0
 40
0.0
 40
0.0
 40
0.037037037037037
 40
0.037037037037037
 40
0.037037037037037
 40
0.0740740740740741
 40
0.0740740740740741
 40
0.0740740740740741
 40
0.1111111111111111
 40
0.1111111111111111
 40
0.1111111111111111
 40
0.1481481481481481
 40
0.1481481481481481
 40
0.1481481481481481
 40
0.1851851851851852
 40
0.1851851851851852
 40
0.1851851851851852
 40
0.2222222222222222
 40
0.2222222222222222
 40
0.2222222222222222
 40
0.2592592592592592
 40
0.2592592592592592
 40
0.2592592592592592
 40
0.2962962962962963
 40
0.2962962962962963
 40
0.2962962962962963
 40
0.3333333333333333
 40
0.3333333333333333
 40
0.3333333333333333
 40
0.3703703703703703
 40
0.3703703703703703
 40
0.3703703703703703
 40
0.4074074074074074
 40
0.4074074074074074
 40
0.4074074074074074
 40
0.4444444444444444
 40
0.4444444444444444
 40
0.4444444444444444
 40
0.4814814814814815
 40
0.4814814814814815
 40
0.4814814814814815
 40
0.5185185185185185
 40
0.5185185185185185
 40
0.5185185185185185
 40
0.5555555555555556
 40
0.5555555555555556
 40
0.5555555555555556
 40
0.5925925925925926
 40
0.5925925925925926
 40
0.5925925925925926
 40
0.6296296296296295
 40
0.6296296296296295
 40
0.6296296296296295
 40
0.6666666666666666
 40
0.6666666666666666
 40
0.6666666666666666
 40
0.7037037037037037
 40
0.7037037037037037
 40
0.7037037037037037
 40
0.7407407407407407
 40
0.7407407407407407
 40
0.7407407407407407
 40
0.7777777777777777
 40
0.7777777777777777
 40
0.7777777777777777
 40
0.8148148148148148
 40
0.8148148148148148
 40
0.8148148148148148
 40
0.8518518518518519
 40
0.8518518518518519
 40
0.8518518518518519
 40
0.8888888888888888
 40
0.8888888888888888
 40
0.8888888888888888
 40
0.9259259259259258
 40
0.9259259259259258
 40
0.9259259259259258
 40
0.9629629629629629
 40
0.9629629629629629
 40
0.9629629629629629
 40
1.0
 40
1.0
 40
1.0
 40
1.0
 10
26.8742
 20
14.73353
 30
0.0
 10
26.84654
 20
14.70997
 30
0.0
 10
26.81987
 20
14.69346
 30
0.0
 10
26.79433
 20
14.68372
 30
0.0
 10
26.76879
 20
14.67398
 30
0.0
 10
26.74142
 20
14.66919
 30
0.0
 10
26.71206
 20
14.66919
 30
0.0
 10
26.6638
 20
14.66919
 30
0.0
 10
26.62669
 20
14.6809
 30
0.0
 10
26.60073
 20
14.70446
 30
0.0
 10
26.57476
 20
14.72789
 30
0.0
 10
26.56178
 20
14.75795
 30
0.0
 10
26.56178
 20
14.79449
 30
0.0
 10
26.56178
 20
14.81594
 30
0.0
 10
26.56672
 20
14.83556
 30
0.0
 10
26.57646
 20
14.85334
 30
0.0
 10
26.58633
 20
14.87112
 30
0.0
 10
26.59917
 20
14.88523
 30
0.0
 10
26.61498
 20
14.89595
 30
0.0
 10
26.63092
 20
14.90668
 30
0.0
 10
26.6487
 20
14.91486
 30
0.0
 10
26.6686
 20
14.92037
 30
0.0
 10
26.68328
 20
14.92418
 30
0.0
 10
26.70543
 20
14.92784
 30
0.0
 10
26.73492
 20
14.93151
 30
0.0
 10
26.79504
 20
14.93857
 30
0.0
 10
26.83949
 20
14.94718
 30
0.0
 10
26.86785
 20
14.95705
 30
0.0
 10
26.86813
 20
14.96721
 30
0.0
 10
26.86827
 20
14.97371
 30
0.0
 10
26.86827
 20
14.97639
 30
0.0
 10
26.86827
 20
15.00658
 30
0.0
 10
26.86122
 20
15.02789
 30
0.0
 10
26.84711
 20
15.04031
 30
0.0
 10
26.82806
 20
15.0571
 30
0.0
 10
26.79969
 20
15.06543
 30
0.0
 10
26.76216
 20
15.06543
 30
0.0
 10
26.72702
 20
15.06543
 30
0.0
 10
26.70106
 20
15.05922
 30
0.0
 10
26.68441
 20
15.04694
 30
0.0
 10
26.66761
 20
15.03467
 30
0.0
 10
26.65534
 20
15.01293
 30
0.0
 10
26.64729
 20
14.98161
 30
0.0
 10
26.64729
 20
14.98161
 30
0.0
 10
26.57448
 20
14.99177
 30
0.0
 10
26.57448
 20
14.99177
 30
0.0
 10
26.58111
 20
15.02295
 30
0.0
 10
26.59198
 20
15.04821
 30
0.0
 10
26.60722
 20
15.0674
 30
0.0
 10
26.62246
 20
15.08659
 30
0.0
 10
26.64447
 20
15.10127
 30
0.0
 10
26.67326
 20
15.11171
 30
0.0
 10
26.7019
 20
15.12201
 30
0.0
 10
26.73535
 20
15.12724
 30
0.0
 10
26.77317
 20
15.12724
 30
0.0
 10
26.8107
 20
15.12724
 30
0.0
 10
26.84132
 20
15.12286
 30
0.0
 10
26.86489
 20
15.11397
 30
0.0
 10
26.88831
 20
15.10508
 30
0.0
 10
26.90567
 20
15.09407
 30
0.0
 10
26.91668
 20
15.08067
 30
0.0
 10
26.92768
 20
15.06726
 30
0.0
 10
26.93544
 20
15.05033
 30
0.0
 10
26.93996
 20
15.02987
 30
0.0
 10
26.94236
 20
15.01717
 30
0.0
 10
26.94363
 20
14.99431
 30
0.0
 10
26.94363
 20
14.96143
 30
0.0
 10
26.94363
 20
14.96143
 30
0.0
 10
26.94363
 20
14.86265
 30
0.0
 10
26.94363
 20
14.86265
 30
0.0
 10
26.94363
 20
14.79365
 30
0.0
 10
26.94518
 20
14.75004
 30
0.0
 10
26.94828
 20
14.73156
 30
0.0
 10
26.95125
 20
14.71307
 30
0.0
 10
26.95746
 20
14.69543
 30
0.0
 10
26.96649
 20
14.6785
 30
0.0
 10
26.96649
 20
14.6785
 30
0.0
 10
26.88859
 20
14.6785
 30
0.0
 10
26.88859
 20
14.6785
 30
0.0
 10
26.88112
 20
14.69416
 30
0.0
 10
26.87632
 20
14.71251
 30
0.0
 10
26.8742
 20
14.73353
 30
0.0
  0
SPLINE
  5
7C
330
1F
100
AcDbEntity
  8
layer 1
 62
   250
370
     9
100
AcDbSpline
210
0.0
220
0.0
230
1.0
 70
    11
 71
     3
 72
    35
 73
    31
 74
     0
 42
0.0000000001
 43
0.0000000001
 40
0.0
 40
0.0
 40
0.0
 40
0.0
 40
0.1
 40
0.1
 40
0.1
 40
0.2
 40
0.2
 40
0.2
 40
0.3
 40
0.3
 40
0.3
 40
0.4
 40
0.4
 40
0.4
 40
0.5
 40
0.5
 40
0.5
 40
0.6000000000000001
 40
0.6000000000000001
 40
0.6000000000000001
 40
0.7000000000000001
 40
0.7000000000000001
 40
0.7000000000000001
 40
0.8
 40
0.8
 40
0.8
 40
0.9
 40
0.9
 40
0.9
 40
1.0
 40
1.0
 40
1.0
 40
1.0
 10
26.86827
 20
14.89863
 30
0.0
 10
26.84118
 20
14.88763
 30
0.0
 10
26.80054
 20
14.87831
 30
0.0
 10
26.74635
 20
14.87069
 30
0.0
 10
26.71559
 20
14.86632
 30
0.0
 10
26.69386
 20
14.86138
 30
0.0
 10
26.68116
 20
14.85588
 30
0.0
 10
26.66846
 20
14.85037
 30
0.0
 10
26.65872
 20
14.84233
 30
0.0
 10
26.65181
 20
14.83189
 30
0.0
 10
26.64489
 20
14.82131
 30
0.0
 10
26.64137
 20
14.80959
 30
0.0
 10
26.64137
 20
14.79661
 30
0.0
 10
26.64137
 20
14.777
 30
0.0
 10
26.64885
 20
14.76049
 30
0.0
 10
26.66394
 20
14.74736
 30
0.0
 10
26.67904
 20
14.73424
 30
0.0
 10
26.70106
 20
14.72761
 30
0.0
 10
26.72999
 20
14.72761
 30
0.0
 10
26.75863
 20
14.72761
 30
0.0
 10
26.78417
 20
14.73382
 30
0.0
 10
26.80661
 20
14.74637
 30
0.0
 10
26.8289
 20
14.75879
 30
0.0
 10
26.84541
 20
14.77587
 30
0.0
 10
26.85586
 20
14.79746
 30
0.0
 10
26.8639
 20
14.81425
 30
0.0
 10
26.86785
 20
14.83894
 30
0.0
 10
26.86785
 20
14.87154
 30
0.0
 10
26.86785
 20
14.87154
 30
0.0
 10
26.86827
 20
14.89863
 30
0.0
 10
26.86827
 20
14.89863
 30
0.0
  0
SPLINE
  5
7D
330
1F
100
AcDbEntity
  8
layer 1
 62
   250
370
     9
100
AcDbSpline
210
0.0
220
0.0
230
1.0
 70
    11
 71
     3
 72
    83
 73
    79
 74
     0
 42
0.0000000001
 43
0.0000000001
 40
0.0
 40
0.0
 40
0.0
 40
0.0
 40
0.0384615384615385
 40
0.0384615384615385
 40
0.0384615384615385
 40
0.0769230769230769
 40
0.0769230769230769
 40
0.0769230769230769
 40
0.1153846153846154
 40
0.1153846153846154
 40
0.1153846153846154
 40
0.1538461538461539
 40
0.1538461538461539
 40
0.1538461538461539
 40
0.1923076923076923
 40
0.1923076923076923
 40
0.1923076923076923
 40
0.2307692307692308
 40
0.2307692307692308
 40
0.2307692307692308
 40
0.2692307692307693
 40
0.2692307692307693
 40
0.2692307692307693
 40
0.3076923076923077
 40
0.3076923076923077
 40
0.3076923076923077
 40
0.3461538461538461
 40
0.3461538461538461
 40
0.3461538461538461
 40
0.3846153846153846
 40
0.3846153846153846
 40
0.3846153846153846
 40
0.4230769230769231
 40
0.4230769230769231
 40
0.4230769230769231
 40
0.4615384615384616
 40
0.4615384615384616
 40
0.4615384615384616
 40
0.5
 40
0.5
 40
0.5
 40
0.5384615384615385
 40
0.5384615384615385
 40
0.5384615384615385
 40
0.576923076923077
 40
0.576923076923077
 40
0.576923076923077
 40
0.6153846153846154
 40
0.6153846153846154
 40
0.6153846153846154
 40
0.6538461538461539
 40
0.6538461538461539
 40
0.6538461538461539
 40
0.6923076923076923
 40
0.6923076923076923
 40
0.6923076923076923
 40
0.7307692307692308
 40
0.7307692307692308
 40
0.7307692307692308
 40
0.7692307692307693
 40
0.7692307692307693
 40
0.7692307692307693
 40
0.8076923076923077
 40
0.8076923076923077
 40
0.8076923076923077
 40
0.8461538461538463
 40
0.8461538461538463
 40
0.8461538461538463
 40
0.8846153846153847
 40
0.8846153846153847
 40
0.8846153846153847
 40
0.9230769230769231
 40
0.9230769230769231
 40
0.9230769230769231
 40
0.9615384615384616
 40
0.9615384615384616
 40
0.9615384615384616
 40
1.0
 40
1.0
 40
1.0
 40
1.0
 10
27.14599
 20
14.87747
 30
0.0
 10
27.14599
 20
14.87747
 30
0.0
 10
27.14599
 20
14.93589
 30
0.0
 10
27.14599
 20
14.93589
 30
0.0
 10
27.17731
 20
14.93617
 30
0.0
 10
27.19876
 20
14.93744
 30
0.0
 10
27.21005
 20
14.93956
 30
0.0
 10
27.22148
 20
14.94181
 30
0.0
 10
27.23235
 20
14.94831
 30
0.0
 10
27.24251
 20
14.95931
 30
0.0
 10
27.25267
 20
14.97032
 30
0.0
 10
27.25775
 20
14.98401
 30
0.0
 10
27.25775
 20
15.00052
 30
0.0
 10
27.25775
 20
15.02041
 30
0.0
 10
27.25112
 20
15.0365
 30
0.0
 10
27.23771
 20
15.04835
 30
0.0
 10
27.2243
 20
15.06035
 30
0.0
 10
27.20709
 20
15.06627
 30
0.0
 10
27.18578
 20
15.06627
 30
0.0
 10
27.14387
 20
15.06627
 30
0.0
 10
27.11452
 20
15.04172
 30
0.0
 10
27.09773
 20
14.99261
 30
0.0
 10
27.09773
 20
14.99261
 30
0.0
 10
27.02661
 20
15.00447
 30
0.0
 10
27.02661
 20
15.00447
 30
0.0
 10
27.04862
 20
15.08631
 30
0.0
 10
27.10196
 20
15.12724
 30
0.0
 10
27.18635
 20
15.12724
 30
0.0
 10
27.23319
 20
15.12724
 30
0.0
 10
27.26988
 20
15.11454
 30
0.0
 10
27.29655
 20
15.08899
 30
0.0
 10
27.32322
 20
15.06345
 30
0.0
 10
27.33649
 20
15.03297
 30
0.0
 10
27.33649
 20
14.99755
 30
0.0
 10
27.33649
 20
14.96185
 30
0.0
 10
27.31913
 20
14.93335
 30
0.0
 10
27.28456
 20
14.91232
 30
0.0
 10
27.30671
 20
14.90047
 30
0.0
 10
27.32322
 20
14.88537
 30
0.0
 10
27.33437
 20
14.86703
 30
0.0
 10
27.34538
 20
14.84868
 30
0.0
 10
27.35088
 20
14.82695
 30
0.0
 10
27.35088
 20
14.80183
 30
0.0
 10
27.35088
 20
14.76246
 30
0.0
 10
27.33649
 20
14.73057
 30
0.0
 10
27.30784
 20
14.70602
 30
0.0
 10
27.27906
 20
14.68146
 30
0.0
 10
27.23898
 20
14.66919
 30
0.0
 10
27.18733
 20
14.66919
 30
0.0
 10
27.08714
 20
14.66919
 30
0.0
 10
27.02901
 20
14.7135
 30
0.0
 10
27.01306
 20
14.80211
 30
0.0
 10
27.01306
 20
14.80211
 30
0.0
 10
27.08333
 20
14.81735
 30
0.0
 10
27.08333
 20
14.81735
 30
0.0
 10
27.08968
 20
14.78941
 30
0.0
 10
27.10252
 20
14.76768
 30
0.0
 10
27.122
 20
14.7523
 30
0.0
 10
27.14147
 20
14.73692
 30
0.0
 10
27.16363
 20
14.7293
 30
0.0
 10
27.18874
 20
14.7293
 30
0.0
 10
27.21386
 20
14.7293
 30
0.0
 10
27.23475
 20
14.73636
 30
0.0
 10
27.2514
 20
14.75061
 30
0.0
 10
27.26805
 20
14.76472
 30
0.0
 10
27.27637
 20
14.78278
 30
0.0
 10
27.27637
 20
14.80479
 30
0.0
 10
27.27637
 20
14.82187
 30
0.0
 10
27.27115
 20
14.83669
 30
0.0
 10
27.26071
 20
14.84939
 30
0.0
 10
27.25027
 20
14.86209
 30
0.0
 10
27.23912
 20
14.86999
 30
0.0
 10
27.22727
 20
14.87309
 30
0.0
 10
27.21541
 20
14.87634
 30
0.0
 10
27.19397
 20
14.87789
 30
0.0
 10
27.16292
 20
14.87789
 30
0.0
 10
27.16038
 20
14.87789
 30
0.0
 10
27.15474
 20
14.87775
 30
0.0
 10
27.14599
 20
14.87747
 30
0.0
  0
SPLINE
  5
7E
330
1F
100
AcDbEntity
  8
layer 1
 62
   250
370
     9
100
AcDbSpline
210
0.0
220
0.0
230
1.0
 70
    11
 71
     3
 72
    44
 73
    40
 74
     0
 42
0.0000000001
 43
0.0000000001
 40
0.0
 40
0.0
 40
0.0
 40
0.0
 40
0.0769230769230769
 40
0.0769230769230769
 40
0.0769230769230769
 40
0.1538461538461539
 40
0.1538461538461539
 40
0.1538461538461539
 40
0.2307692307692308
 40
0.2307692307692308
 40
0.2307692307692308
 40
0.3076923076923077
 40
0.3076923076923077
 40
0.3076923076923077
 40
0.3846153846153846
 40
0.3846153846153846
 40
0.3846153846153846
 40
0.4615384615384616
 40
0.4615384615384616
 40
0.4615384615384616
 40
0.5384615384615385
 40
0.5384615384615385
 40
0.5384615384615385
 40
0.6153846153846154
 40
0.6153846153846154
 40
0.6153846153846154
 40
0.6923076923076923
 40
0.6923076923076923
 40
0.6923076923076923
 40
0.7692307692307693
 40
0.7692307692307693
 40
0.7692307692307693
 40
0.8461538461538463
 40
0.8461538461538463
 40
0.8461538461538463
 40
0.9230769230769231
 40
0.9230769230769231
 40
0.9230769230769231
 40
1.0
 40
1.0
 40
1.0
 40
1.0
 10
27.43936
 20
15.11792
 30
0.0
 10
27.43936
 20
15.11792
 30
0.0
 10
27.55394
 20
15.11792
 30
0.0
 10
27.55394
 20
15.11792
 30
0.0
 10
27.55394
 20
15.11792
 30
0.0
 10
27.67008
 20
14.76627
 30
0.0
 10
27.67008
 20
14.76627
 30
0.0
 10
27.67008
 20
14.76627
 30
0.0
 10
27.79863
 20
15.11792
 30
0.0
 10
27.79863
 20
15.11792
 30
0.0
 10
27.79863
 20
15.11792
 30
0.0
 10
27.90503
 20
15.11792
 30
0.0
 10
27.90503
 20
15.11792
 30
0.0
 10
27.90503
 20
15.11792
 30
0.0
 10
27.90503
 20
14.6785
 30
0.0
 10
27.90503
 20
14.6785
 30
0.0
 10
27.90503
 20
14.6785
 30
0.0
 10
27.83052
 20
14.6785
 30
0.0
 10
27.83052
 20
14.6785
 30
0.0
 10
27.83052
 20
14.6785
 30
0.0
 10
27.83052
 20
15.03227
 30
0.0
 10
27.83052
 20
15.03227
 30
0.0
 10
27.83052
 20
15.03227
 30
0.0
 10
27.70112
 20
14.6785
 30
0.0
 10
27.70112
 20
14.6785
 30
0.0
 10
27.70112
 20
14.6785
 30
0.0
 10
27.63452
 20
14.6785
 30
0.0
 10
27.63452
 20
14.6785
 30
0.0
 10
27.63452
 20
14.6785
 30
0.0
 10
27.51217
 20
15.0492
 30
0.0
 10
27.51217
 20
15.0492
 30
0.0
 10
27.51217
 20
15.0492
 30
0.0
 10
27.51217
 20
14.6785
 30
0.0
 10
27.51217
 20
14.6785
 30
0.0
 10
27.51217
 20
14.6785
 30
0.0
 10
27.43936
 20
14.6785
 30
0.0
 10
27.43936
 20
14.6785
 30
0.0
 10
27.43936
 20
14.6785
 30
0.0
 10
27.43936
 20
15.11792
 30
0.0
 10
27.43936
 20
15.11792
 30
0.0
  0
SPLINE
  5
7F
330
1F
100
AcDbEntity
  8
layer 1
 62
   250
370
     9
100
AcDbSpline
210
0.0
220
0.0
230
1.0
 70
    11
 71
     3
 72
    50
 73
    46
 74
     0
 42
0.0000000001
 43
0.0000000001
 40
0.0
 40
0.0
 40
0.0
 40
0.0
 40
0.0666666666666667
 40
0.0666666666666667
 40
0.0666666666666667
 40
0.1333333333333333
 40
0.1333333333333333
 40
0.1333333333333333
 40
0.2
 40
0.2
 40
0.2
 40
0.2666666666666667
 40
0.2666666666666667
 40
0.2666666666666667
 40
0.3333333333333333
 40
0.3333333333333333
 40
0.3333333333333333
 40
0.4
 40
0.4
 40
0.4
 40
0.4666666666666667
 40
0.4666666666666667
 40
0.4666666666666667
 40
0.5333333333333333
 40
0.5333333333333333
 40
0.5333333333333333
 40
0.6
 40
0.6
 40
0.6
 40
0.6666666666666666
 40
0.6666666666666666
 40
0.6666666666666666
 40
0.7333333333333333
 40
0.7333333333333333
 40
0.7333333333333333
 40
0.8
 40
0.8
 40
0.8
 40
0.8666666666666667
 40
0.8666666666666667
 40
0.8666666666666667
 40
0.9333333333333333
 40
0.9333333333333333
 40
0.9333333333333333
 40
1.0
 40
1.0
 40
1.0
 40
1.0
 10
28.31863
 20
14.82074
 30
0.0
 10
28.31863
 20
14.82074
 30
0.0
 10
28.39568
 20
14.81058
 30
0.0
 10
28.39568
 20
14.81058
 30
0.0
 10
28.38368
 20
14.76585
 30
0.0
 10
28.36125
 20
14.73099
 30
0.0
 10
28.32851
 20
14.7063
 30
0.0
 10
28.29577
 20
14.6816
 30
0.0
 10
28.254
 20
14.66919
 30
0.0
 10
28.20306
 20
14.66919
 30
0.0
 10
28.139
 20
14.66919
 30
0.0
 10
28.0882
 20
14.68894
 30
0.0
 10
28.05066
 20
14.72845
 30
0.0
 10
28.01312
 20
14.76782
 30
0.0
 10
27.99436
 20
14.82328
 30
0.0
 10
27.99436
 20
14.89454
 30
0.0
 10
27.99436
 20
14.9682
 30
0.0
 10
28.01327
 20
15.02549
 30
0.0
 10
28.05122
 20
15.06613
 30
0.0
 10
28.08918
 20
15.10692
 30
0.0
 10
28.13843
 20
15.12724
 30
0.0
 10
28.19897
 20
15.12724
 30
0.0
 10
28.25753
 20
15.12724
 30
0.0
 10
28.30537
 20
15.10734
 30
0.0
 10
28.34248
 20
15.0674
 30
0.0
 10
28.37959
 20
15.02747
 30
0.0
 10
28.39822
 20
14.97131
 30
0.0
 10
28.39822
 20
14.89892
 30
0.0
 10
28.39822
 20
14.89454
 30
0.0
 10
28.39808
 20
14.88791
 30
0.0
 10
28.3978
 20
14.87916
 30
0.0
 10
28.3978
 20
14.87916
 30
0.0
 10
28.07056
 20
14.87916
 30
0.0
 10
28.07056
 20
14.87916
 30
0.0
 10
28.07338
 20
14.83104
 30
0.0
 10
28.08693
 20
14.79407
 30
0.0
 10
28.11148
 20
14.76853
 30
0.0
 10
28.13589
 20
14.74299
 30
0.0
 10
28.16651
 20
14.73015
 30
0.0
 10
28.20306
 20
14.73015
 30
0.0
 10
28.2303
 20
14.73015
 30
0.0
 10
28.25358
 20
14.73734
 30
0.0
 10
28.27277
 20
14.75174
 30
0.0
 10
28.2921
 20
14.76613
 30
0.0
 10
28.30734
 20
14.78913
 30
0.0
 10
28.31863
 20
14.82074
 30
0.0
  0
SPLINE
  5
80
330
1F
100
AcDbEntity
  8
layer 1
 62
   250
370
     9
100
AcDbSpline
210
0.0
220
0.0
230
1.0
 70
    11
 71
     3
 72
    20
 73
    16
 74
     0
 42
0.0000000001
 43
0.0000000001
 40
0.0
 40
0.0
 40
0.0
 40
0.0
 40
0.2
 40
0.2
 40
0.2
 40
0.4
 40
0.4
 40
0.4
 40
0.6000000000000001
 40
0.6000000000000001
 40
0.6000000000000001
 40
0.8
 40
0.8
 40
0.8
 40
1.0
 40
1.0
 40
1.0
 40
1.0
 10
28.07479
 20
14.94012
 30
0.0
 10
28.07479
 20
14.94012
 30
0.0
 10
28.31948
 20
14.94012
 30
0.0
 10
28.31948
 20
14.94012
 30
0.0
 10
28.31623
 20
14.97709
 30
0.0
 10
28.30678
 20
15.00475
 30
0.0
 10
28.2914
 20
15.02324
 30
0.0
 10
28.26783
 20
15.05188
 30
0.0
 10
28.23707
 20
15.06627
 30
0.0
 10
28.19939
 20
15.06627
 30
0.0
 10
28.16524
 20
15.06627
 30
0.0
 10
28.1366
 20
15.05484
 30
0.0
 10
28.11331
 20
15.03198
 30
0.0
 10
28.09017
 20
15.00912
 30
0.0
 10
28.07733
 20
14.9785
 30
0.0
 10
28.07479
 20
14.94012
 30
0.0
  0
SPLINE
  5
81
330
1F
100
AcDbEntity
  8
layer 1
 62
   250
370
     9
100
AcDbSpline
210
0.0
220
0.0
230
1.0
 70
    11
 71
     3
 72
    50
 73
    46
 74
     0
 42
0.0000000001
 43
0.0000000001
 40
0.0
 40
0.0
 40
0.0
 40
0.0
 40
0.0666666666666667
 40
0.0666666666666667
 40
0.0666666666666667
 40
0.1333333333333333
 40
0.1333333333333333
 40
0.1333333333333333
 40
0.2
 40
0.2
 40
0.2
 40
0.2666666666666667
 40
0.2666666666666667
 40
0.2666666666666667
 40
0.3333333333333333
 40
0.3333333333333333
 40
0.3333333333333333
 40
0.4
 40
0.4
 40
0.4
 40
0.4666666666666667
 40
0.4666666666666667
 40
0.4666666666666667
 40
0.5333333333333333
 40
0.5333333333333333
 40
0.5333333333333333
 40
0.6
 40
0.6
 40
0.6
 40
0.6666666666666666
 40
0.6666666666666666
 40
0.6666666666666666
 40
0.7333333333333333
 40
0.7333333333333333
 40
0.7333333333333333
 40
0.8
 40
0.8
 40
0.8
 40
0.8666666666666667
 40
0.8666666666666667
 40
0.8666666666666667
 40
0.9333333333333333
 40
0.9333333333333333
 40
0.9333333333333333
 40
1.0
 40
1.0
 40
1.0
 40
1.0
 10
28.4898
 20
14.51001
 30
0.0
 10
28.4898
 20
14.51001
 30
0.0
 10
28.4898
 20
15.11792
 30
0.0
 10
28.4898
 20
15.11792
 30
0.0
 10
28.4898
 20
15.11792
 30
0.0
 10
28.55753
 20
15.11792
 30
0.0
 10
28.55753
 20
15.11792
 30
0.0
 10
28.55753
 20
15.11792
 30
0.0
 10
28.55753
 20
15.06021
 30
0.0
 10
28.55753
 20
15.06021
 30
0.0
 10
28.57348
 20
15.0825
 30
0.0
 10
28.59154
 20
15.09929
 30
0.0
 10
28.61172
 20
15.11044
 30
0.0
 10
28.63176
 20
15.12159
 30
0.0
 10
28.65617
 20
15.12724
 30
0.0
 10
28.68482
 20
15.12724
 30
0.0
 10
28.72235
 20
15.12724
 30
0.0
 10
28.75537
 20
15.11764
 30
0.0
 10
28.78402
 20
15.09831
 30
0.0
 10
28.81266
 20
15.07912
 30
0.0
 10
28.83425
 20
15.05188
 30
0.0
 10
28.84893
 20
15.01689
 30
0.0
 10
28.86346
 20
14.98175
 30
0.0
 10
28.8708
 20
14.94337
 30
0.0
 10
28.8708
 20
14.90146
 30
0.0
 10
28.8708
 20
14.85672
 30
0.0
 10
28.86276
 20
14.81637
 30
0.0
 10
28.84667
 20
14.78038
 30
0.0
 10
28.83058
 20
14.74454
 30
0.0
 10
28.80716
 20
14.71702
 30
0.0
 10
28.7764
 20
14.69783
 30
0.0
 10
28.74578
 20
14.67878
 30
0.0
 10
28.71346
 20
14.66919
 30
0.0
 10
28.6796
 20
14.66919
 30
0.0
 10
28.65476
 20
14.66919
 30
0.0
 10
28.63246
 20
14.67441
 30
0.0
 10
28.61285
 20
14.68485
 30
0.0
 10
28.59309
 20
14.69529
 30
0.0
 10
28.57701
 20
14.70842
 30
0.0
 10
28.56431
 20
14.72436
 30
0.0
 10
28.56431
 20
14.72436
 30
0.0
 10
28.56431
 20
14.51001
 30
0.0
 10
28.56431
 20
14.51001
 30
0.0
 10
28.56431
 20
14.51001
 30
0.0
 10
28.4898
 20
14.51001
 30
0.0
 10
28.4898
 20
14.51001
 30
0.0
  0
SPLINE
  5
82
330
1F
100
AcDbEntity
  8
layer 1
 62
   250
370
     9
100
AcDbSpline
210
0.0
220
0.0
230
1.0
 70
    11
 71
     3
 72
    29
 73
    25
 74
     0
 42
0.0000000001
 43
0.0000000001
 40
0.0
 40
0.0
 40
0.0
 40
0.0
 40
0.125
 40
0.125
 40
0.125
 40
0.25
 40
0.25
 40
0.25
 40
0.375
 40
0.375
 40
0.375
 40
0.5
 40
0.5
 40
0.5
 40
0.625
 40
0.625
 40
0.625
 40
0.75
 40
0.75
 40
0.75
 40
0.875
 40
0.875
 40
0.875
 40
1.0
 40
1.0
 40
1.0
 40
1.0
 10
28.55753
 20
14.89553
 30
0.0
 10
28.55753
 20
14.83923
 30
0.0
 10
28.56896
 20
14.7976
 30
0.0
 10
28.59168
 20
14.77065
 30
0.0
 10
28.61454
 20
14.74369
 30
0.0
 10
28.6422
 20
14.73015
 30
0.0
 10
28.67466
 20
14.73015
 30
0.0
 10
28.70768
 20
14.73015
 30
0.0
 10
28.7359
 20
14.74412
 30
0.0
 10
28.75932
 20
14.77206
 30
0.0
 10
28.78289
 20
14.8
 30
0.0
 10
28.7946
 20
14.84318
 30
0.0
 10
28.7946
 20
14.90174
 30
0.0
 10
28.7946
 20
14.95762
 30
0.0
 10
28.78317
 20
14.99939
 30
0.0
 10
28.76017
 20
15.02719
 30
0.0
 10
28.73717
 20
15.05499
 30
0.0
 10
28.70979
 20
15.06881
 30
0.0
 10
28.6779
 20
15.06881
 30
0.0
 10
28.64629
 20
15.06881
 30
0.0
 10
28.61835
 20
15.054
 30
0.0
 10
28.59408
 20
15.02451
 30
0.0
 10
28.56967
 20
14.99487
 30
0.0
 10
28.55753
 20
14.95197
 30
0.0
 10
28.55753
 20
14.89553
 30
0.0
  0
SPLINE
  5
83
330
1F
100
AcDbEntity
  8
layer 1
 62
   250
370
     9
100
AcDbSpline
210
0.0
220
0.0
230
1.0
 70
    11
 71
     3
 72
    74
 73
    70
 74
     0
 42
0.0000000001
 43
0.0000000001
 40
0.0
 40
0.0
 40
0.0
 40
0.0
 40
0.0434782608695652
 40
0.0434782608695652
 40
0.0434782608695652
 40
0.0869565217391304
 40
0.0869565217391304
 40
0.0869565217391304
 40
0.1304347826086956
 40
0.1304347826086956
 40
0.1304347826086956
 40
0.1739130434782609
 40
0.1739130434782609
 40
0.1739130434782609
 40
0.2173913043478261
 40
0.2173913043478261
 40
0.2173913043478261
 40
0.2608695652173913
 40
0.2608695652173913
 40
0.2608695652173913
 40
0.3043478260869565
 40
0.3043478260869565
 40
0.3043478260869565
 40
0.3478260869565217
 40
0.3478260869565217
 40
0.3478260869565217
 40
0.3913043478260869
 40
0.3913043478260869
 40
0.3913043478260869
 40
0.4347826086956522
 40
0.4347826086956522
 40
0.4347826086956522
 40
0.4782608695652174
 40
0.4782608695652174
 40
0.4782608695652174
 40
0.5217391304347826
 40
0.5217391304347826
 40
0.5217391304347826
 40
0.5652173913043478
 40
0.5652173913043478
 40
0.5652173913043478
 40
0.6086956521739131
 40
0.6086956521739131
 40
0.6086956521739131
 40
0.6521739130434783
 40
0.6521739130434783
 40
0.6521739130434783
 40
0.6956521739130435
 40
0.6956521739130435
 40
0.6956521739130435
 40
0.7391304347826086
 40
0.7391304347826086
 40
0.7391304347826086
 40
0.7826086956521738
 40
0.7826086956521738
 40
0.7826086956521738
 40
0.8260869565217391
 40
0.8260869565217391
 40
0.8260869565217391
 40
0.8695652173913043
 40
0.8695652173913043
 40
0.8695652173913043
 40
0.9130434782608695
 40
0.9130434782608695
 40
0.9130434782608695
 40
0.9565217391304348
 40
0.9565217391304348
 40
0.9565217391304348
 40
1.0
 40
1.0
 40
1.0
 40
1.0
 10
29.19507
 20
15.11792
 30
0.0
 10
29.19507
 20
15.11792
 30
0.0
 10
29.26958
 20
15.11792
 30
0.0
 10
29.26958
 20
15.11792
 30
0.0
 10
29.26958
 20
15.11792
 30
0.0
 10
29.26958
 20
14.92827
 30
0.0
 10
29.26958
 20
14.92827
 30
0.0
 10
29.29329
 20
14.92827
 30
0.0
 10
29.30994
 20
14.93278
 30
0.0
 10
29.31953
 20
14.94196
 30
0.0
 10
29.32899
 20
14.95099
 30
0.0
 10
29.34296
 20
14.97737
 30
0.0
 10
29.36159
 20
15.02126
 30
0.0
 10
29.37626
 20
15.05597
 30
0.0
 10
29.38811
 20
15.07883
 30
0.0
 10
29.39715
 20
15.08984
 30
0.0
 10
29.40632
 20
15.10085
 30
0.0
 10
29.41676
 20
15.10833
 30
0.0
 10
29.42861
 20
15.11214
 30
0.0
 10
29.44061
 20
15.11595
 30
0.0
 10
29.45966
 20
15.11792
 30
0.0
 10
29.48576
 20
15.11792
 30
0.0
 10
29.48576
 20
15.11792
 30
0.0
 10
29.50072
 20
15.11792
 30
0.0
 10
29.50072
 20
15.11792
 30
0.0
 10
29.50072
 20
15.11792
 30
0.0
 10
29.50072
 20
15.05654
 30
0.0
 10
29.50072
 20
15.05654
 30
0.0
 10
29.50072
 20
15.05654
 30
0.0
 10
29.47998
 20
15.05696
 30
0.0
 10
29.47998
 20
15.05696
 30
0.0
 10
29.46036
 20
15.05696
 30
0.0
 10
29.4478
 20
15.054
 30
0.0
 10
29.4423
 20
15.04821
 30
0.0
 10
29.43652
 20
15.04214
 30
0.0
 10
29.42763
 20
15.02408
 30
0.0
 10
29.41577
 20
14.99403
 30
0.0
 10
29.40448
 20
14.96524
 30
0.0
 10
29.39418
 20
14.94534
 30
0.0
 10
29.38473
 20
14.93434
 30
0.0
 10
29.37541
 20
14.92333
 30
0.0
 10
29.36088
 20
14.91331
 30
0.0
 10
29.34127
 20
14.90414
 30
0.0
 10
29.3733
 20
14.89553
 30
0.0
 10
29.40491
 20
14.86576
 30
0.0
 10
29.43595
 20
14.81467
 30
0.0
 10
29.43595
 20
14.81467
 30
0.0
 10
29.51765
 20
14.6785
 30
0.0
 10
29.51765
 20
14.6785
 30
0.0
 10
29.51765
 20
14.6785
 30
0.0
 10
29.43581
 20
14.6785
 30
0.0
 10
29.43581
 20
14.6785
 30
0.0
 10
29.43581
 20
14.6785
 30
0.0
 10
29.35524
 20
14.81425
 30
0.0
 10
29.35524
 20
14.81425
 30
0.0
 10
29.33901
 20
14.84177
 30
0.0
 10
29.3249
 20
14.85983
 30
0.0
 10
29.3129
 20
14.86858
 30
0.0
 10
29.30077
 20
14.87733
 30
0.0
 10
29.28637
 20
14.8817
 30
0.0
 10
29.26958
 20
14.8817
 30
0.0
 10
29.26958
 20
14.8817
 30
0.0
 10
29.26958
 20
14.6785
 30
0.0
 10
29.26958
 20
14.6785
 30
0.0
 10
29.26958
 20
14.6785
 30
0.0
 10
29.19507
 20
14.6785
 30
0.0
 10
29.19507
 20
14.6785
 30
0.0
 10
29.19507
 20
14.6785
 30
0.0
 10
29.19507
 20
15.11792
 30
0.0
 10
29.19507
 20
15.11792
 30
0.0
  0
SPLINE
  5
84
330
1F
100
AcDbEntity
  8
layer 1
 62
   250
370
     9
100
AcDbSpline
210
0.0
220
0.0
230
1.0
 70
    11
 71
     3
 72
    50
 73
    46
 74
     0
 42
0.0000000001
 43
0.0000000001
 40
0.0
 40
0.0
 40
0.0
 40
0.0
 40
0.0666666666666667
 40
0.0666666666666667
 40
0.0666666666666667
 40
0.1333333333333333
 40
0.1333333333333333
 40
0.1333333333333333
 40
0.2
 40
0.2
 40
0.2
 40
0.2666666666666667
 40
0.2666666666666667
 40
0.2666666666666667
 40
0.3333333333333333
 40
0.3333333333333333
 40
0.3333333333333333
 40
0.4
 40
0.4
 40
0.4
 40
0.4666666666666667
 40
0.4666666666666667
 40
0.4666666666666667
 40
0.5333333333333333
 40
0.5333333333333333
 40
0.5333333333333333
 40
0.6
 40
0.6
 40
0.6
 40
0.6666666666666666
 40
0.6666666666666666
 40
0.6666666666666666
 40
0.7333333333333333
 40
0.7333333333333333
 40
0.7333333333333333
 40
0.8
 40
0.8
 40
0.8
 40
0.8666666666666667
 40
0.8666666666666667
 40
0.8666666666666667
 40
0.9333333333333333
 40
0.9333333333333333
 40
0.9333333333333333
 40
1.0
 40
1.0
 40
1.0
 40
1.0
 10
29.56634
 20
14.51001
 30
0.0
 10
29.56634
 20
14.51001
 30
0.0
 10
29.56634
 20
15.11792
 30
0.0
 10
29.56634
 20
15.11792
 30
0.0
 10
29.56634
 20
15.11792
 30
0.0
 10
29.63407
 20
15.11792
 30
0.0
 10
29.63407
 20
15.11792
 30
0.0
 10
29.63407
 20
15.11792
 30
0.0
 10
29.63407
 20
15.06021
 30
0.0
 10
29.63407
 20
15.06021
 30
0.0
 10
29.65002
 20
15.0825
 30
0.0
 10
29.66808
 20
15.09929
 30
0.0
 10
29.68826
 20
15.11044
 30
0.0
 10
29.7083
 20
15.12159
 30
0.0
 10
29.73271
 20
15.12724
 30
0.0
 10
29.76136
 20
15.12724
 30
0.0
 10
29.79889
 20
15.12724
 30
0.0
 10
29.83191
 20
15.11764
 30
0.0
 10
29.86056
 20
15.09831
 30
0.0
 10
29.8892
 20
15.07912
 30
0.0
 10
29.91079
 20
15.05188
 30
0.0
 10
29.92547
 20
15.01689
 30
0.0
 10
29.94
 20
14.98175
 30
0.0
 10
29.94734
 20
14.94337
 30
0.0
 10
29.94734
 20
14.90146
 30
0.0
 10
29.94734
 20
14.85672
 30
0.0
 10
29.9393
 20
14.81637
 30
0.0
 10
29.92321
 20
14.78038
 30
0.0
 10
29.90712
 20
14.74454
 30
0.0
 10
29.8837
 20
14.71702
 30
0.0
 10
29.85294
 20
14.69783
 30
0.0
 10
29.82232
 20
14.67878
 30
0.0
 10
29.79
 20
14.66919
 30
0.0
 10
29.75614
 20
14.66919
 30
0.0
 10
29.7313
 20
14.66919
 30
0.0
 10
29.709
 20
14.67441
 30
0.0
 10
29.68939
 20
14.68485
 30
0.0
 10
29.66963
 20
14.69529
 30
0.0
 10
29.65355
 20
14.70842
 30
0.0
 10
29.64085
 20
14.72436
 30
0.0
 10
29.64085
 20
14.72436
 30
0.0
 10
29.64085
 20
14.51001
 30
0.0
 10
29.64085
 20
14.51001
 30
0.0
 10
29.64085
 20
14.51001
 30
0.0
 10
29.56634
 20
14.51001
 30
0.0
 10
29.56634
 20
14.51001
 30
0.0
  0
SPLINE
  5
85
330
1F
100
AcDbEntity
  8
layer 1
 62
   250
370
     9
100
AcDbSpline
210
0.0
220
0.0
230
1.0
 70
    11
 71
     3
 72
    29
 73
    25
 74
     0
 42
0.0000000001
 43
0.0000000001
 40
0.0
 40
0.0
 40
0.0
 40
0.0
 40
0.125
 40
0.125
 40
0.125
 40
0.25
 40
0.25
 40
0.25
 40
0.375
 40
0.375
 40
0.375
 40
0.5
 40
0.5
 40
0.5
 40
0.625
 40
0.625
 40
0.625
 40
0.75
 40
0.75
 40
0.75
 40
0.875
 40
0.875
 40
0.875
 40
1.0
 40
1.0
 40
1.0
 40
1.0
 10
29.63407
 20
14.89553
 30
0.0
 10
29.63407
 20
14.83923
 30
0.0
 10
29.6455
 20
14.7976
 30
0.0
 10
29.66822
 20
14.77065
 30
0.0
 10
29.69108
 20
14.74369
 30
0.0
 10
29.71874
 20
14.73015
 30
0.0
 10
29.7512
 20
14.73015
 30
0.0
 10
29.78422
 20
14.73015
 30
0.0
 10
29.81244
 20
14.74412
 30
0.0
 10
29.83586
 20
14.77206
 30
0.0
 10
29.85943
 20
14.8
 30
0.0
 10
29.87114
 20
14.84318
 30
0.0
 10
29.87114
 20
14.90174
 30
0.0
 10
29.87114
 20
14.95762
 30
0.0
 10
29.85971
 20
14.99939
 30
0.0
 10
29.83671
 20
15.02719
 30
0.0
 10
29.81371
 20
15.05499
 30
0.0
 10
29.78633
 20
15.06881
 30
0.0
 10
29.75444
 20
15.06881
 30
0.0
 10
29.72283
 20
15.06881
 30
0.0
 10
29.69489
 20
15.054
 30
0.0
 10
29.67062
 20
15.02451
 30
0.0
 10
29.64621
 20
14.99487
 30
0.0
 10
29.63407
 20
14.95197
 30
0.0
 10
29.63407
 20
14.89553
 30
0.0
  0
SPLINE
  5
86
330
1F
100
AcDbEntity
  8
layer 1
 62
   250
370
     9
100
AcDbSpline
210
0.0
220
0.0
230
1.0
 70
    11
 71
     3
 72
    17
 73
    13
 74
     0
 42
0.0000000001
 43
0.0000000001
 40
0.0
 40
0.0
 40
0.0
 40
0.0
 40
0.25
 40
0.25
 40
0.25
 40
0.5
 40
0.5
 40
0.5
 40
0.75
 40
0.75
 40
0.75
 40
1.0
 40
1.0
 40
1.0
 40
1.0
 10
30.45549
 20
15.11792
 30
0.0
 10
30.45549
 20
15.11792
 30
0.0
 10
30.52999
 20
15.11792
 30
0.0
 10
30.52999
 20
15.11792
 30
0.0
 10
30.52999
 20
15.11792
 30
0.0
 10
30.52999
 20
14.6785
 30
0.0
 10
30.52999
 20
14.6785
 30
0.0
 10
30.52999
 20
14.6785
 30
0.0
 10
30.45549
 20
14.6785
 30
0.0
 10
30.45549
 20
14.6785
 30
0.0
 10
30.45549
 20
14.6785
 30
0.0
 10
30.45549
 20
15.11792
 30
0.0
 10
30.45549
 20
15.11792
 30
0.0
  0
SPLINE
  5
87
330
1F
100
AcDbEntity
  8
layer 1
 62
   250
370
     9
100
AcDbSpline
210
0.0
220
0.0
230
1.0
 70
    11
 71
     3
 72
    32
 73
    28
 74
     0
 42
0.0000000001
 43
0.0000000001
 40
0.0
 40
0.0
 40
0.0
 40
0.0
 40
0.1111111111111111
 40
0.1111111111111111
 40
0.1111111111111111
 40
0.2222222222222222
 40
0.2222222222222222
 40
0.2222222222222222
 40
0.3333333333333333
 40
0.3333333333333333
 40
0.3333333333333333
 40
0.4444444444444444
 40
0.4444444444444444
 40
0.4444444444444444
 40
0.5555555555555556
 40
0.5555555555555556
 40
0.5555555555555556
 40
0.6666666666666666
 40
0.6666666666666666
 40
0.6666666666666666
 40
0.7777777777777777
 40
0.7777777777777777
 40
0.7777777777777777
 40
0.8888888888888888
 40
0.8888888888888888
 40
0.8888888888888888
 40
1.0
 40
1.0
 40
1.0
 40
1.0
 10
30.03977
 20
15.11792
 30
0.0
 10
30.03977
 20
15.11792
 30
0.0
 10
30.11428
 20
15.11792
 30
0.0
 10
30.11428
 20
15.11792
 30
0.0
 10
30.11428
 20
15.11792
 30
0.0
 10
30.11428
 20
14.94605
 30
0.0
 10
30.11428
 20
14.94605
 30
0.0
 10
30.11428
 20
14.94605
 30
0.0
 10
30.20826
 20
14.94605
 30
0.0
 10
30.20826
 20
14.94605
 30
0.0
 10
30.26964
 20
14.94605
 30
0.0
 10
30.31677
 20
14.93419
 30
0.0
 10
30.34993
 20
14.91035
 30
0.0
 10
30.38309
 20
14.8865
 30
0.0
 10
30.3996
 20
14.85362
 30
0.0
 10
30.3996
 20
14.81171
 30
0.0
 10
30.3996
 20
14.77502
 30
0.0
 10
30.38578
 20
14.74369
 30
0.0
 10
30.35812
 20
14.71759
 30
0.0
 10
30.33046
 20
14.69148
 30
0.0
 10
30.28629
 20
14.6785
 30
0.0
 10
30.22547
 20
14.6785
 30
0.0
 10
30.22547
 20
14.6785
 30
0.0
 10
30.03977
 20
14.6785
 30
0.0
 10
30.03977
 20
14.6785
 30
0.0
 10
30.03977
 20
14.6785
 30
0.0
 10
30.03977
 20
15.11792
 30
0.0
 10
30.03977
 20
15.11792
 30
0.0
  0
SPLINE
  5
88
330
1F
100
AcDbEntity
  8
layer 1
 62
   250
370
     9
100
AcDbSpline
210
0.0
220
0.0
230
1.0
 70
    11
 71
     3
 72
    26
 73
    22
 74
     0
 42
0.0000000001
 43
0.0000000001
 40
0.0
 40
0.0
 40
0.0
 40
0.0
 40
0.1428571428571428
 40
0.1428571428571428
 40
0.1428571428571428
 40
0.2857142857142857
 40
0.2857142857142857
 40
0.2857142857142857
 40
0.4285714285714285
 40
0.4285714285714285
 40
0.4285714285714285
 40
0.5714285714285714
 40
0.5714285714285714
 40
0.5714285714285714
 40
0.7142857142857142
 40
0.7142857142857142
 40
0.7142857142857142
 40
0.8571428571428571
 40
0.8571428571428571
 40
0.8571428571428571
 40
1.0
 40
1.0
 40
1.0
 40
1.0
 10
30.11428
 20
14.73946
 30
0.0
 10
30.11428
 20
14.73946
 30
0.0
 10
30.19245
 20
14.73946
 30
0.0
 10
30.19245
 20
14.73946
 30
0.0
 10
30.23944
 20
14.73946
 30
0.0
 10
30.27317
 20
14.74525
 30
0.0
 10
30.29321
 20
14.75682
 30
0.0
 10
30.31339
 20
14.76839
 30
0.0
 10
30.3234
 20
14.78645
 30
0.0
 10
30.3234
 20
14.811
 30
0.0
 10
30.3234
 20
14.83005
 30
0.0
 10
30.31593
 20
14.84699
 30
0.0
 10
30.30111
 20
14.86195
 30
0.0
 10
30.28615
 20
14.87676
 30
0.0
 10
30.25327
 20
14.88424
 30
0.0
 10
30.20233
 20
14.88424
 30
0.0
 10
30.20233
 20
14.88424
 30
0.0
 10
30.11428
 20
14.88424
 30
0.0
 10
30.11428
 20
14.88424
 30
0.0
 10
30.11428
 20
14.88424
 30
0.0
 10
30.11428
 20
14.73946
 30
0.0
 10
30.11428
 20
14.73946
 30
0.0
  0
SPLINE
  5
89
330
1F
100
AcDbEntity
  8
layer 1
 62
   250
370
     9
100
AcDbSpline
210
0.0
220
0.0
230
1.0
 70
    11
 71
     3
 72
    41
 73
    37
 74
     0
 42
0.0000000001
 43
0.0000000001
 40
0.0
 40
0.0
 40
0.0
 40
0.0
 40
0.0833333333333333
 40
0.0833333333333333
 40
0.0833333333333333
 40
0.1666666666666667
 40
0.1666666666666667
 40
0.1666666666666667
 40
0.25
 40
0.25
 40
0.25
 40
0.3333333333333333
 40
0.3333333333333333
 40
0.3333333333333333
 40
0.4166666666666666
 40
0.4166666666666666
 40
0.4166666666666666
 40
0.5
 40
0.5
 40
0.5
 40
0.5833333333333333
 40
0.5833333333333333
 40
0.5833333333333333
 40
0.6666666666666666
 40
0.6666666666666666
 40
0.6666666666666666
 40
0.75
 40
0.75
 40
0.75
 40
0.8333333333333333
 40
0.8333333333333333
 40
0.8333333333333333
 40
0.9166666666666666
 40
0.9166666666666666
 40
0.9166666666666666
 40
1.0
 40
1.0
 40
1.0
 40
1.0
 10
30.64838
 20
15.11792
 30
0.0
 10
30.64838
 20
15.11792
 30
0.0
 10
30.72289
 20
15.11792
 30
0.0
 10
30.72289
 20
15.11792
 30
0.0
 10
30.72289
 20
15.11792
 30
0.0
 10
30.72289
 20
14.74031
 30
0.0
 10
30.72289
 20
14.74031
 30
0.0
 10
30.72289
 20
14.74031
 30
0.0
 10
30.89222
 20
14.74031
 30
0.0
 10
30.89222
 20
14.74031
 30
0.0
 10
30.89222
 20
14.74031
 30
0.0
 10
30.89222
 20
15.11792
 30
0.0
 10
30.89222
 20
15.11792
 30
0.0
 10
30.89222
 20
15.11792
 30
0.0
 10
30.96673
 20
15.11792
 30
0.0
 10
30.96673
 20
15.11792
 30
0.0
 10
30.96673
 20
15.11792
 30
0.0
 10
30.96673
 20
14.74031
 30
0.0
 10
30.96673
 20
14.74031
 30
0.0
 10
30.96673
 20
14.74031
 30
0.0
 10
31.13606
 20
14.74031
 30
0.0
 10
31.13606
 20
14.74031
 30
0.0
 10
31.13606
 20
14.74031
 30
0.0
 10
31.13606
 20
15.11792
 30
0.0
 10
31.13606
 20
15.11792
 30
0.0
 10
31.13606
 20
15.11792
 30
0.0
 10
31.21057
 20
15.11792
 30
0.0
 10
31.21057
 20
15.11792
 30
0.0
 10
31.21057
 20
15.11792
 30
0.0
 10
31.21057
 20
14.6785
 30
0.0
 10
31.21057
 20
14.6785
 30
0.0
 10
31.21057
 20
14.6785
 30
0.0
 10
30.64838
 20
14.6785
 30
0.0
 10
30.64838
 20
14.6785
 30
0.0
 10
30.64838
 20
14.6785
 30
0.0
 10
30.64838
 20
15.11792
 30
0.0
 10
30.64838
 20
15.11792
 30
0.0
  0
SPLINE
  5
8A
330
1F
100
AcDbEntity
  8
layer 1
 62
   250
370
     9
100
AcDbSpline
210
0.0
220
0.0
230
1.0
 70
    11
 71
     3
 72
    74
 73
    70
 74
     0
 42
0.0000000001
 43
0.0000000001
 40
0.0
 40
0.0
 40
0.0
 40
0.0
 40
0.0434782608695652
 40
0.0434782608695652
 40
0.0434782608695652
 40
0.0869565217391304
 40
0.0869565217391304
 40
0.0869565217391304
 40
0.1304347826086956
 40
0.1304347826086956
 40
0.1304347826086956
 40
0.1739130434782609
 40
0.1739130434782609
 40
0.1739130434782609
 40
0.2173913043478261
 40
0.2173913043478261
 40
0.2173913043478261
 40
0.2608695652173913
 40
0.2608695652173913
 40
0.2608695652173913
 40
0.3043478260869565
 40
0.3043478260869565
 40
0.3043478260869565
 40
0.3478260869565217
 40
0.3478260869565217
 40
0.3478260869565217
 40
0.3913043478260869
 40
0.3913043478260869
 40
0.3913043478260869
 40
0.4347826086956522
 40
0.4347826086956522
 40
0.4347826086956522
 40
0.4782608695652174
 40
0.4782608695652174
 40
0.4782608695652174
 40
0.5217391304347826
 40
0.5217391304347826
 40
0.5217391304347826
 40
0.5652173913043478
 40
0.5652173913043478
 40
0.5652173913043478
 40
0.6086956521739131
 40
0.6086956521739131
 40
0.6086956521739131
 40
0.6521739130434783
 40
0.6521739130434783
 40
0.6521739130434783
 40
0.6956521739130435
 40
0.6956521739130435
 40
0.6956521739130435
 40
0.7391304347826086
 40
0.7391304347826086
 40
0.7391304347826086
 40
0.7826086956521738
 40
0.7826086956521738
 40
0.7826086956521738
 40
0.8260869565217391
 40
0.8260869565217391
 40
0.8260869565217391
 40
0.8695652173913043
 40
0.8695652173913043
 40
0.8695652173913043
 40
0.9130434782608695
 40
0.9130434782608695
 40
0.9130434782608695
 40
0.9565217391304348
 40
0.9565217391304348
 40
0.9565217391304348
 40
1.0
 40
1.0
 40
1.0
 40
1.0
 10
31.32416
 20
15.11792
 30
0.0
 10
31.32416
 20
15.11792
 30
0.0
 10
31.39867
 20
15.11792
 30
0.0
 10
31.39867
 20
15.11792
 30
0.0
 10
31.39867
 20
15.11792
 30
0.0
 10
31.39867
 20
14.92827
 30
0.0
 10
31.39867
 20
14.92827
 30
0.0
 10
31.42238
 20
14.92827
 30
0.0
 10
31.43903
 20
14.93278
 30
0.0
 10
31.44862
 20
14.94196
 30
0.0
 10
31.45808
 20
14.95099
 30
0.0
 10
31.47205
 20
14.97737
 30
0.0
 10
31.49068
 20
15.02126
 30
0.0
 10
31.50535
 20
15.05597
 30
0.0
 10
31.5172
 20
15.07883
 30
0.0
 10
31.52624
 20
15.08984
 30
0.0
 10
31.53541
 20
15.10085
 30
0.0
 10
31.54585
 20
15.10833
 30
0.0
 10
31.5577
 20
15.11214
 30
0.0
 10
31.5697
 20
15.11595
 30
0.0
 10
31.58875
 20
15.11792
 30
0.0
 10
31.61485
 20
15.11792
 30
0.0
 10
31.61485
 20
15.11792
 30
0.0
 10
31.62981
 20
15.11792
 30
0.0
 10
31.62981
 20
15.11792
 30
0.0
 10
31.62981
 20
15.11792
 30
0.0
 10
31.62981
 20
15.05654
 30
0.0
 10
31.62981
 20
15.05654
 30
0.0
 10
31.62981
 20
15.05654
 30
0.0
 10
31.60907
 20
15.05696
 30
0.0
 10
31.60907
 20
15.05696
 30
0.0
 10
31.58945
 20
15.05696
 30
0.0
 10
31.57689
 20
15.054
 30
0.0
 10
31.57139
 20
15.04821
 30
0.0
 10
31.56561
 20
15.04214
 30
0.0
 10
31.55672
 20
15.02408
 30
0.0
 10
31.54486
 20
14.99403
 30
0.0
 10
31.53357
 20
14.96524
 30
0.0
 10
31.52327
 20
14.94534
 30
0.0
 10
31.51382
 20
14.93434
 30
0.0
 10
31.5045
 20
14.92333
 30
0.0
 10
31.48997
 20
14.91331
 30
0.0
 10
31.47036
 20
14.90414
 30
0.0
 10
31.50239
 20
14.89553
 30
0.0
 10
31.534
 20
14.86576
 30
0.0
 10
31.56504
 20
14.81467
 30
0.0
 10
31.56504
 20
14.81467
 30
0.0
 10
31.64674
 20
14.6785
 30
0.0
 10
31.64674
 20
14.6785
 30
0.0
 10
31.64674
 20
14.6785
 30
0.0
 10
31.5649
 20
14.6785
 30
0.0
 10
31.5649
 20
14.6785
 30
0.0
 10
31.5649
 20
14.6785
 30
0.0
 10
31.48433
 20
14.81425
 30
0.0
 10
31.48433
 20
14.81425
 30
0.0
 10
31.4681
 20
14.84177
 30
0.0
 10
31.45399
 20
14.85983
 30
0.0
 10
31.44199
 20
14.86858
 30
0.0
 10
31.42986
 20
14.87733
 30
0.0
 10
31.41546
 20
14.8817
 30
0.0
 10
31.39867
 20
14.8817
 30
0.0
 10
31.39867
 20
14.8817
 30
0.0
 10
31.39867
 20
14.6785
 30
0.0
 10
31.39867
 20
14.6785
 30
0.0
 10
31.39867
 20
14.6785
 30
0.0
 10
31.32416
 20
14.6785
 30
0.0
 10
31.32416
 20
14.6785
 30
0.0
 10
31.32416
 20
14.6785
 30
0.0
 10
31.32416
 20
15.11792
 30
0.0
 10
31.32416
 20
15.11792
 30
0.0
  0
SPLINE
  5
8B
330
1F
100
AcDbEntity
  8
layer 1
 62
   250
370
     9
100
AcDbSpline
210
0.0
220
0.0
230
1.0
 70
    11
 71
     3
 72
    35
 73
    31
 74
     0
 42
0.0000000001
 43
0.0000000001
 40
0.0
 40
0.0
 40
0.0
 40
0.0
 40
0.1
 40
0.1
 40
0.1
 40
0.2
 40
0.2
 40
0.2
 40
0.3
 40
0.3
 40
0.3
 40
0.4
 40
0.4
 40
0.4
 40
0.5
 40
0.5
 40
0.5
 40
0.6000000000000001
 40
0.6000000000000001
 40
0.6000000000000001
 40
0.7000000000000001
 40
0.7000000000000001
 40
0.7000000000000001
 40
0.8
 40
0.8
 40
0.8
 40
0.9
 40
0.9
 40
0.9
 40
1.0
 40
1.0
 40
1.0
 40
1.0
 10
31.69543
 20
15.11792
 30
0.0
 10
31.69543
 20
15.11792
 30
0.0
 10
31.76994
 20
15.11792
 30
0.0
 10
31.76994
 20
15.11792
 30
0.0
 10
31.76994
 20
15.11792
 30
0.0
 10
31.76994
 20
14.78278
 30
0.0
 10
31.76994
 20
14.78278
 30
0.0
 10
31.76994
 20
14.78278
 30
0.0
 10
31.97695
 20
15.11792
 30
0.0
 10
31.97695
 20
15.11792
 30
0.0
 10
31.97695
 20
15.11792
 30
0.0
 10
32.05696
 20
15.11792
 30
0.0
 10
32.05696
 20
15.11792
 30
0.0
 10
32.05696
 20
15.11792
 30
0.0
 10
32.05696
 20
14.6785
 30
0.0
 10
32.05696
 20
14.6785
 30
0.0
 10
32.05696
 20
14.6785
 30
0.0
 10
31.98245
 20
14.6785
 30
0.0
 10
31.98245
 20
14.6785
 30
0.0
 10
31.98245
 20
14.6785
 30
0.0
 10
31.98245
 20
15.01152
 30
0.0
 10
31.98245
 20
15.01152
 30
0.0
 10
31.98245
 20
15.01152
 30
0.0
 10
31.77572
 20
14.6785
 30
0.0
 10
31.77572
 20
14.6785
 30
0.0
 10
31.77572
 20
14.6785
 30
0.0
 10
31.69543
 20
14.6785
 30
0.0
 10
31.69543
 20
14.6785
 30
0.0
 10
31.69543
 20
14.6785
 30
0.0
 10
31.69543
 20
15.11792
 30
0.0
 10
31.69543
 20
15.11792
 30
0.0
  0
SPLINE
  5
8C
330
1F
100
AcDbEntity
  8
layer 1
 62
   250
370
     9
100
AcDbSpline
210
0.0
220
0.0
230
1.0
 70
    11
 71
     3
 72
    35
 73
    31
 74
     0
 42
0.0000000001
 43
0.0000000001
 40
0.0
 40
0.0
 40
0.0
 40
0.0
 40
0.1
 40
0.1
 40
0.1
 40
0.2
 40
0.2
 40
0.2
 40
0.3
 40
0.3
 40
0.3
 40
0.4
 40
0.4
 40
0.4
 40
0.5
 40
0.5
 40
0.5
 40
0.6000000000000001
 40
0.6000000000000001
 40
0.6000000000000001
 40
0.7000000000000001
 40
0.7000000000000001
 40
0.7000000000000001
 40
0.8
 40
0.8
 40
0.8
 40
0.9
 40
0.9
 40
0.9
 40
1.0
 40
1.0
 40
1.0
 40
1.0
 10
32.40367
 20
15.11792
 30
0.0
 10
32.40367
 20
15.11792
 30
0.0
 10
32.47818
 20
15.11792
 30
0.0
 10
32.47818
 20
15.11792
 30
0.0
 10
32.47818
 20
15.11792
 30
0.0
 10
32.47818
 20
14.78278
 30
0.0
 10
32.47818
 20
14.78278
 30
0.0
 10
32.47818
 20
14.78278
 30
0.0
 10
32.68519
 20
15.11792
 30
0.0
 10
32.68519
 20
15.11792
 30
0.0
 10
32.68519
 20
15.11792
 30
0.0
 10
32.7652
 20
15.11792
 30
0.0
 10
32.7652
 20
15.11792
 30
0.0
 10
32.7652
 20
15.11792
 30
0.0
 10
32.7652
 20
14.6785
 30
0.0
 10
32.7652
 20
14.6785
 30
0.0
 10
32.7652
 20
14.6785
 30
0.0
 10
32.69069
 20
14.6785
 30
0.0
 10
32.69069
 20
14.6785
 30
0.0
 10
32.69069
 20
14.6785
 30
0.0
 10
32.69069
 20
15.01152
 30
0.0
 10
32.69069
 20
15.01152
 30
0.0
 10
32.69069
 20
15.01152
 30
0.0
 10
32.48396
 20
14.6785
 30
0.0
 10
32.48396
 20
14.6785
 30
0.0
 10
32.48396
 20
14.6785
 30
0.0
 10
32.40367
 20
14.6785
 30
0.0
 10
32.40367
 20
14.6785
 30
0.0
 10
32.40367
 20
14.6785
 30
0.0
 10
32.40367
 20
15.11792
 30
0.0
 10
32.40367
 20
15.11792
 30
0.0
  0
SPLINE
  5
8D
330
1F
100
AcDbEntity
  8
layer 1
 62
   250
370
     9
100
AcDbSpline
210
0.0
220
0.0
230
1.0
 70
    11
 71
     3
 72
    83
 73
    79
 74
     0
 42
0.0000000001
 43
0.0000000001
 40
0.0
 40
0.0
 40
0.0
 40
0.0
 40
0.0384615384615385
 40
0.0384615384615385
 40
0.0384615384615385
 40
0.0769230769230769
 40
0.0769230769230769
 40
0.0769230769230769
 40
0.1153846153846154
 40
0.1153846153846154
 40
0.1153846153846154
 40
0.1538461538461539
 40
0.1538461538461539
 40
0.1538461538461539
 40
0.1923076923076923
 40
0.1923076923076923
 40
0.1923076923076923
 40
0.2307692307692308
 40
0.2307692307692308
 40
0.2307692307692308
 40
0.2692307692307693
 40
0.2692307692307693
 40
0.2692307692307693
 40
0.3076923076923077
 40
0.3076923076923077
 40
0.3076923076923077
 40
0.3461538461538461
 40
0.3461538461538461
 40
0.3461538461538461
 40
0.3846153846153846
 40
0.3846153846153846
 40
0.3846153846153846
 40
0.4230769230769231
 40
0.4230769230769231
 40
0.4230769230769231
 40
0.4615384615384616
 40
0.4615384615384616
 40
0.4615384615384616
 40
0.5
 40
0.5
 40
0.5
 40
0.5384615384615385
 40
0.5384615384615385
 40
0.5384615384615385
 40
0.576923076923077
 40
0.576923076923077
 40
0.576923076923077
 40
0.6153846153846154
 40
0.6153846153846154
 40
0.6153846153846154
 40
0.6538461538461539
 40
0.6538461538461539
 40
0.6538461538461539
 40
0.6923076923076923
 40
0.6923076923076923
 40
0.6923076923076923
 40
0.7307692307692308
 40
0.7307692307692308
 40
0.7307692307692308
 40
0.7692307692307693
 40
0.7692307692307693
 40
0.7692307692307693
 40
0.8076923076923077
 40
0.8076923076923077
 40
0.8076923076923077
 40
0.8461538461538463
 40
0.8461538461538463
 40
0.8461538461538463
 40
0.8846153846153847
 40
0.8846153846153847
 40
0.8846153846153847
 40
0.9230769230769231
 40
0.9230769230769231
 40
0.9230769230769231
 40
0.9615384615384616
 40
0.9615384615384616
 40
0.9615384615384616
 40
1.0
 40
1.0
 40
1.0
 40
1.0
 10
32.97405
 20
14.87747
 30
0.0
 10
32.97405
 20
14.87747
 30
0.0
 10
32.97405
 20
14.93589
 30
0.0
 10
32.97405
 20
14.93589
 30
0.0
 10
33.00537
 20
14.93617
 30
0.0
 10
33.02682
 20
14.93744
 30
0.0
 10
33.03811
 20
14.93956
 30
0.0
 10
33.04954
 20
14.94181
 30
0.0
 10
33.06041
 20
14.94831
 30
0.0
 10
33.07057
 20
14.95931
 30
0.0
 10
33.08073
 20
14.97032
 30
0.0
 10
33.08581
 20
14.98401
 30
0.0
 10
33.08581
 20
15.00052
 30
0.0
 10
33.08581
 20
15.02041
 30
0.0
 10
33.07918
 20
15.0365
 30
0.0
 10
33.06577
 20
15.04835
 30
0.0
 10
33.05236
 20
15.06035
 30
0.0
 10
33.03515
 20
15.06627
 30
0.0
 10
33.01384
 20
15.06627
 30
0.0
 10
32.97193
 20
15.06627
 30
0.0
 10
32.94258
 20
15.04172
 30
0.0
 10
32.92579
 20
14.99261
 30
0.0
 10
32.92579
 20
14.99261
 30
0.0
 10
32.85467
 20
15.00447
 30
0.0
 10
32.85467
 20
15.00447
 30
0.0
 10
32.87668
 20
15.08631
 30
0.0
 10
32.93002
 20
15.12724
 30
0.0
 10
33.01441
 20
15.12724
 30
0.0
 10
33.06125
 20
15.12724
 30
0.0
 10
33.09794
 20
15.11454
 30
0.0
 10
33.12461
 20
15.08899
 30
0.0
 10
33.15128
 20
15.06345
 30
0.0
 10
33.16455
 20
15.03297
 30
0.0
 10
33.16455
 20
14.99755
 30
0.0
 10
33.16455
 20
14.96185
 30
0.0
 10
33.14719
 20
14.93335
 30
0.0
 10
33.11262
 20
14.91232
 30
0.0
 10
33.13477
 20
14.90047
 30
0.0
 10
33.15128
 20
14.88537
 30
0.0
 10
33.16243
 20
14.86703
 30
0.0
 10
33.17344
 20
14.84868
 30
0.0
 10
33.17894
 20
14.82695
 30
0.0
 10
33.17894
 20
14.80183
 30
0.0
 10
33.17894
 20
14.76246
 30
0.0
 10
33.16455
 20
14.73057
 30
0.0
 10
33.1359
 20
14.70602
 30
0.0
 10
33.10712
 20
14.68146
 30
0.0
 10
33.06704
 20
14.66919
 30
0.0
 10
33.01539
 20
14.66919
 30
0.0
 10
32.9152
 20
14.66919
 30
0.0
 10
32.85707
 20
14.7135
 30
0.0
 10
32.84112
 20
14.80211
 30
0.0
 10
32.84112
 20
14.80211
 30
0.0
 10
32.91139
 20
14.81735
 30
0.0
 10
32.91139
 20
14.81735
 30
0.0
 10
32.91774
 20
14.78941
 30
0.0
 10
32.93058
 20
14.76768
 30
0.0
 10
32.95006
 20
14.7523
 30
0.0
 10
32.96953
 20
14.73692
 30
0.0
 10
32.99169
 20
14.7293
 30
0.0
 10
33.0168
 20
14.7293
 30
0.0
 10
33.04192
 20
14.7293
 30
0.0
 10
33.06281
 20
14.73636
 30
0.0
 10
33.07946
 20
14.75061
 30
0.0
 10
33.09611
 20
14.76472
 30
0.0
 10
33.10443
 20
14.78278
 30
0.0
 10
33.10443
 20
14.80479
 30
0.0
 10
33.10443
 20
14.82187
 30
0.0
 10
33.09921
 20
14.83669
 30
0.0
 10
33.08877
 20
14.84939
 30
0.0
 10
33.07833
 20
14.86209
 30
0.0
 10
33.06718
 20
14.86999
 30
0.0
 10
33.05533
 20
14.87309
 30
0.0
 10
33.04347
 20
14.87634
 30
0.0
 10
33.02203
 20
14.87789
 30
0.0
 10
32.99098
 20
14.87789
 30
0.0
 10
32.98844
 20
14.87789
 30
0.0
 10
32.9828
 20
14.87775
 30
0.0
 10
32.97405
 20
14.87747
 30
0.0
  0
SPLINE
  5
8E
330
1F
100
AcDbEntity
  8
layer 1
 62
   250
370
     9
100
AcDbSpline
210
0.0
220
0.0
230
1.0
 70
    11
 71
     3
 72
    50
 73
    46
 74
     0
 42
0.0000000001
 43
0.0000000001
 40
0.0
 40
0.0
 40
0.0
 40
0.0
 40
0.0666666666666667
 40
0.0666666666666667
 40
0.0666666666666667
 40
0.1333333333333333
 40
0.1333333333333333
 40
0.1333333333333333
 40
0.2
 40
0.2
 40
0.2
 40
0.2666666666666667
 40
0.2666666666666667
 40
0.2666666666666667
 40
0.3333333333333333
 40
0.3333333333333333
 40
0.3333333333333333
 40
0.4
 40
0.4
 40
0.4
 40
0.4666666666666667
 40
0.4666666666666667
 40
0.4666666666666667
 40
0.5333333333333333
 40
0.5333333333333333
 40
0.5333333333333333
 40
0.6
 40
0.6
 40
0.6
 40
0.6666666666666666
 40
0.6666666666666666
 40
0.6666666666666666
 40
0.7333333333333333
 40
0.7333333333333333
 40
0.7333333333333333
 40
0.8
 40
0.8
 40
0.8
 40
0.8666666666666667
 40
0.8666666666666667
 40
0.8666666666666667
 40
0.9333333333333333
 40
0.9333333333333333
 40
0.9333333333333333
 40
1.0
 40
1.0
 40
1.0
 40
1.0
 10
33.50011
 20
14.51001
 30
0.0
 10
33.50011
 20
14.51001
 30
0.0
 10
33.50011
 20
15.11792
 30
0.0
 10
33.50011
 20
15.11792
 30
0.0
 10
33.50011
 20
15.11792
 30
0.0
 10
33.56784
 20
15.11792
 30
0.0
 10
33.56784
 20
15.11792
 30
0.0
 10
33.56784
 20
15.11792
 30
0.0
 10
33.56784
 20
15.06021
 30
0.0
 10
33.56784
 20
15.06021
 30
0.0
 10
33.58379
 20
15.0825
 30
0.0
 10
33.60185
 20
15.09929
 30
0.0
 10
33.62203
 20
15.11044
 30
0.0
 10
33.64207
 20
15.12159
 30
0.0
 10
33.66648
 20
15.12724
 30
0.0
 10
33.69513
 20
15.12724
 30
0.0
 10
33.73266
 20
15.12724
 30
0.0
 10
33.76568
 20
15.11764
 30
0.0
 10
33.79433
 20
15.09831
 30
0.0
 10
33.82297
 20
15.07912
 30
0.0
 10
33.84456
 20
15.05188
 30
0.0
 10
33.85924
 20
15.01689
 30
0.0
 10
33.87377
 20
14.98175
 30
0.0
 10
33.88111
 20
14.94337
 30
0.0
 10
33.88111
 20
14.90146
 30
0.0
 10
33.88111
 20
14.85672
 30
0.0
 10
33.87307
 20
14.81637
 30
0.0
 10
33.85698
 20
14.78038
 30
0.0
 10
33.84089
 20
14.74454
 30
0.0
 10
33.81747
 20
14.71702
 30
0.0
 10
33.78671
 20
14.69783
 30
0.0
 10
33.75609
 20
14.67878
 30
0.0
 10
33.72377
 20
14.66919
 30
0.0
 10
33.68991
 20
14.66919
 30
0.0
 10
33.66507
 20
14.66919
 30
0.0
 10
33.64277
 20
14.67441
 30
0.0
 10
33.62316
 20
14.68485
 30
0.0
 10
33.6034
 20
14.69529
 30
0.0
 10
33.58732
 20
14.70842
 30
0.0
 10
33.57462
 20
14.72436
 30
0.0
 10
33.57462
 20
14.72436
 30
0.0
 10
33.57462
 20
14.51001
 30
0.0
 10
33.57462
 20
14.51001
 30
0.0
 10
33.57462
 20
14.51001
 30
0.0
 10
33.50011
 20
14.51001
 30
0.0
 10
33.50011
 20
14.51001
 30
0.0
  0
SPLINE
  5
8F
330
1F
100
AcDbEntity
  8
layer 1
 62
   250
370
     9
100
AcDbSpline
210
0.0
220
0.0
230
1.0
 70
    11
 71
     3
 72
    29
 73
    25
 74
     0
 42
0.0000000001
 43
0.0000000001
 40
0.0
 40
0.0
 40
0.0
 40
0.0
 40
0.125
 40
0.125
 40
0.125
 40
0.25
 40
0.25
 40
0.25
 40
0.375
 40
0.375
 40
0.375
 40
0.5
 40
0.5
 40
0.5
 40
0.625
 40
0.625
 40
0.625
 40
0.75
 40
0.75
 40
0.75
 40
0.875
 40
0.875
 40
0.875
 40
1.0
 40
1.0
 40
1.0
 40
1.0
 10
33.56784
 20
14.89553
 30
0.0
 10
33.56784
 20
14.83923
 30
0.0
 10
33.57927
 20
14.7976
 30
0.0
 10
33.60199
 20
14.77065
 30
0.0
 10
33.62485
 20
14.74369
 30
0.0
 10
33.65251
 20
14.73015
 30
0.0
 10
33.68497
 20
14.73015
 30
0.0
 10
33.71799
 20
14.73015
 30
0.0
 10
33.74621
 20
14.74412
 30
0.0
 10
33.76963
 20
14.77206
 30
0.0
 10
33.7932
 20
14.8
 30
0.0
 10
33.80491
 20
14.84318
 30
0.0
 10
33.80491
 20
14.90174
 30
0.0
 10
33.80491
 20
14.95762
 30
0.0
 10
33.79348
 20
14.99939
 30
0.0
 10
33.77048
 20
15.02719
 30
0.0
 10
33.74748
 20
15.05499
 30
0.0
 10
33.7201
 20
15.06881
 30
0.0
 10
33.68821
 20
15.06881
 30
0.0
 10
33.6566
 20
15.06881
 30
0.0
 10
33.62866
 20
15.054
 30
0.0
 10
33.60439
 20
15.02451
 30
0.0
 10
33.57998
 20
14.99487
 30
0.0
 10
33.56784
 20
14.95197
 30
0.0
 10
33.56784
 20
14.89553
 30
0.0
  0
SPLINE
  5
90
330
1F
100
AcDbEntity
  8
layer 1
 62
   250
370
     9
100
AcDbSpline
210
0.0
220
0.0
230
1.0
 70
    11
 71
     3
 72
    86
 73
    82
 74
     0
 42
0.0000000001
 43
0.0000000001
 40
0.0
 40
0.0
 40
0.0
 40
0.0
 40
0.037037037037037
 40
0.037037037037037
 40
0.037037037037037
 40
0.0740740740740741
 40
0.0740740740740741
 40
0.0740740740740741
 40
0.1111111111111111
 40
0.1111111111111111
 40
0.1111111111111111
 40
0.1481481481481481
 40
0.1481481481481481
 40
0.1481481481481481
 40
0.1851851851851852
 40
0.1851851851851852
 40
0.1851851851851852
 40
0.2222222222222222
 40
0.2222222222222222
 40
0.2222222222222222
 40
0.2592592592592592
 40
0.2592592592592592
 40
0.2592592592592592
 40
0.2962962962962963
 40
0.2962962962962963
 40
0.2962962962962963
 40
0.3333333333333333
 40
0.3333333333333333
 40
0.3333333333333333
 40
0.3703703703703703
 40
0.3703703703703703
 40
0.3703703703703703
 40
0.4074074074074074
 40
0.4074074074074074
 40
0.4074074074074074
 40
0.4444444444444444
 40
0.4444444444444444
 40
0.4444444444444444
 40
0.4814814814814815
 40
0.4814814814814815
 40
0.4814814814814815
 40
0.5185185185185185
 40
0.5185185185185185
 40
0.5185185185185185
 40
0.5555555555555556
 40
0.5555555555555556
 40
0.5555555555555556
 40
0.5925925925925926
 40
0.5925925925925926
 40
0.5925925925925926
 40
0.6296296296296295
 40
0.6296296296296295
 40
0.6296296296296295
 40
0.6666666666666666
 40
0.6666666666666666
 40
0.6666666666666666
 40
0.7037037037037037
 40
0.7037037037037037
 40
0.7037037037037037
 40
0.7407407407407407
 40
0.7407407407407407
 40
0.7407407407407407
 40
0.7777777777777777
 40
0.7777777777777777
 40
0.7777777777777777
 40
0.8148148148148148
 40
0.8148148148148148
 40
0.8148148148148148
 40
0.8518518518518519
 40
0.8518518518518519
 40
0.8518518518518519
 40
0.8888888888888888
 40
0.8888888888888888
 40
0.8888888888888888
 40
0.9259259259259258
 40
0.9259259259259258
 40
0.9259259259259258
 40
0.9629629629629629
 40
0.9629629629629629
 40
0.9629629629629629
 40
1.0
 40
1.0
 40
1.0
 40
1.0
 10
34.25802
 20
14.73353
 30
0.0
 10
34.23036
 20
14.70997
 30
0.0
 10
34.20369
 20
14.69346
 30
0.0
 10
34.17815
 20
14.68372
 30
0.0
 10
34.15261
 20
14.67398
 30
0.0
 10
34.12524
 20
14.66919
 30
0.0
 10
34.09588
 20
14.66919
 30
0.0
 10
34.04762
 20
14.66919
 30
0.0
 10
34.01051
 20
14.6809
 30
0.0
 10
33.98455
 20
14.70446
 30
0.0
 10
33.95858
 20
14.72789
 30
0.0
 10
33.9456
 20
14.75795
 30
0.0
 10
33.9456
 20
14.79449
 30
0.0
 10
33.9456
 20
14.81594
 30
0.0
 10
33.95054
 20
14.83556
 30
0.0
 10
33.96028
 20
14.85334
 30
0.0
 10
33.97015
 20
14.87112
 30
0.0
 10
33.98299
 20
14.88523
 30
0.0
 10
33.9988
 20
14.89595
 30
0.0
 10
34.01474
 20
14.90668
 30
0.0
 10
34.03252
 20
14.91486
 30
0.0
 10
34.05242
 20
14.92037
 30
0.0
 10
34.0671
 20
14.92418
 30
0.0
 10
34.08925
 20
14.92784
 30
0.0
 10
34.11874
 20
14.93151
 30
0.0
 10
34.17886
 20
14.93857
 30
0.0
 10
34.22331
 20
14.94718
 30
0.0
 10
34.25167
 20
14.95705
 30
0.0
 10
34.25195
 20
14.96721
 30
0.0
 10
34.25209
 20
14.97371
 30
0.0
 10
34.25209
 20
14.97639
 30
0.0
 10
34.25209
 20
15.00658
 30
0.0
 10
34.24504
 20
15.02789
 30
0.0
 10
34.23093
 20
15.04031
 30
0.0
 10
34.21188
 20
15.0571
 30
0.0
 10
34.18351
 20
15.06543
 30
0.0
 10
34.14598
 20
15.06543
 30
0.0
 10
34.11084
 20
15.06543
 30
0.0
 10
34.08488
 20
15.05922
 30
0.0
 10
34.06823
 20
15.04694
 30
0.0
 10
34.05143
 20
15.03467
 30
0.0
 10
34.03916
 20
15.01293
 30
0.0
 10
34.03111
 20
14.98161
 30
0.0
 10
34.03111
 20
14.98161
 30
0.0
 10
33.9583
 20
14.99177
 30
0.0
 10
33.9583
 20
14.99177
 30
0.0
 10
33.96493
 20
15.02295
 30
0.0
 10
33.9758
 20
15.04821
 30
0.0
 10
33.99104
 20
15.0674
 30
0.0
 10
34.00628
 20
15.08659
 30
0.0
 10
34.02829
 20
15.10127
 30
0.0
 10
34.05708
 20
15.11171
 30
0.0
 10
34.08572
 20
15.12201
 30
0.0
 10
34.11917
 20
15.12724
 30
0.0
 10
34.15699
 20
15.12724
 30
0.0
 10
34.19452
 20
15.12724
 30
0.0
 10
34.22514
 20
15.12286
 30
0.0
 10
34.24871
 20
15.11397
 30
0.0
 10
34.27213
 20
15.10508
 30
0.0
 10
34.28949
 20
15.09407
 30
0.0
 10
34.3005
 20
15.08067
 30
0.0
 10
34.3115
 20
15.06726
 30
0.0
 10
34.31926
 20
15.05033
 30
0.0
 10
34.32378
 20
15.02987
 30
0.0
 10
34.32618
 20
15.01717
 30
0.0
 10
34.32745
 20
14.99431
 30
0.0
 10
34.32745
 20
14.96143
 30
0.0
 10
34.32745
 20
14.96143
 30
0.0
 10
34.32745
 20
14.86265
 30
0.0
 10
34.32745
 20
14.86265
 30
0.0
 10
34.32745
 20
14.79365
 30
0.0
 10
34.329
 20
14.75004
 30
0.0
 10
34.3321
 20
14.73156
 30
0.0
 10
34.33507
 20
14.71307
 30
0.0
 10
34.34128
 20
14.69543
 30
0.0
 10
34.35031
 20
14.6785
 30
0.0
 10
34.35031
 20
14.6785
 30
0.0
 10
34.27241
 20
14.6785
 30
0.0
 10
34.27241
 20
14.6785
 30
0.0
 10
34.26494
 20
14.69416
 30
0.0
 10
34.26014
 20
14.71251
 30
0.0
 10
34.25802
 20
14.73353
 30
0.0
  0
SPLINE
  5
91
330
1F
100
AcDbEntity
  8
layer 1
 62
   250
370
     9
100
AcDbSpline
210
0.0
220
0.0
230
1.0
 70
    11
 71
     3
 72
    35
 73
    31
 74
     0
 42
0.0000000001
 43
0.0000000001
 40
0.0
 40
0.0
 40
0.0
 40
0.0
 40
0.1
 40
0.1
 40
0.1
 40
0.2
 40
0.2
 40
0.2
 40
0.3
 40
0.3
 40
0.3
 40
0.4
 40
0.4
 40
0.4
 40
0.5
 40
0.5
 40
0.5
 40
0.6000000000000001
 40
0.6000000000000001
 40
0.6000000000000001
 40
0.7000000000000001
 40
0.7000000000000001
 40
0.7000000000000001
 40
0.8
 40
0.8
 40
0.8
 40
0.9
 40
0.9
 40
0.9
 40
1.0
 40
1.0
 40
1.0
 40
1.0
 10
34.25209
 20
14.89863
 30
0.0
 10
34.225
 20
14.88763
 30
0.0
 10
34.18436
 20
14.87831
 30
0.0
 10
34.13017
 20
14.87069
 30
0.0
 10
34.09941
 20
14.86632
 30
0.0
 10
34.07768
 20
14.86138
 30
0.0
 10
34.06498
 20
14.85588
 30
0.0
 10
34.05228
 20
14.85037
 30
0.0
 10
34.04254
 20
14.84233
 30
0.0
 10
34.03563
 20
14.83189
 30
0.0
 10
34.02871
 20
14.82131
 30
0.0
 10
34.02519
 20
14.80959
 30
0.0
 10
34.02519
 20
14.79661
 30
0.0
 10
34.02519
 20
14.777
 30
0.0
 10
34.03267
 20
14.76049
 30
0.0
 10
34.04776
 20
14.74736
 30
0.0
 10
34.06286
 20
14.73424
 30
0.0
 10
34.08488
 20
14.72761
 30
0.0
 10
34.11381
 20
14.72761
 30
0.0
 10
34.14245
 20
14.72761
 30
0.0
 10
34.16799
 20
14.73382
 30
0.0
 10
34.19043
 20
14.74637
 30
0.0
 10
34.21272
 20
14.75879
 30
0.0
 10
34.22923
 20
14.77587
 30
0.0
 10
34.23968
 20
14.79746
 30
0.0
 10
34.24772
 20
14.81425
 30
0.0
 10
34.25167
 20
14.83894
 30
0.0
 10
34.25167
 20
14.87154
 30
0.0
 10
34.25167
 20
14.87154
 30
0.0
 10
34.25209
 20
14.89863
 30
0.0
 10
34.25209
 20
14.89863
 30
0.0
  0
SPLINE
  5
92
330
1F
100
AcDbEntity
  8
layer 1
 62
   250
370
     9
100
AcDbSpline
210
0.0
220
0.0
230
1.0
 70
    11
 71
     3
 72
    62
 73
    58
 74
     0
 42
0.0000000001
 43
0.0000000001
 40
0.0
 40
0.0
 40
0.0
 40
0.0
 40
0.0526315789473684
 40
0.0526315789473684
 40
0.0526315789473684
 40
0.1052631578947368
 40
0.1052631578947368
 40
0.1052631578947368
 40
0.1578947368421053
 40
0.1578947368421053
 40
0.1578947368421053
 40
0.2105263157894737
 40
0.2105263157894737
 40
0.2105263157894737
 40
0.2631578947368421
 40
0.2631578947368421
 40
0.2631578947368421
 40
0.3157894736842105
 40
0.3157894736842105
 40
0.3157894736842105
 40
0.3684210526315789
 40
0.3684210526315789
 40
0.3684210526315789
 40
0.4210526315789473
 40
0.4210526315789473
 40
0.4210526315789473
 40
0.4736842105263158
 40
0.4736842105263158
 40
0.4736842105263158
 40
0.5263157894736842
 40
0.5263157894736842
 40
0.5263157894736842
 40
0.5789473684210527
 40
0.5789473684210527
 40
0.5789473684210527
 40
0.631578947368421
 40
0.631578947368421
 40
0.631578947368421
 40
0.6842105263157894
 40
0.6842105263157894
 40
0.6842105263157894
 40
0.7368421052631579
 40
0.7368421052631579
 40
0.7368421052631579
 40
0.7894736842105263
 40
0.7894736842105263
 40
0.7894736842105263
 40
0.8421052631578947
 40
0.8421052631578947
 40
0.8421052631578947
 40
0.894736842105263
 40
0.894736842105263
 40
0.894736842105263
 40
0.9473684210526315
 40
0.9473684210526315
 40
0.9473684210526315
 40
1.0
 40
1.0
 40
1.0
 40
1.0
 10
34.72891
 20
14.83937
 30
0.0
 10
34.72891
 20
14.83937
 30
0.0
 10
34.80172
 20
14.82921
 30
0.0
 10
34.80172
 20
14.82921
 30
0.0
 10
34.79368
 20
14.77911
 30
0.0
 10
34.77336
 20
14.74002
 30
0.0
 10
34.74048
 20
14.71166
 30
0.0
 10
34.7076
 20
14.6833
 30
0.0
 10
34.6671
 20
14.66919
 30
0.0
 10
34.61927
 20
14.66919
 30
0.0
 10
34.5593
 20
14.66919
 30
0.0
 10
34.51103
 20
14.6888
 30
0.0
 10
34.47463
 20
14.72803
 30
0.0
 10
34.43808
 20
14.76726
 30
0.0
 10
34.41988
 20
14.82342
 30
0.0
 10
34.41988
 20
14.89652
 30
0.0
 10
34.41988
 20
14.94393
 30
0.0
 10
34.42778
 20
14.98528
 30
0.0
 10
34.44344
 20
15.02084
 30
0.0
 10
34.45911
 20
15.05626
 30
0.0
 10
34.48295
 20
15.08293
 30
0.0
 10
34.51513
 20
15.10056
 30
0.0
 10
34.54716
 20
15.11835
 30
0.0
 10
34.58201
 20
15.12724
 30
0.0
 10
34.61983
 20
15.12724
 30
0.0
 10
34.66739
 20
15.12724
 30
0.0
 10
34.70647
 20
15.11524
 30
0.0
 10
34.73667
 20
15.09111
 30
0.0
 10
34.76701
 20
15.06698
 30
0.0
 10
34.78648
 20
15.03269
 30
0.0
 10
34.79495
 20
14.98838
 30
0.0
 10
34.79495
 20
14.98838
 30
0.0
 10
34.72298
 20
14.97737
 30
0.0
 10
34.72298
 20
14.97737
 30
0.0
 10
34.71607
 20
15.00687
 30
0.0
 10
34.70393
 20
15.02902
 30
0.0
 10
34.6863
 20
15.04398
 30
0.0
 10
34.6688
 20
15.0588
 30
0.0
 10
34.64763
 20
15.06627
 30
0.0
 10
34.6228
 20
15.06627
 30
0.0
 10
34.58526
 20
15.06627
 30
0.0
 10
34.55478
 20
15.05287
 30
0.0
 10
34.53121
 20
15.02606
 30
0.0
 10
34.50779
 20
14.99911
 30
0.0
 10
34.49608
 20
14.95677
 30
0.0
 10
34.49608
 20
14.89863
 30
0.0
 10
34.49608
 20
14.83965
 30
0.0
 10
34.50737
 20
14.79689
 30
0.0
 10
34.52994
 20
14.77022
 30
0.0
 10
34.55266
 20
14.74355
 30
0.0
 10
34.58216
 20
14.73015
 30
0.0
 10
34.61842
 20
14.73015
 30
0.0
 10
34.64777
 20
14.73015
 30
0.0
 10
34.67218
 20
14.73904
 30
0.0
 10
34.69166
 20
14.75696
 30
0.0
 10
34.71127
 20
14.77474
 30
0.0
 10
34.72369
 20
14.80225
 30
0.0
 10
34.72891
 20
14.83937
 30
0.0
  0
SPLINE
  5
93
330
1F
100
AcDbEntity
  8
layer 1
 62
   250
370
     9
100
AcDbSpline
210
0.0
220
0.0
230
1.0
 70
    11
 71
     3
 72
    53
 73
    49
 74
     0
 42
0.0000000001
 43
0.0000000001
 40
0.0
 40
0.0
 40
0.0
 40
0.0
 40
0.0625
 40
0.0625
 40
0.0625
 40
0.125
 40
0.125
 40
0.125
 40
0.1875
 40
0.1875
 40
0.1875
 40
0.25
 40
0.25
 40
0.25
 40
0.3125
 40
0.3125
 40
0.3125
 40
0.375
 40
0.375
 40
0.375
 40
0.4375
 40
0.4375
 40
0.4375
 40
0.5
 40
0.5
 40
0.5
 40
0.5625
 40
0.5625
 40
0.5625
 40
0.625
 40
0.625
 40
0.625
 40
0.6875
 40
0.6875
 40
0.6875
 40
0.75
 40
0.75
 40
0.75
 40
0.8125
 40
0.8125
 40
0.8125
 40
0.875
 40
0.875
 40
0.875
 40
0.9375
 40
0.9375
 40
0.9375
 40
1.0
 40
1.0
 40
1.0
 40
1.0
 10
34.82784
 20
15.11792
 30
0.0
 10
34.82784
 20
15.11792
 30
0.0
 10
34.90235
 20
15.11792
 30
0.0
 10
34.90235
 20
15.11792
 30
0.0
 10
34.90235
 20
15.11792
 30
0.0
 10
34.90235
 20
15.03495
 30
0.0
 10
34.90235
 20
15.03495
 30
0.0
 10
34.90235
 20
14.99911
 30
0.0
 10
34.90446
 20
14.97314
 30
0.0
 10
34.90884
 20
14.95705
 30
0.0
 10
34.91307
 20
14.94097
 30
0.0
 10
34.92337
 20
14.92686
 30
0.0
 10
34.93974
 20
14.91486
 30
0.0
 10
34.95597
 20
14.90287
 30
0.0
 10
34.97643
 20
14.89694
 30
0.0
 10
35.00113
 20
14.89694
 30
0.0
 10
35.02935
 20
14.89694
 30
0.0
 10
35.06575
 20
14.90442
 30
0.0
 10
35.11063
 20
14.91924
 30
0.0
 10
35.11063
 20
14.91924
 30
0.0
 10
35.11063
 20
15.11792
 30
0.0
 10
35.11063
 20
15.11792
 30
0.0
 10
35.11063
 20
15.11792
 30
0.0
 10
35.18513
 20
15.11792
 30
0.0
 10
35.18513
 20
15.11792
 30
0.0
 10
35.18513
 20
15.11792
 30
0.0
 10
35.18513
 20
14.6785
 30
0.0
 10
35.18513
 20
14.6785
 30
0.0
 10
35.18513
 20
14.6785
 30
0.0
 10
35.11063
 20
14.6785
 30
0.0
 10
35.11063
 20
14.6785
 30
0.0
 10
35.11063
 20
14.6785
 30
0.0
 10
35.11063
 20
14.85588
 30
0.0
 10
35.11063
 20
14.85588
 30
0.0
 10
35.06477
 20
14.84148
 30
0.0
 10
35.02187
 20
14.83429
 30
0.0
 10
34.98208
 20
14.83429
 30
0.0
 10
34.94863
 20
14.83429
 30
0.0
 10
34.91914
 20
14.84275
 30
0.0
 10
34.8936
 20
14.85969
 30
0.0
 10
34.86806
 20
14.87662
 30
0.0
 10
34.8507
 20
14.89736
 30
0.0
 10
34.84153
 20
14.92192
 30
0.0
 10
34.83236
 20
14.94647
 30
0.0
 10
34.82784
 20
14.97342
 30
0.0
 10
34.82784
 20
15.00292
 30
0.0
 10
34.82784
 20
15.00292
 30
0.0
 10
34.82784
 20
15.11792
 30
0.0
 10
34.82784
 20
15.11792
 30
0.0
  0
SPLINE
  5
94
330
1F
100
AcDbEntity
  8
layer 1
 62
   250
370
     9
100
AcDbSpline
210
0.0
220
0.0
230
1.0
 70
    11
 71
     3
 72
    50
 73
    46
 74
     0
 42
0.0000000001
 43
0.0000000001
 40
0.0
 40
0.0
 40
0.0
 40
0.0
 40
0.0666666666666667
 40
0.0666666666666667
 40
0.0666666666666667
 40
0.1333333333333333
 40
0.1333333333333333
 40
0.1333333333333333
 40
0.2
 40
0.2
 40
0.2
 40
0.2666666666666667
 40
0.2666666666666667
 40
0.2666666666666667
 40
0.3333333333333333
 40
0.3333333333333333
 40
0.3333333333333333
 40
0.4
 40
0.4
 40
0.4
 40
0.4666666666666667
 40
0.4666666666666667
 40
0.4666666666666667
 40
0.5333333333333333
 40
0.5333333333333333
 40
0.5333333333333333
 40
0.6
 40
0.6
 40
0.6
 40
0.6666666666666666
 40
0.6666666666666666
 40
0.6666666666666666
 40
0.7333333333333333
 40
0.7333333333333333
 40
0.7333333333333333
 40
0.8
 40
0.8
 40
0.8
 40
0.8666666666666667
 40
0.8666666666666667
 40
0.8666666666666667
 40
0.9333333333333333
 40
0.9333333333333333
 40
0.9333333333333333
 40
1.0
 40
1.0
 40
1.0
 40
1.0
 10
35.59662
 20
14.82074
 30
0.0
 10
35.59662
 20
14.82074
 30
0.0
 10
35.67367
 20
14.81058
 30
0.0
 10
35.67367
 20
14.81058
 30
0.0
 10
35.66167
 20
14.76585
 30
0.0
 10
35.63924
 20
14.73099
 30
0.0
 10
35.6065
 20
14.7063
 30
0.0
 10
35.57376
 20
14.6816
 30
0.0
 10
35.53199
 20
14.66919
 30
0.0
 10
35.48105
 20
14.66919
 30
0.0
 10
35.41699
 20
14.66919
 30
0.0
 10
35.36619
 20
14.68894
 30
0.0
 10
35.32865
 20
14.72845
 30
0.0
 10
35.29111
 20
14.76782
 30
0.0
 10
35.27235
 20
14.82328
 30
0.0
 10
35.27235
 20
14.89454
 30
0.0
 10
35.27235
 20
14.9682
 30
0.0
 10
35.29126
 20
15.02549
 30
0.0
 10
35.32921
 20
15.06613
 30
0.0
 10
35.36717
 20
15.10692
 30
0.0
 10
35.41642
 20
15.12724
 30
0.0
 10
35.47696
 20
15.12724
 30
0.0
 10
35.53552
 20
15.12724
 30
0.0
 10
35.58336
 20
15.10734
 30
0.0
 10
35.62047
 20
15.0674
 30
0.0
 10
35.65758
 20
15.02747
 30
0.0
 10
35.67621
 20
14.97131
 30
0.0
 10
35.67621
 20
14.89892
 30
0.0
 10
35.67621
 20
14.89454
 30
0.0
 10
35.67607
 20
14.88791
 30
0.0
 10
35.67579
 20
14.87916
 30
0.0
 10
35.67579
 20
14.87916
 30
0.0
 10
35.34855
 20
14.87916
 30
0.0
 10
35.34855
 20
14.87916
 30
0.0
 10
35.35137
 20
14.83104
 30
0.0
 10
35.36492
 20
14.79407
 30
0.0
 10
35.38947
 20
14.76853
 30
0.0
 10
35.41388
 20
14.74299
 30
0.0
 10
35.4445
 20
14.73015
 30
0.0
 10
35.48105
 20
14.73015
 30
0.0
 10
35.50829
 20
14.73015
 30
0.0
 10
35.53157
 20
14.73734
 30
0.0
 10
35.55076
 20
14.75174
 30
0.0
 10
35.57009
 20
14.76613
 30
0.0
 10
35.58533
 20
14.78913
 30
0.0
 10
35.59662
 20
14.82074
 30
0.0
  0
SPLINE
  5
95
330
1F
100
AcDbEntity
  8
layer 1
 62
   250
370
     9
100
AcDbSpline
210
0.0
220
0.0
230
1.0
 70
    11
 71
     3
 72
    20
 73
    16
 74
     0
 42
0.0000000001
 43
0.0000000001
 40
0.0
 40
0.0
 40
0.0
 40
0.0
 40
0.2
 40
0.2
 40
0.2
 40
0.4
 40
0.4
 40
0.4
 40
0.6000000000000001
 40
0.6000000000000001
 40
0.6000000000000001
 40
0.8
 40
0.8
 40
0.8
 40
1.0
 40
1.0
 40
1.0
 40
1.0
 10
35.35278
 20
14.94012
 30
0.0
 10
35.35278
 20
14.94012
 30
0.0
 10
35.59747
 20
14.94012
 30
0.0
 10
35.59747
 20
14.94012
 30
0.0
 10
35.59422
 20
14.97709
 30
0.0
 10
35.58477
 20
15.00475
 30
0.0
 10
35.56939
 20
15.02324
 30
0.0
 10
35.54582
 20
15.05188
 30
0.0
 10
35.51506
 20
15.06627
 30
0.0
 10
35.47738
 20
15.06627
 30
0.0
 10
35.44323
 20
15.06627
 30
0.0
 10
35.41459
 20
15.05484
 30
0.0
 10
35.3913
 20
15.03198
 30
0.0
 10
35.36816
 20
15.00912
 30
0.0
 10
35.35532
 20
14.9785
 30
0.0
 10
35.35278
 20
14.94012
 30
0.0
  0
SPLINE
  5
96
330
1F
100
AcDbEntity
  8
layer 1
 62
   250
370
     9
100
AcDbSpline
210
0.0
220
0.0
230
1.0
 70
    11
 71
     3
 72
    29
 73
    25
 74
     0
 42
0.0000000001
 43
0.0000000001
 40
0.0
 40
0.0
 40
0.0
 40
0.0
 40
0.125
 40
0.125
 40
0.125
 40
0.25
 40
0.25
 40
0.25
 40
0.375
 40
0.375
 40
0.375
 40
0.5
 40
0.5
 40
0.5
 40
0.625
 40
0.625
 40
0.625
 40
0.75
 40
0.75
 40
0.75
 40
0.875
 40
0.875
 40
0.875
 40
1.0
 40
1.0
 40
1.0
 40
1.0
 10
35.70076
 20
15.11792
 30
0.0
 10
35.70076
 20
15.11792
 30
0.0
 10
36.05636
 20
15.11792
 30
0.0
 10
36.05636
 20
15.11792
 30
0.0
 10
36.05636
 20
15.11792
 30
0.0
 10
36.05636
 20
15.05611
 30
0.0
 10
36.05636
 20
15.05611
 30
0.0
 10
36.05636
 20
15.05611
 30
0.0
 10
35.91582
 20
15.05611
 30
0.0
 10
35.91582
 20
15.05611
 30
0.0
 10
35.91582
 20
15.05611
 30
0.0
 10
35.91582
 20
14.6785
 30
0.0
 10
35.91582
 20
14.6785
 30
0.0
 10
35.91582
 20
14.6785
 30
0.0
 10
35.84131
 20
14.6785
 30
0.0
 10
35.84131
 20
14.6785
 30
0.0
 10
35.84131
 20
14.6785
 30
0.0
 10
35.84131
 20
15.05611
 30
0.0
 10
35.84131
 20
15.05611
 30
0.0
 10
35.84131
 20
15.05611
 30
0.0
 10
35.70076
 20
15.05611
 30
0.0
 10
35.70076
 20
15.05611
 30
0.0
 10
35.70076
 20
15.05611
 30
0.0
 10
35.70076
 20
15.11792
 30
0.0
 10
35.70076
 20
15.11792
 30
0.0
  0
SPLINE
  5
97
330
1F
100
AcDbEntity
  8
layer 1
 62
   250
370
     9
100
AcDbSpline
210
0.0
220
0.0
230
1.0
 70
    11
 71
     3
 72
    86
 73
    82
 74
     0
 42
0.0000000001
 43
0.0000000001
 40
0.0
 40
0.0
 40
0.0
 40
0.0
 40
0.037037037037037
 40
0.037037037037037
 40
0.037037037037037
 40
0.0740740740740741
 40
0.0740740740740741
 40
0.0740740740740741
 40
0.1111111111111111
 40
0.1111111111111111
 40
0.1111111111111111
 40
0.1481481481481481
 40
0.1481481481481481
 40
0.1481481481481481
 40
0.1851851851851852
 40
0.1851851851851852
 40
0.1851851851851852
 40
0.2222222222222222
 40
0.2222222222222222
 40
0.2222222222222222
 40
0.2592592592592592
 40
0.2592592592592592
 40
0.2592592592592592
 40
0.2962962962962963
 40
0.2962962962962963
 40
0.2962962962962963
 40
0.3333333333333333
 40
0.3333333333333333
 40
0.3333333333333333
 40
0.3703703703703703
 40
0.3703703703703703
 40
0.3703703703703703
 40
0.4074074074074074
 40
0.4074074074074074
 40
0.4074074074074074
 40
0.4444444444444444
 40
0.4444444444444444
 40
0.4444444444444444
 40
0.4814814814814815
 40
0.4814814814814815
 40
0.4814814814814815
 40
0.5185185185185185
 40
0.5185185185185185
 40
0.5185185185185185
 40
0.5555555555555556
 40
0.5555555555555556
 40
0.5555555555555556
 40
0.5925925925925926
 40
0.5925925925925926
 40
0.5925925925925926
 40
0.6296296296296295
 40
0.6296296296296295
 40
0.6296296296296295
 40
0.6666666666666666
 40
0.6666666666666666
 40
0.6666666666666666
 40
0.7037037037037037
 40
0.7037037037037037
 40
0.7037037037037037
 40
0.7407407407407407
 40
0.7407407407407407
 40
0.7407407407407407
 40
0.7777777777777777
 40
0.7777777777777777
 40
0.7777777777777777
 40
0.8148148148148148
 40
0.8148148148148148
 40
0.8148148148148148
 40
0.8518518518518519
 40
0.8518518518518519
 40
0.8518518518518519
 40
0.8888888888888888
 40
0.8888888888888888
 40
0.8888888888888888
 40
0.9259259259259258
 40
0.9259259259259258
 40
0.9259259259259258
 40
0.9629629629629629
 40
0.9629629629629629
 40
0.9629629629629629
 40
1.0
 40
1.0
 40
1.0
 40
1.0
 10
36.40505
 20
14.73353
 30
0.0
 10
36.37739
 20
14.70997
 30
0.0
 10
36.35072
 20
14.69346
 30
0.0
 10
36.32518
 20
14.68372
 30
0.0
 10
36.29964
 20
14.67398
 30
0.0
 10
36.27227
 20
14.66919
 30
0.0
 10
36.24291
 20
14.66919
 30
0.0
 10
36.19465
 20
14.66919
 30
0.0
 10
36.15754
 20
14.6809
 30
0.0
 10
36.13158
 20
14.70446
 30
0.0
 10
36.10561
 20
14.72789
 30
0.0
 10
36.09263
 20
14.75795
 30
0.0
 10
36.09263
 20
14.79449
 30
0.0
 10
36.09263
 20
14.81594
 30
0.0
 10
36.09757
 20
14.83556
 30
0.0
 10
36.10731
 20
14.85334
 30
0.0
 10
36.11718
 20
14.87112
 30
0.0
 10
36.13002
 20
14.88523
 30
0.0
 10
36.14583
 20
14.89595
 30
0.0
 10
36.16177
 20
14.90668
 30
0.0
 10
36.17955
 20
14.91486
 30
0.0
 10
36.19945
 20
14.92037
 30
0.0
 10
36.21413
 20
14.92418
 30
0.0
 10
36.23628
 20
14.92784
 30
0.0
 10
36.26577
 20
14.93151
 30
0.0
 10
36.32589
 20
14.93857
 30
0.0
 10
36.37034
 20
14.94718
 30
0.0
 10
36.3987
 20
14.95705
 30
0.0
 10
36.39898
 20
14.96721
 30
0.0
 10
36.39912
 20
14.97371
 30
0.0
 10
36.39912
 20
14.97639
 30
0.0
 10
36.39912
 20
15.00658
 30
0.0
 10
36.39207
 20
15.02789
 30
0.0
 10
36.37796
 20
15.04031
 30
0.0
 10
36.35891
 20
15.0571
 30
0.0
 10
36.33054
 20
15.06543
 30
0.0
 10
36.29301
 20
15.06543
 30
0.0
 10
36.25787
 20
15.06543
 30
0.0
 10
36.23191
 20
15.05922
 30
0.0
 10
36.21526
 20
15.04694
 30
0.0
 10
36.19846
 20
15.03467
 30
0.0
 10
36.18619
 20
15.01293
 30
0.0
 10
36.17814
 20
14.98161
 30
0.0
 10
36.17814
 20
14.98161
 30
0.0
 10
36.10533
 20
14.99177
 30
0.0
 10
36.10533
 20
14.99177
 30
0.0
 10
36.11196
 20
15.02295
 30
0.0
 10
36.12283
 20
15.04821
 30
0.0
 10
36.13807
 20
15.0674
 30
0.0
 10
36.15331
 20
15.08659
 30
0.0
 10
36.17532
 20
15.10127
 30
0.0
 10
36.20411
 20
15.11171
 30
0.0
 10
36.23275
 20
15.12201
 30
0.0
 10
36.2662
 20
15.12724
 30
0.0
 10
36.30402
 20
15.12724
 30
0.0
 10
36.34155
 20
15.12724
 30
0.0
 10
36.37217
 20
15.12286
 30
0.0
 10
36.39574
 20
15.11397
 30
0.0
 10
36.41916
 20
15.10508
 30
0.0
 10
36.43652
 20
15.09407
 30
0.0
 10
36.44753
 20
15.08067
 30
0.0
 10
36.45853
 20
15.06726
 30
0.0
 10
36.46629
 20
15.05033
 30
0.0
 10
36.47081
 20
15.02987
 30
0.0
 10
36.47321
 20
15.01717
 30
0.0
 10
36.47448
 20
14.99431
 30
0.0
 10
36.47448
 20
14.96143
 30
0.0
 10
36.47448
 20
14.96143
 30
0.0
 10
36.47448
 20
14.86265
 30
0.0
 10
36.47448
 20
14.86265
 30
0.0
 10
36.47448
 20
14.79365
 30
0.0
 10
36.47603
 20
14.75004
 30
0.0
 10
36.47913
 20
14.73156
 30
0.0
 10
36.4821
 20
14.71307
 30
0.0
 10
36.48831
 20
14.69543
 30
0.0
 10
36.49734
 20
14.6785
 30
0.0
 10
36.49734
 20
14.6785
 30
0.0
 10
36.41944
 20
14.6785
 30
0.0
 10
36.41944
 20
14.6785
 30
0.0
 10
36.41197
 20
14.69416
 30
0.0
 10
36.40717
 20
14.71251
 30
0.0
 10
36.40505
 20
14.73353
 30
0.0
  0
SPLINE
  5
98
330
1F
100
AcDbEntity
  8
layer 1
 62
   250
370
     9
100
AcDbSpline
210
0.0
220
0.0
230
1.0
 70
    11
 71
     3
 72
    35
 73
    31
 74
     0
 42
0.0000000001
 43
0.0000000001
 40
0.0
 40
0.0
 40
0.0
 40
0.0
 40
0.1
 40
0.1
 40
0.1
 40
0.2
 40
0.2
 40
0.2
 40
0.3
 40
0.3
 40
0.3
 40
0.4
 40
0.4
 40
0.4
 40
0.5
 40
0.5
 40
0.5
 40
0.6000000000000001
 40
0.6000000000000001
 40
0.6000000000000001
 40
0.7000000000000001
 40
0.7000000000000001
 40
0.7000000000000001
 40
0.8
 40
0.8
 40
0.8
 40
0.9
 40
0.9
 40
0.9
 40
1.0
 40
1.0
 40
1.0
 40
1.0
 10
36.39912
 20
14.89863
 30
0.0
 10
36.37203
 20
14.88763
 30
0.0
 10
36.33139
 20
14.87831
 30
0.0
 10
36.2772
 20
14.87069
 30
0.0
 10
36.24644
 20
14.86632
 30
0.0
 10
36.22471
 20
14.86138
 30
0.0
 10
36.21201
 20
14.85588
 30
0.0
 10
36.19931
 20
14.85037
 30
0.0
 10
36.18957
 20
14.84233
 30
0.0
 10
36.18266
 20
14.83189
 30
0.0
 10
36.17574
 20
14.82131
 30
0.0
 10
36.17222
 20
14.80959
 30
0.0
 10
36.17222
 20
14.79661
 30
0.0
 10
36.17222
 20
14.777
 30
0.0
 10
36.1797
 20
14.76049
 30
0.0
 10
36.19479
 20
14.74736
 30
0.0
 10
36.20989
 20
14.73424
 30
0.0
 10
36.23191
 20
14.72761
 30
0.0
 10
36.26084
 20
14.72761
 30
0.0
 10
36.28948
 20
14.72761
 30
0.0
 10
36.31502
 20
14.73382
 30
0.0
 10
36.33746
 20
14.74637
 30
0.0
 10
36.35975
 20
14.75879
 30
0.0
 10
36.37626
 20
14.77587
 30
0.0
 10
36.38671
 20
14.79746
 30
0.0
 10
36.39475
 20
14.81425
 30
0.0
 10
36.3987
 20
14.83894
 30
0.0
 10
36.3987
 20
14.87154
 30
0.0
 10
36.3987
 20
14.87154
 30
0.0
 10
36.39912
 20
14.89863
 30
0.0
 10
36.39912
 20
14.89863
 30
0.0
  0
SPLINE
  5
99
330
1F
100
AcDbEntity
  8
layer 1
 62
   250
370
     9
100
AcDbSpline
210
0.0
220
0.0
230
1.0
 70
    11
 71
     3
 72
    53
 73
    49
 74
     0
 42
0.0000000001
 43
0.0000000001
 40
0.0
 40
0.0
 40
0.0
 40
0.0
 40
0.0625
 40
0.0625
 40
0.0625
 40
0.125
 40
0.125
 40
0.125
 40
0.1875
 40
0.1875
 40
0.1875
 40
0.25
 40
0.25
 40
0.25
 40
0.3125
 40
0.3125
 40
0.3125
 40
0.375
 40
0.375
 40
0.375
 40
0.4375
 40
0.4375
 40
0.4375
 40
0.5
 40
0.5
 40
0.5
 40
0.5625
 40
0.5625
 40
0.5625
 40
0.625
 40
0.625
 40
0.625
 40
0.6875
 40
0.6875
 40
0.6875
 40
0.75
 40
0.75
 40
0.75
 40
0.8125
 40
0.8125
 40
0.8125
 40
0.875
 40
0.875
 40
0.875
 40
0.9375
 40
0.9375
 40
0.9375
 40
1.0
 40
1.0
 40
1.0
 40
1.0
 10
36.79621
 20
15.11792
 30
0.0
 10
36.79621
 20
15.11792
 30
0.0
 10
36.87072
 20
15.11792
 30
0.0
 10
36.87072
 20
15.11792
 30
0.0
 10
36.87072
 20
15.11792
 30
0.0
 10
36.87072
 20
15.03495
 30
0.0
 10
36.87072
 20
15.03495
 30
0.0
 10
36.87072
 20
14.99911
 30
0.0
 10
36.87283
 20
14.97314
 30
0.0
 10
36.87721
 20
14.95705
 30
0.0
 10
36.88144
 20
14.94097
 30
0.0
 10
36.89174
 20
14.92686
 30
0.0
 10
36.90811
 20
14.91486
 30
0.0
 10
36.92434
 20
14.90287
 30
0.0
 10
36.9448
 20
14.89694
 30
0.0
 10
36.9695
 20
14.89694
 30
0.0
 10
36.99772
 20
14.89694
 30
0.0
 10
37.03412
 20
14.90442
 30
0.0
 10
37.079
 20
14.91924
 30
0.0
 10
37.079
 20
14.91924
 30
0.0
 10
37.079
 20
15.11792
 30
0.0
 10
37.079
 20
15.11792
 30
0.0
 10
37.079
 20
15.11792
 30
0.0
 10
37.1535
 20
15.11792
 30
0.0
 10
37.1535
 20
15.11792
 30
0.0
 10
37.1535
 20
15.11792
 30
0.0
 10
37.1535
 20
14.6785
 30
0.0
 10
37.1535
 20
14.6785
 30
0.0
 10
37.1535
 20
14.6785
 30
0.0
 10
37.079
 20
14.6785
 30
0.0
 10
37.079
 20
14.6785
 30
0.0
 10
37.079
 20
14.6785
 30
0.0
 10
37.079
 20
14.85588
 30
0.0
 10
37.079
 20
14.85588
 30
0.0
 10
37.03314
 20
14.84148
 30
0.0
 10
36.99024
 20
14.83429
 30
0.0
 10
36.95045
 20
14.83429
 30
0.0
 10
36.917
 20
14.83429
 30
0.0
 10
36.88751
 20
14.84275
 30
0.0
 10
36.86197
 20
14.85969
 30
0.0
 10
36.83643
 20
14.87662
 30
0.0
 10
36.81907
 20
14.89736
 30
0.0
 10
36.8099
 20
14.92192
 30
0.0
 10
36.80073
 20
14.94647
 30
0.0
 10
36.79621
 20
14.97342
 30
0.0
 10
36.79621
 20
15.00292
 30
0.0
 10
36.79621
 20
15.00292
 30
0.0
 10
36.79621
 20
15.11792
 30
0.0
 10
36.79621
 20
15.11792
 30
0.0
  0
SPLINE
  5
9A
330
1F
100
AcDbEntity
  8
layer 1
 62
   250
370
     9
100
AcDbSpline
210
0.0
220
0.0
230
1.0
 70
    11
 71
     3
 72
    29
 73
    25
 74
     0
 42
0.0000000001
 43
0.0000000001
 40
0.0
 40
0.0
 40
0.0
 40
0.0
 40
0.125
 40
0.125
 40
0.125
 40
0.25
 40
0.25
 40
0.25
 40
0.375
 40
0.375
 40
0.375
 40
0.5
 40
0.5
 40
0.5
 40
0.625
 40
0.625
 40
0.625
 40
0.75
 40
0.75
 40
0.75
 40
0.875
 40
0.875
 40
0.875
 40
1.0
 40
1.0
 40
1.0
 40
1.0
 10
37.22632
 20
15.11792
 30
0.0
 10
37.22632
 20
15.11792
 30
0.0
 10
37.58192
 20
15.11792
 30
0.0
 10
37.58192
 20
15.11792
 30
0.0
 10
37.58192
 20
15.11792
 30
0.0
 10
37.58192
 20
15.05611
 30
0.0
 10
37.58192
 20
15.05611
 30
0.0
 10
37.58192
 20
15.05611
 30
0.0
 10
37.44138
 20
15.05611
 30
0.0
 10
37.44138
 20
15.05611
 30
0.0
 10
37.44138
 20
15.05611
 30
0.0
 10
37.44138
 20
14.6785
 30
0.0
 10
37.44138
 20
14.6785
 30
0.0
 10
37.44138
 20
14.6785
 30
0.0
 10
37.36687
 20
14.6785
 30
0.0
 10
37.36687
 20
14.6785
 30
0.0
 10
37.36687
 20
14.6785
 30
0.0
 10
37.36687
 20
15.05611
 30
0.0
 10
37.36687
 20
15.05611
 30
0.0
 10
37.36687
 20
15.05611
 30
0.0
 10
37.22632
 20
15.05611
 30
0.0
 10
37.22632
 20
15.05611
 30
0.0
 10
37.22632
 20
15.05611
 30
0.0
 10
37.22632
 20
15.11792
 30
0.0
 10
37.22632
 20
15.11792
 30
0.0
  0
SPLINE
  5
9B
330
1F
100
AcDbEntity
  8
layer 1
 62
   250
370
     9
100
AcDbSpline
210
0.0
220
0.0
230
1.0
 70
    11
 71
     3
 72
    32
 73
    28
 74
     0
 42
0.0000000001
 43
0.0000000001
 40
0.0
 40
0.0
 40
0.0
 40
0.0
 40
0.1111111111111111
 40
0.1111111111111111
 40
0.1111111111111111
 40
0.2222222222222222
 40
0.2222222222222222
 40
0.2222222222222222
 40
0.3333333333333333
 40
0.3333333333333333
 40
0.3333333333333333
 40
0.4444444444444444
 40
0.4444444444444444
 40
0.4444444444444444
 40
0.5555555555555556
 40
0.5555555555555556
 40
0.5555555555555556
 40
0.6666666666666666
 40
0.6666666666666666
 40
0.6666666666666666
 40
0.7777777777777777
 40
0.7777777777777777
 40
0.7777777777777777
 40
0.8888888888888888
 40
0.8888888888888888
 40
0.8888888888888888
 40
1.0
 40
1.0
 40
1.0
 40
1.0
 10
37.61565
 20
14.89821
 30
0.0
 10
37.61565
 20
14.97935
 30
0.0
 10
37.63823
 20
15.03946
 30
0.0
 10
37.68352
 20
15.07855
 30
0.0
 10
37.7212
 20
15.11101
 30
0.0
 10
37.76735
 20
15.12724
 30
0.0
 10
37.82167
 20
15.12724
 30
0.0
 10
37.88193
 20
15.12724
 30
0.0
 10
37.93132
 20
15.10748
 30
0.0
 10
37.9697
 20
15.06797
 30
0.0
 10
38.00794
 20
15.0286
 30
0.0
 10
38.02713
 20
14.97399
 30
0.0
 10
38.02713
 20
14.90442
 30
0.0
 10
38.02713
 20
14.84798
 30
0.0
 10
38.01867
 20
14.80367
 30
0.0
 10
38.00173
 20
14.77135
 30
0.0
 10
37.9848
 20
14.73904
 30
0.0
 10
37.9601
 20
14.71392
 30
0.0
 10
37.92765
 20
14.696
 30
0.0
 10
37.89533
 20
14.67808
 30
0.0
 10
37.85991
 20
14.66919
 30
0.0
 10
37.82167
 20
14.66919
 30
0.0
 10
37.76015
 20
14.66919
 30
0.0
 10
37.71048
 20
14.6888
 30
0.0
 10
37.67252
 20
14.72817
 30
0.0
 10
37.63456
 20
14.76754
 30
0.0
 10
37.61565
 20
14.82427
 30
0.0
 10
37.61565
 20
14.89821
 30
0.0
  0
SPLINE
  5
9C
330
1F
100
AcDbEntity
  8
layer 1
 62
   250
370
     9
100
AcDbSpline
210
0.0
220
0.0
230
1.0
 70
    11
 71
     3
 72
    29
 73
    25
 74
     0
 42
0.0000000001
 43
0.0000000001
 40
0.0
 40
0.0
 40
0.0
 40
0.0
 40
0.125
 40
0.125
 40
0.125
 40
0.25
 40
0.25
 40
0.25
 40
0.375
 40
0.375
 40
0.375
 40
0.5
 40
0.5
 40
0.5
 40
0.625
 40
0.625
 40
0.625
 40
0.75
 40
0.75
 40
0.75
 40
0.875
 40
0.875
 40
0.875
 40
1.0
 40
1.0
 40
1.0
 40
1.0
 10
37.69185
 20
14.89807
 30
0.0
 10
37.69185
 20
14.84191
 30
0.0
 10
37.70413
 20
14.79986
 30
0.0
 10
37.72868
 20
14.77206
 30
0.0
 10
37.75338
 20
14.74412
 30
0.0
 10
37.78428
 20
14.73015
 30
0.0
 10
37.82167
 20
14.73015
 30
0.0
 10
37.85864
 20
14.73015
 30
0.0
 10
37.88941
 20
14.74412
 30
0.0
 10
37.9141
 20
14.7722
 30
0.0
 10
37.93865
 20
14.80028
 30
0.0
 10
37.95093
 20
14.84304
 30
0.0
 10
37.95093
 20
14.90047
 30
0.0
 10
37.95093
 20
14.95466
 30
0.0
 10
37.93851
 20
14.99572
 30
0.0
 10
37.91382
 20
15.02352
 30
0.0
 10
37.88912
 20
15.05146
 30
0.0
 10
37.85836
 20
15.06543
 30
0.0
 10
37.82167
 20
15.06543
 30
0.0
 10
37.78428
 20
15.06543
 30
0.0
 10
37.75338
 20
15.0516
 30
0.0
 10
37.72868
 20
15.0238
 30
0.0
 10
37.70413
 20
14.996
 30
0.0
 10
37.69185
 20
14.95409
 30
0.0
 10
37.69185
 20
14.89807
 30
0.0
  0
SPLINE
  5
9D
330
1F
100
AcDbEntity
  8
layer 1
 62
   250
370
     9
100
AcDbSpline
210
0.0
220
0.0
230
1.0
 70
    11
 71
     3
 72
    23
 73
    19
 74
     0
 42
0.0000000001
 43
0.0000000001
 40
0.0
 40
0.0
 40
0.0
 40
0.0
 40
0.1666666666666667
 40
0.1666666666666667
 40
0.1666666666666667
 40
0.3333333333333333
 40
0.3333333333333333
 40
0.3333333333333333
 40
0.5
 40
0.5
 40
0.5
 40
0.6666666666666666
 40
0.6666666666666666
 40
0.6666666666666666
 40
0.8333333333333333
 40
0.8333333333333333
 40
0.8333333333333333
 40
1.0
 40
1.0
 40
1.0
 40
1.0
 10
38.34971
 20
15.11792
 30
0.0
 10
38.34971
 20
15.11792
 30
0.0
 10
38.60286
 20
15.11792
 30
0.0
 10
38.60286
 20
15.11792
 30
0.0
 10
38.60286
 20
15.11792
 30
0.0
 10
38.60286
 20
15.05611
 30
0.0
 10
38.60286
 20
15.05611
 30
0.0
 10
38.60286
 20
15.05611
 30
0.0
 10
38.42422
 20
15.05611
 30
0.0
 10
38.42422
 20
15.05611
 30
0.0
 10
38.42422
 20
15.05611
 30
0.0
 10
38.42422
 20
14.6785
 30
0.0
 10
38.42422
 20
14.6785
 30
0.0
 10
38.42422
 20
14.6785
 30
0.0
 10
38.34971
 20
14.6785
 30
0.0
 10
38.34971
 20
14.6785
 30
0.0
 10
38.34971
 20
14.6785
 30
0.0
 10
38.34971
 20
15.11792
 30
0.0
 10
38.34971
 20
15.11792
 30
0.0
  0
SPLINE
  5
9E
330
1F
100
AcDbEntity
  8
layer 1
 62
   250
370
     9
100
AcDbSpline
210
0.0
220
0.0
230
1.0
 70
    11
 71
     3
 72
    53
 73
    49
 74
     0
 42
0.0000000001
 43
0.0000000001
 40
0.0
 40
0.0
 40
0.0
 40
0.0
 40
0.0625
 40
0.0625
 40
0.0625
 40
0.125
 40
0.125
 40
0.125
 40
0.1875
 40
0.1875
 40
0.1875
 40
0.25
 40
0.25
 40
0.25
 40
0.3125
 40
0.3125
 40
0.3125
 40
0.375
 40
0.375
 40
0.375
 40
0.4375
 40
0.4375
 40
0.4375
 40
0.5
 40
0.5
 40
0.5
 40
0.5625
 40
0.5625
 40
0.5625
 40
0.625
 40
0.625
 40
0.625
 40
0.6875
 40
0.6875
 40
0.6875
 40
0.75
 40
0.75
 40
0.75
 40
0.8125
 40
0.8125
 40
0.8125
 40
0.875
 40
0.875
 40
0.875
 40
0.9375
 40
0.9375
 40
0.9375
 40
1.0
 40
1.0
 40
1.0
 40
1.0
 10
38.67624
 20
15.11792
 30
0.0
 10
38.67624
 20
15.11792
 30
0.0
 10
39.02253
 20
15.11792
 30
0.0
 10
39.02253
 20
15.11792
 30
0.0
 10
39.02253
 20
15.11792
 30
0.0
 10
39.02253
 20
14.67892
 30
0.0
 10
39.02253
 20
14.67892
 30
0.0
 10
39.02253
 20
14.67892
 30
0.0
 10
38.94802
 20
14.67892
 30
0.0
 10
38.94802
 20
14.67892
 30
0.0
 10
38.94802
 20
14.67892
 30
0.0
 10
38.94802
 20
15.05611
 30
0.0
 10
38.94802
 20
15.05611
 30
0.0
 10
38.94802
 20
15.05611
 30
0.0
 10
38.75074
 20
15.05611
 30
0.0
 10
38.75074
 20
15.05611
 30
0.0
 10
38.75074
 20
15.05611
 30
0.0
 10
38.75074
 20
14.83753
 30
0.0
 10
38.75074
 20
14.83753
 30
0.0
 10
38.75074
 20
14.78659
 30
0.0
 10
38.74905
 20
14.75301
 30
0.0
 10
38.74581
 20
14.73664
 30
0.0
 10
38.74242
 20
14.72041
 30
0.0
 10
38.73339
 20
14.7063
 30
0.0
 10
38.71857
 20
14.69416
 30
0.0
 10
38.70361
 20
14.68203
 30
0.0
 10
38.68216
 20
14.67596
 30
0.0
 10
38.65408
 20
14.67596
 30
0.0
 10
38.63673
 20
14.67596
 30
0.0
 10
38.61669
 20
14.67709
 30
0.0
 10
38.59411
 20
14.67921
 30
0.0
 10
38.59411
 20
14.67921
 30
0.0
 10
38.59411
 20
14.74115
 30
0.0
 10
38.59411
 20
14.74115
 30
0.0
 10
38.59411
 20
14.74115
 30
0.0
 10
38.62671
 20
14.74115
 30
0.0
 10
38.62671
 20
14.74115
 30
0.0
 10
38.64209
 20
14.74115
 30
0.0
 10
38.65309
 20
14.74271
 30
0.0
 10
38.65973
 20
14.74595
 30
0.0
 10
38.66636
 20
14.74906
 30
0.0
 10
38.67073
 20
14.75414
 30
0.0
 10
38.67299
 20
14.76105
 30
0.0
 10
38.67511
 20
14.76796
 30
0.0
 10
38.67624
 20
14.7904
 30
0.0
 10
38.67624
 20
14.82836
 30
0.0
 10
38.67624
 20
14.82836
 30
0.0
 10
38.67624
 20
15.11792
 30
0.0
 10
38.67624
 20
15.11792
 30
0.0
  0
SPLINE
  5
9F
330
1F
100
AcDbEntity
  8
layer 1
 62
   250
370
     9
100
AcDbSpline
210
0.0
220
0.0
230
1.0
 70
    11
 71
     3
 72
    59
 73
    55
 74
     0
 42
0.0000000001
 43
0.0000000001
 40
0.0
 40
0.0
 40
0.0
 40
0.0
 40
0.0555555555555556
 40
0.0555555555555556
 40
0.0555555555555556
 40
0.1111111111111111
 40
0.1111111111111111
 40
0.1111111111111111
 40
0.1666666666666667
 40
0.1666666666666667
 40
0.1666666666666667
 40
0.2222222222222222
 40
0.2222222222222222
 40
0.2222222222222222
 40
0.2777777777777778
 40
0.2777777777777778
 40
0.2777777777777778
 40
0.3333333333333333
 40
0.3333333333333333
 40
0.3333333333333333
 40
0.3888888888888888
 40
0.3888888888888888
 40
0.3888888888888888
 40
0.4444444444444444
 40
0.4444444444444444
 40
0.4444444444444444
 40
0.5
 40
0.5
 40
0.5
 40
0.5555555555555556
 40
0.5555555555555556
 40
0.5555555555555556
 40
0.611111111111111
 40
0.611111111111111
 40
0.611111111111111
 40
0.6666666666666666
 40
0.6666666666666666
 40
0.6666666666666666
 40
0.7222222222222222
 40
0.7222222222222222
 40
0.7222222222222222
 40
0.7777777777777777
 40
0.7777777777777777
 40
0.7777777777777777
 40
0.8333333333333333
 40
0.8333333333333333
 40
0.8333333333333333
 40
0.8888888888888888
 40
0.8888888888888888
 40
0.8888888888888888
 40
0.9444444444444444
 40
0.9444444444444444
 40
0.9444444444444444
 40
1.0
 40
1.0
 40
1.0
 40
1.0
 10
39.13047
 20
14.50959
 30
0.0
 10
39.13047
 20
14.50959
 30
0.0
 10
39.12201
 20
14.57845
 30
0.0
 10
39.12201
 20
14.57845
 30
0.0
 10
39.13838
 20
14.57408
 30
0.0
 10
39.15249
 20
14.57182
 30
0.0
 10
39.16462
 20
14.57182
 30
0.0
 10
39.18127
 20
14.57182
 30
0.0
 10
39.19454
 20
14.57464
 30
0.0
 10
39.20442
 20
14.58015
 30
0.0
 10
39.21443
 20
14.58565
 30
0.0
 10
39.22262
 20
14.59341
 30
0.0
 10
39.22897
 20
14.60329
 30
0.0
 10
39.23363
 20
14.61077
 30
0.0
 10
39.24125
 20
14.62925
 30
0.0
 10
39.25169
 20
14.65889
 30
0.0
 10
39.2531
 20
14.66298
 30
0.0
 10
39.25522
 20
14.66905
 30
0.0
 10
39.25832
 20
14.67709
 30
0.0
 10
39.25832
 20
14.67709
 30
0.0
 10
39.09153
 20
15.11792
 30
0.0
 10
39.09153
 20
15.11792
 30
0.0
 10
39.09153
 20
15.11792
 30
0.0
 10
39.17111
 20
15.11792
 30
0.0
 10
39.17111
 20
15.11792
 30
0.0
 10
39.17111
 20
15.11792
 30
0.0
 10
39.26284
 20
14.8642
 30
0.0
 10
39.26284
 20
14.8642
 30
0.0
 10
39.27483
 20
14.83217
 30
0.0
 10
39.28541
 20
14.7983
 30
0.0
 10
39.29487
 20
14.76274
 30
0.0
 10
39.30348
 20
14.79619
 30
0.0
 10
39.31364
 20
14.82921
 30
0.0
 10
39.32549
 20
14.86166
 30
0.0
 10
39.32549
 20
14.86166
 30
0.0
 10
39.41919
 20
15.11792
 30
0.0
 10
39.41919
 20
15.11792
 30
0.0
 10
39.41919
 20
15.11792
 30
0.0
 10
39.49355
 20
15.11792
 30
0.0
 10
39.49355
 20
15.11792
 30
0.0
 10
39.49355
 20
15.11792
 30
0.0
 10
39.32747
 20
14.67088
 30
0.0
 10
39.32747
 20
14.67088
 30
0.0
 10
39.30954
 20
14.62276
 30
0.0
 10
39.29557
 20
14.58974
 30
0.0
 10
39.28556
 20
14.57154
 30
0.0
 10
39.27229
 20
14.54713
 30
0.0
 10
39.25705
 20
14.5292
 30
0.0
 10
39.23998
 20
14.51777
 30
0.0
 10
39.22276
 20
14.50634
 30
0.0
 10
39.2023
 20
14.5007
 30
0.0
 10
39.17859
 20
14.5007
 30
0.0
 10
39.1642
 20
14.5007
 30
0.0
 10
39.14811
 20
14.50366
 30
0.0
 10
39.13047
 20
14.50959
 30
0.0
  0
SPLINE
  5
A0
330
1F
100
AcDbEntity
  8
layer 1
 62
   250
370
     9
100
AcDbSpline
210
0.0
220
0.0
230
1.0
 70
    11
 71
     3
 72
    68
 73
    64
 74
     0
 42
0.0000000001
 43
0.0000000001
 40
0.0
 40
0.0
 40
0.0
 40
0.0
 40
0.0476190476190476
 40
0.0476190476190476
 40
0.0476190476190476
 40
0.0952380952380952
 40
0.0952380952380952
 40
0.0952380952380952
 40
0.1428571428571428
 40
0.1428571428571428
 40
0.1428571428571428
 40
0.1904761904761905
 40
0.1904761904761905
 40
0.1904761904761905
 40
0.2380952380952381
 40
0.2380952380952381
 40
0.2380952380952381
 40
0.2857142857142857
 40
0.2857142857142857
 40
0.2857142857142857
 40
0.3333333333333333
 40
0.3333333333333333
 40
0.3333333333333333
 40
0.3809523809523809
 40
0.3809523809523809
 40
0.3809523809523809
 40
0.4285714285714285
 40
0.4285714285714285
 40
0.4285714285714285
 40
0.4761904761904762
 40
0.4761904761904762
 40
0.4761904761904762
 40
0.5238095238095237
 40
0.5238095238095237
 40
0.5238095238095237
 40
0.5714285714285714
 40
0.5714285714285714
 40
0.5714285714285714
 40
0.6190476190476191
 40
0.6190476190476191
 40
0.6190476190476191
 40
0.6666666666666666
 40
0.6666666666666666
 40
0.6666666666666666
 40
0.7142857142857142
 40
0.7142857142857142
 40
0.7142857142857142
 40
0.7619047619047619
 40
0.7619047619047619
 40
0.7619047619047619
 40
0.8095238095238095
 40
0.8095238095238095
 40
0.8095238095238095
 40
0.8571428571428571
 40
0.8571428571428571
 40
0.8571428571428571
 40
0.9047619047619047
 40
0.9047619047619047
 40
0.9047619047619047
 40
0.9523809523809523
 40
0.9523809523809523
 40
0.9523809523809523
 40
1.0
 40
1.0
 40
1.0
 40
1.0
 10
39.88669
 20
15.29911
 30
0.0
 10
39.88669
 20
15.29911
 30
0.0
 10
39.95273
 20
15.29826
 30
0.0
 10
39.95273
 20
15.29826
 30
0.0
 10
39.94977
 20
15.26877
 30
0.0
 10
39.94314
 20
15.24817
 30
0.0
 10
39.93312
 20
15.2366
 30
0.0
 10
39.9231
 20
15.22503
 30
0.0
 10
39.91026
 20
15.21769
 30
0.0
 10
39.89445
 20
15.2143
 30
0.0
 10
39.87865
 20
15.21106
 30
0.0
 10
39.8476
 20
15.20936
 30
0.0
 10
39.80146
 20
15.20936
 30
0.0
 10
39.74022
 20
15.20936
 30
0.0
 10
39.69845
 20
15.20344
 30
0.0
 10
39.67615
 20
15.19158
 30
0.0
 10
39.654
 20
15.17973
 30
0.0
 10
39.63791
 20
15.16082
 30
0.0
 10
39.62817
 20
15.13486
 30
0.0
 10
39.61844
 20
15.10875
 30
0.0
 10
39.61308
 20
15.07531
 30
0.0
 10
39.61195
 20
15.03424
 30
0.0
 10
39.63071
 20
15.06218
 30
0.0
 10
39.65259
 20
15.08307
 30
0.0
 10
39.67771
 20
15.09704
 30
0.0
 10
39.70268
 20
15.11101
 30
0.0
 10
39.73105
 20
15.11792
 30
0.0
 10
39.76237
 20
15.11792
 30
0.0
 10
39.81995
 20
15.11792
 30
0.0
 10
39.86764
 20
15.09817
 30
0.0
 10
39.90546
 20
15.05865
 30
0.0
 10
39.94314
 20
15.01914
 30
0.0
 10
39.96205
 20
14.96566
 30
0.0
 10
39.96205
 20
14.89807
 30
0.0
 10
39.96205
 20
14.84685
 30
0.0
 10
39.95259
 20
14.80479
 30
0.0
 10
39.93354
 20
14.77206
 30
0.0
 10
39.91449
 20
14.73932
 30
0.0
 10
39.89191
 20
14.71392
 30
0.0
 10
39.86581
 20
14.696
 30
0.0
 10
39.83984
 20
14.67808
 30
0.0
 10
39.80428
 20
14.66919
 30
0.0
 10
39.75941
 20
14.66919
 30
0.0
 10
39.7072
 20
14.66919
 30
0.0
 10
39.6667
 20
14.68104
 30
0.0
 10
39.63777
 20
14.70489
 30
0.0
 10
39.60884
 20
14.72874
 30
0.0
 10
39.58669
 20
14.75922
 30
0.0
 10
39.57117
 20
14.79633
 30
0.0
 10
39.55578
 20
14.83344
 30
0.0
 10
39.54802
 20
14.89821
 30
0.0
 10
39.54802
 20
14.99036
 30
0.0
 10
39.54802
 20
15.10621
 30
0.0
 10
39.56764
 20
15.18424
 30
0.0
 10
39.60673
 20
15.22446
 30
0.0
 10
39.64581
 20
15.26468
 30
0.0
 10
39.70607
 20
15.28472
 30
0.0
 10
39.78735
 20
15.28472
 30
0.0
 10
39.83801
 20
15.28472
 30
0.0
 10
39.86665
 20
15.28556
 30
0.0
 10
39.87357
 20
15.28726
 30
0.0
 10
39.88034
 20
15.28895
 30
0.0
 10
39.88472
 20
15.2929
 30
0.0
 10
39.88669
 20
15.29911
 30
0.0
  0
SPLINE
  5
A1
330
1F
100
AcDbEntity
  8
layer 1
 62
   250
370
     9
100
AcDbSpline
210
0.0
220
0.0
230
1.0
 70
    11
 71
     3
 72
    29
 73
    25
 74
     0
 42
0.0000000001
 43
0.0000000001
 40
0.0
 40
0.0
 40
0.0
 40
0.0
 40
0.125
 40
0.125
 40
0.125
 40
0.25
 40
0.25
 40
0.25
 40
0.375
 40
0.375
 40
0.375
 40
0.5
 40
0.5
 40
0.5
 40
0.625
 40
0.625
 40
0.625
 40
0.75
 40
0.75
 40
0.75
 40
0.875
 40
0.875
 40
0.875
 40
1.0
 40
1.0
 40
1.0
 40
1.0
 10
39.88415
 20
14.90019
 30
0.0
 10
39.88415
 20
14.94577
 30
0.0
 10
39.87329
 20
14.98316
 30
0.0
 10
39.8517
 20
15.01237
 30
0.0
 10
39.83011
 20
15.04158
 30
0.0
 10
39.79963
 20
15.05611
 30
0.0
 10
39.76026
 20
15.05611
 30
0.0
 10
39.71919
 20
15.05611
 30
0.0
 10
39.68758
 20
15.04073
 30
0.0
 10
39.66529
 20
15.00983
 30
0.0
 10
39.64299
 20
14.97907
 30
0.0
 10
39.63184
 20
14.938
 30
0.0
 10
39.63184
 20
14.8865
 30
0.0
 10
39.63184
 20
14.8357
 30
0.0
 10
39.64412
 20
14.79675
 30
0.0
 10
39.66882
 20
14.7698
 30
0.0
 10
39.69337
 20
14.74285
 30
0.0
 10
39.72385
 20
14.7293
 30
0.0
 10
39.75983
 20
14.7293
 30
0.0
 10
39.7968
 20
14.7293
 30
0.0
 10
39.82672
 20
14.74496
 30
0.0
 10
39.84972
 20
14.77615
 30
0.0
 10
39.87272
 20
14.80733
 30
0.0
 10
39.88415
 20
14.84868
 30
0.0
 10
39.88415
 20
14.90019
 30
0.0
  0
SPLINE
  5
A2
330
1F
100
AcDbEntity
  8
layer 1
 62
   250
370
     9
100
AcDbSpline
210
0.0
220
0.0
230
1.0
 70
    11
 71
     3
 72
    35
 73
    31
 74
     0
 42
0.0000000001
 43
0.0000000001
 40
0.0
 40
0.0
 40
0.0
 40
0.0
 40
0.1
 40
0.1
 40
0.1
 40
0.2
 40
0.2
 40
0.2
 40
0.3
 40
0.3
 40
0.3
 40
0.4
 40
0.4
 40
0.4
 40
0.5
 40
0.5
 40
0.5
 40
0.6000000000000001
 40
0.6000000000000001
 40
0.6000000000000001
 40
0.7000000000000001
 40
0.7000000000000001
 40
0.7000000000000001
 40
0.8
 40
0.8
 40
0.8
 40
0.9
 40
0.9
 40
0.9
 40
1.0
 40
1.0
 40
1.0
 40
1.0
 10
40.05165
 20
15.11792
 30
0.0
 10
40.05165
 20
15.11792
 30
0.0
 10
40.12616
 20
15.11792
 30
0.0
 10
40.12616
 20
15.11792
 30
0.0
 10
40.12616
 20
15.11792
 30
0.0
 10
40.12616
 20
14.78278
 30
0.0
 10
40.12616
 20
14.78278
 30
0.0
 10
40.12616
 20
14.78278
 30
0.0
 10
40.33317
 20
15.11792
 30
0.0
 10
40.33317
 20
15.11792
 30
0.0
 10
40.33317
 20
15.11792
 30
0.0
 10
40.41318
 20
15.11792
 30
0.0
 10
40.41318
 20
15.11792
 30
0.0
 10
40.41318
 20
15.11792
 30
0.0
 10
40.41318
 20
14.6785
 30
0.0
 10
40.41318
 20
14.6785
 30
0.0
 10
40.41318
 20
14.6785
 30
0.0
 10
40.33867
 20
14.6785
 30
0.0
 10
40.33867
 20
14.6785
 30
0.0
 10
40.33867
 20
14.6785
 30
0.0
 10
40.33867
 20
15.01152
 30
0.0
 10
40.33867
 20
15.01152
 30
0.0
 10
40.33867
 20
15.01152
 30
0.0
 10
40.13194
 20
14.6785
 30
0.0
 10
40.13194
 20
14.6785
 30
0.0
 10
40.13194
 20
14.6785
 30
0.0
 10
40.05165
 20
14.6785
 30
0.0
 10
40.05165
 20
14.6785
 30
0.0
 10
40.05165
 20
14.6785
 30
0.0
 10
40.05165
 20
15.11792
 30
0.0
 10
40.05165
 20
15.11792
 30
0.0
  0
SPLINE
  5
A3
330
1F
100
AcDbEntity
  8
layer 1
 62
   250
370
     9
100
AcDbSpline
210
0.0
220
0.0
230
1.0
 70
    11
 71
     3
 72
    41
 73
    37
 74
     0
 42
0.0000000001
 43
0.0000000001
 40
0.0
 40
0.0
 40
0.0
 40
0.0
 40
0.0833333333333333
 40
0.0833333333333333
 40
0.0833333333333333
 40
0.1666666666666667
 40
0.1666666666666667
 40
0.1666666666666667
 40
0.25
 40
0.25
 40
0.25
 40
0.3333333333333333
 40
0.3333333333333333
 40
0.3333333333333333
 40
0.4166666666666666
 40
0.4166666666666666
 40
0.4166666666666666
 40
0.5
 40
0.5
 40
0.5
 40
0.5833333333333333
 40
0.5833333333333333
 40
0.5833333333333333
 40
0.6666666666666666
 40
0.6666666666666666
 40
0.6666666666666666
 40
0.75
 40
0.75
 40
0.75
 40
0.8333333333333333
 40
0.8333333333333333
 40
0.8333333333333333
 40
0.9166666666666666
 40
0.9166666666666666
 40
0.9166666666666666
 40
1.0
 40
1.0
 40
1.0
 40
1.0
 10
40.52466
 20
15.11792
 30
0.0
 10
40.52466
 20
15.11792
 30
0.0
 10
40.59917
 20
15.11792
 30
0.0
 10
40.59917
 20
15.11792
 30
0.0
 10
40.59917
 20
15.11792
 30
0.0
 10
40.59917
 20
14.93504
 30
0.0
 10
40.59917
 20
14.93504
 30
0.0
 10
40.59917
 20
14.93504
 30
0.0
 10
40.80575
 20
14.93504
 30
0.0
 10
40.80575
 20
14.93504
 30
0.0
 10
40.80575
 20
14.93504
 30
0.0
 10
40.80575
 20
15.11792
 30
0.0
 10
40.80575
 20
15.11792
 30
0.0
 10
40.80575
 20
15.11792
 30
0.0
 10
40.88026
 20
15.11792
 30
0.0
 10
40.88026
 20
15.11792
 30
0.0
 10
40.88026
 20
15.11792
 30
0.0
 10
40.88026
 20
14.6785
 30
0.0
 10
40.88026
 20
14.6785
 30
0.0
 10
40.88026
 20
14.6785
 30
0.0
 10
40.80575
 20
14.6785
 30
0.0
 10
40.80575
 20
14.6785
 30
0.0
 10
40.80575
 20
14.6785
 30
0.0
 10
40.80575
 20
14.87323
 30
0.0
 10
40.80575
 20
14.87323
 30
0.0
 10
40.80575
 20
14.87323
 30
0.0
 10
40.59917
 20
14.87323
 30
0.0
 10
40.59917
 20
14.87323
 30
0.0
 10
40.59917
 20
14.87323
 30
0.0
 10
40.59917
 20
14.6785
 30
0.0
 10
40.59917
 20
14.6785
 30
0.0
 10
40.59917
 20
14.6785
 30
0.0
 10
40.52466
 20
14.6785
 30
0.0
 10
40.52466
 20
14.6785
 30
0.0
 10
40.52466
 20
14.6785
 30
0.0
 10
40.52466
 20
15.11792
 30
0.0
 10
40.52466
 20
15.11792
 30
0.0
  0
SPLINE
  5
A4
330
1F
100
AcDbEntity
  8
layer 1
 62
   250
370
     9
100
AcDbSpline
210
0.0
220
0.0
230
1.0
 70
    11
 71
     3
 72
    86
 73
    82
 74
     0
 42
0.0000000001
 43
0.0000000001
 40
0.0
 40
0.0
 40
0.0
 40
0.0
 40
0.037037037037037
 40
0.037037037037037
 40
0.037037037037037
 40
0.0740740740740741
 40
0.0740740740740741
 40
0.0740740740740741
 40
0.1111111111111111
 40
0.1111111111111111
 40
0.1111111111111111
 40
0.1481481481481481
 40
0.1481481481481481
 40
0.1481481481481481
 40
0.1851851851851852
 40
0.1851851851851852
 40
0.1851851851851852
 40
0.2222222222222222
 40
0.2222222222222222
 40
0.2222222222222222
 40
0.2592592592592592
 40
0.2592592592592592
 40
0.2592592592592592
 40
0.2962962962962963
 40
0.2962962962962963
 40
0.2962962962962963
 40
0.3333333333333333
 40
0.3333333333333333
 40
0.3333333333333333
 40
0.3703703703703703
 40
0.3703703703703703
 40
0.3703703703703703
 40
0.4074074074074074
 40
0.4074074074074074
 40
0.4074074074074074
 40
0.4444444444444444
 40
0.4444444444444444
 40
0.4444444444444444
 40
0.4814814814814815
 40
0.4814814814814815
 40
0.4814814814814815
 40
0.5185185185185185
 40
0.5185185185185185
 40
0.5185185185185185
 40
0.5555555555555556
 40
0.5555555555555556
 40
0.5555555555555556
 40
0.5925925925925926
 40
0.5925925925925926
 40
0.5925925925925926
 40
0.6296296296296295
 40
0.6296296296296295
 40
0.6296296296296295
 40
0.6666666666666666
 40
0.6666666666666666
 40
0.6666666666666666
 40
0.7037037037037037
 40
0.7037037037037037
 40
0.7037037037037037
 40
0.7407407407407407
 40
0.7407407407407407
 40
0.7407407407407407
 40
0.7777777777777777
 40
0.7777777777777777
 40
0.7777777777777777
 40
0.8148148148148148
 40
0.8148148148148148
 40
0.8148148148148148
 40
0.8518518518518519
 40
0.8518518518518519
 40
0.8518518518518519
 40
0.8888888888888888
 40
0.8888888888888888
 40
0.8888888888888888
 40
0.9259259259259258
 40
0.9259259259259258
 40
0.9259259259259258
 40
0.9629629629629629
 40
0.9629629629629629
 40
0.9629629629629629
 40
1.0
 40
1.0
 40
1.0
 40
1.0
 10
41.27918
 20
14.73353
 30
0.0
 10
41.25152
 20
14.70997
 30
0.0
 10
41.22485
 20
14.69346
 30
0.0
 10
41.19931
 20
14.68372
 30
0.0
 10
41.17377
 20
14.67398
 30
0.0
 10
41.1464
 20
14.66919
 30
0.0
 10
41.11704
 20
14.66919
 30
0.0
 10
41.06878
 20
14.66919
 30
0.0
 10
41.03167
 20
14.6809
 30
0.0
 10
41.00571
 20
14.70446
 30
0.0
 10
40.97974
 20
14.72789
 30
0.0
 10
40.96676
 20
14.75795
 30
0.0
 10
40.96676
 20
14.79449
 30
0.0
 10
40.96676
 20
14.81594
 30
0.0
 10
40.9717
 20
14.83556
 30
0.0
 10
40.98144
 20
14.85334
 30
0.0
 10
40.99131
 20
14.87112
 30
0.0
 10
41.00415
 20
14.88523
 30
0.0
 10
41.01996
 20
14.89595
 30
0.0
 10
41.0359
 20
14.90668
 30
0.0
 10
41.05368
 20
14.91486
 30
0.0
 10
41.07358
 20
14.92037
 30
0.0
 10
41.08826
 20
14.92418
 30
0.0
 10
41.11041
 20
14.92784
 30
0.0
 10
41.1399
 20
14.93151
 30
0.0
 10
41.20002
 20
14.93857
 30
0.0
 10
41.24447
 20
14.94718
 30
0.0
 10
41.27283
 20
14.95705
 30
0.0
 10
41.27311
 20
14.96721
 30
0.0
 10
41.27325
 20
14.97371
 30
0.0
 10
41.27325
 20
14.97639
 30
0.0
 10
41.27325
 20
15.00658
 30
0.0
 10
41.2662
 20
15.02789
 30
0.0
 10
41.25209
 20
15.04031
 30
0.0
 10
41.23304
 20
15.0571
 30
0.0
 10
41.20467
 20
15.06543
 30
0.0
 10
41.16714
 20
15.06543
 30
0.0
 10
41.132
 20
15.06543
 30
0.0
 10
41.10604
 20
15.05922
 30
0.0
 10
41.08939
 20
15.04694
 30
0.0
 10
41.07259
 20
15.03467
 30
0.0
 10
41.06032
 20
15.01293
 30
0.0
 10
41.05227
 20
14.98161
 30
0.0
 10
41.05227
 20
14.98161
 30
0.0
 10
40.97946
 20
14.99177
 30
0.0
 10
40.97946
 20
14.99177
 30
0.0
 10
40.98609
 20
15.02295
 30
0.0
 10
40.99696
 20
15.04821
 30
0.0
 10
41.0122
 20
15.0674
 30
0.0
 10
41.02744
 20
15.08659
 30
0.0
 10
41.04945
 20
15.10127
 30
0.0
 10
41.07824
 20
15.11171
 30
0.0
 10
41.10688
 20
15.12201
 30
0.0
 10
41.14033
 20
15.12724
 30
0.0
 10
41.17815
 20
15.12724
 30
0.0
 10
41.21568
 20
15.12724
 30
0.0
 10
41.2463
 20
15.12286
 30
0.0
 10
41.26987
 20
15.11397
 30
0.0
 10
41.29329
 20
15.10508
 30
0.0
 10
41.31065
 20
15.09407
 30
0.0
 10
41.32166
 20
15.08067
 30
0.0
 10
41.33266
 20
15.06726
 30
0.0
 10
41.34042
 20
15.05033
 30
0.0
 10
41.34494
 20
15.02987
 30
0.0
 10
41.34734
 20
15.01717
 30
0.0
 10
41.34861
 20
14.99431
 30
0.0
 10
41.34861
 20
14.96143
 30
0.0
 10
41.34861
 20
14.96143
 30
0.0
 10
41.34861
 20
14.86265
 30
0.0
 10
41.34861
 20
14.86265
 30
0.0
 10
41.34861
 20
14.79365
 30
0.0
 10
41.35016
 20
14.75004
 30
0.0
 10
41.35326
 20
14.73156
 30
0.0
 10
41.35623
 20
14.71307
 30
0.0
 10
41.36244
 20
14.69543
 30
0.0
 10
41.37147
 20
14.6785
 30
0.0
 10
41.37147
 20
14.6785
 30
0.0
 10
41.29357
 20
14.6785
 30
0.0
 10
41.29357
 20
14.6785
 30
0.0
 10
41.2861
 20
14.69416
 30
0.0
 10
41.2813
 20
14.71251
 30
0.0
 10
41.27918
 20
14.73353
 30
0.0
  0
SPLINE
  5
A5
330
1F
100
AcDbEntity
  8
layer 1
 62
   250
370
     9
100
AcDbSpline
210
0.0
220
0.0
230
1.0
 70
    11
 71
     3
 72
    35
 73
    31
 74
     0
 42
0.0000000001
 43
0.0000000001
 40
0.0
 40
0.0
 40
0.0
 40
0.0
 40
0.1
 40
0.1
 40
0.1
 40
0.2
 40
0.2
 40
0.2
 40
0.3
 40
0.3
 40
0.3
 40
0.4
 40
0.4
 40
0.4
 40
0.5
 40
0.5
 40
0.5
 40
0.6000000000000001
 40
0.6000000000000001
 40
0.6000000000000001
 40
0.7000000000000001
 40
0.7000000000000001
 40
0.7000000000000001
 40
0.8
 40
0.8
 40
0.8
 40
0.9
 40
0.9
 40
0.9
 40
1.0
 40
1.0
 40
1.0
 40
1.0
 10
41.27325
 20
14.89863
 30
0.0
 10
41.24616
 20
14.88763
 30
0.0
 10
41.20552
 20
14.87831
 30
0.0
 10
41.15133
 20
14.87069
 30
0.0
 10
41.12057
 20
14.86632
 30
0.0
 10
41.09884
 20
14.86138
 30
0.0
 10
41.08614
 20
14.85588
 30
0.0
 10
41.07344
 20
14.85037
 30
0.0
 10
41.0637
 20
14.84233
 30
0.0
 10
41.05679
 20
14.83189
 30
0.0
 10
41.04987
 20
14.82131
 30
0.0
 10
41.04635
 20
14.80959
 30
0.0
 10
41.04635
 20
14.79661
 30
0.0
 10
41.04635
 20
14.777
 30
0.0
 10
41.05383
 20
14.76049
 30
0.0
 10
41.06892
 20
14.74736
 30
0.0
 10
41.08402
 20
14.73424
 30
0.0
 10
41.10604
 20
14.72761
 30
0.0
 10
41.13497
 20
14.72761
 30
0.0
 10
41.16361
 20
14.72761
 30
0.0
 10
41.18915
 20
14.73382
 30
0.0
 10
41.21159
 20
14.74637
 30
0.0
 10
41.23388
 20
14.75879
 30
0.0
 10
41.25039
 20
14.77587
 30
0.0
 10
41.26084
 20
14.79746
 30
0.0
 10
41.26888
 20
14.81425
 30
0.0
 10
41.27283
 20
14.83894
 30
0.0
 10
41.27283
 20
14.87154
 30
0.0
 10
41.27283
 20
14.87154
 30
0.0
 10
41.27325
 20
14.89863
 30
0.0
 10
41.27325
 20
14.89863
 30
0.0
  0
SPLINE
  5
A6
330
1F
100
AcDbEntity
  8
layer 1
 62
   250
370
     9
100
AcDbSpline
210
0.0
220
0.0
230
1.0
 70
    11
 71
     3
 72
    29
 73
    25
 74
     0
 42
0.0000000001
 43
0.0000000001
 40
0.0
 40
0.0
 40
0.0
 40
0.0
 40
0.125
 40
0.125
 40
0.125
 40
0.25
 40
0.25
 40
0.25
 40
0.375
 40
0.375
 40
0.375
 40
0.5
 40
0.5
 40
0.5
 40
0.625
 40
0.625
 40
0.625
 40
0.75
 40
0.75
 40
0.75
 40
0.875
 40
0.875
 40
0.875
 40
1.0
 40
1.0
 40
1.0
 40
1.0
 10
41.69828
 20
15.11792
 30
0.0
 10
41.69828
 20
15.11792
 30
0.0
 10
42.04541
 20
15.11792
 30
0.0
 10
42.04541
 20
15.11792
 30
0.0
 10
42.04541
 20
15.11792
 30
0.0
 10
42.04541
 20
14.6785
 30
0.0
 10
42.04541
 20
14.6785
 30
0.0
 10
42.04541
 20
14.6785
 30
0.0
 10
41.97091
 20
14.6785
 30
0.0
 10
41.97091
 20
14.6785
 30
0.0
 10
41.97091
 20
14.6785
 30
0.0
 10
41.97091
 20
15.05611
 30
0.0
 10
41.97091
 20
15.05611
 30
0.0
 10
41.97091
 20
15.05611
 30
0.0
 10
41.77279
 20
15.05611
 30
0.0
 10
41.77279
 20
15.05611
 30
0.0
 10
41.77279
 20
15.05611
 30
0.0
 10
41.77279
 20
14.6785
 30
0.0
 10
41.77279
 20
14.6785
 30
0.0
 10
41.77279
 20
14.6785
 30
0.0
 10
41.69828
 20
14.6785
 30
0.0
 10
41.69828
 20
14.6785
 30
0.0
 10
41.69828
 20
14.6785
 30
0.0
 10
41.69828
 20
15.11792
 30
0.0
 10
41.69828
 20
15.11792
 30
0.0
  0
SPLINE
  5
A7
330
1F
100
AcDbEntity
  8
layer 1
 62
   250
370
     9
100
AcDbSpline
210
0.0
220
0.0
230
1.0
 70
    11
 71
     3
 72
    86
 73
    82
 74
     0
 42
0.0000000001
 43
0.0000000001
 40
0.0
 40
0.0
 40
0.0
 40
0.0
 40
0.037037037037037
 40
0.037037037037037
 40
0.037037037037037
 40
0.0740740740740741
 40
0.0740740740740741
 40
0.0740740740740741
 40
0.1111111111111111
 40
0.1111111111111111
 40
0.1111111111111111
 40
0.1481481481481481
 40
0.1481481481481481
 40
0.1481481481481481
 40
0.1851851851851852
 40
0.1851851851851852
 40
0.1851851851851852
 40
0.2222222222222222
 40
0.2222222222222222
 40
0.2222222222222222
 40
0.2592592592592592
 40
0.2592592592592592
 40
0.2592592592592592
 40
0.2962962962962963
 40
0.2962962962962963
 40
0.2962962962962963
 40
0.3333333333333333
 40
0.3333333333333333
 40
0.3333333333333333
 40
0.3703703703703703
 40
0.3703703703703703
 40
0.3703703703703703
 40
0.4074074074074074
 40
0.4074074074074074
 40
0.4074074074074074
 40
0.4444444444444444
 40
0.4444444444444444
 40
0.4444444444444444
 40
0.4814814814814815
 40
0.4814814814814815
 40
0.4814814814814815
 40
0.5185185185185185
 40
0.5185185185185185
 40
0.5185185185185185
 40
0.5555555555555556
 40
0.5555555555555556
 40
0.5555555555555556
 40
0.5925925925925926
 40
0.5925925925925926
 40
0.5925925925925926
 40
0.6296296296296295
 40
0.6296296296296295
 40
0.6296296296296295
 40
0.6666666666666666
 40
0.6666666666666666
 40
0.6666666666666666
 40
0.7037037037037037
 40
0.7037037037037037
 40
0.7037037037037037
 40
0.7407407407407407
 40
0.7407407407407407
 40
0.7407407407407407
 40
0.7777777777777777
 40
0.7777777777777777
 40
0.7777777777777777
 40
0.8148148148148148
 40
0.8148148148148148
 40
0.8148148148148148
 40
0.8518518518518519
 40
0.8518518518518519
 40
0.8518518518518519
 40
0.8888888888888888
 40
0.8888888888888888
 40
0.8888888888888888
 40
0.9259259259259258
 40
0.9259259259259258
 40
0.9259259259259258
 40
0.9629629629629629
 40
0.9629629629629629
 40
0.9629629629629629
 40
1.0
 40
1.0
 40
1.0
 40
1.0
 10
42.44377
 20
14.73353
 30
0.0
 10
42.41611
 20
14.70997
 30
0.0
 10
42.38944
 20
14.69346
 30
0.0
 10
42.3639
 20
14.68372
 30
0.0
 10
42.33836
 20
14.67398
 30
0.0
 10
42.31099
 20
14.66919
 30
0.0
 10
42.28163
 20
14.66919
 30
0.0
 10
42.23337
 20
14.66919
 30
0.0
 10
42.19626
 20
14.6809
 30
0.0
 10
42.1703
 20
14.70446
 30
0.0
 10
42.14433
 20
14.72789
 30
0.0
 10
42.13135
 20
14.75795
 30
0.0
 10
42.13135
 20
14.79449
 30
0.0
 10
42.13135
 20
14.81594
 30
0.0
 10
42.13629
 20
14.83556
 30
0.0
 10
42.14603
 20
14.85334
 30
0.0
 10
42.1559
 20
14.87112
 30
0.0
 10
42.16874
 20
14.88523
 30
0.0
 10
42.18455
 20
14.89595
 30
0.0
 10
42.20049
 20
14.90668
 30
0.0
 10
42.21827
 20
14.91486
 30
0.0
 10
42.23817
 20
14.92037
 30
0.0
 10
42.25285
 20
14.92418
 30
0.0
 10
42.275
 20
14.92784
 30
0.0
 10
42.30449
 20
14.93151
 30
0.0
 10
42.36461
 20
14.93857
 30
0.0
 10
42.40906
 20
14.94718
 30
0.0
 10
42.43742
 20
14.95705
 30
0.0
 10
42.4377
 20
14.96721
 30
0.0
 10
42.43784
 20
14.97371
 30
0.0
 10
42.43784
 20
14.97639
 30
0.0
 10
42.43784
 20
15.00658
 30
0.0
 10
42.43079
 20
15.02789
 30
0.0
 10
42.41668
 20
15.04031
 30
0.0
 10
42.39763
 20
15.0571
 30
0.0
 10
42.36926
 20
15.06543
 30
0.0
 10
42.33173
 20
15.06543
 30
0.0
 10
42.29659
 20
15.06543
 30
0.0
 10
42.27063
 20
15.05922
 30
0.0
 10
42.25398
 20
15.04694
 30
0.0
 10
42.23718
 20
15.03467
 30
0.0
 10
42.22491
 20
15.01293
 30
0.0
 10
42.21686
 20
14.98161
 30
0.0
 10
42.21686
 20
14.98161
 30
0.0
 10
42.14405
 20
14.99177
 30
0.0
 10
42.14405
 20
14.99177
 30
0.0
 10
42.15068
 20
15.02295
 30
0.0
 10
42.16155
 20
15.04821
 30
0.0
 10
42.17679
 20
15.0674
 30
0.0
 10
42.19203
 20
15.08659
 30
0.0
 10
42.21404
 20
15.10127
 30
0.0
 10
42.24283
 20
15.11171
 30
0.0
 10
42.27147
 20
15.12201
 30
0.0
 10
42.30492
 20
15.12724
 30
0.0
 10
42.34274
 20
15.12724
 30
0.0
 10
42.38027
 20
15.12724
 30
0.0
 10
42.41089
 20
15.12286
 30
0.0
 10
42.43446
 20
15.11397
 30
0.0
 10
42.45788
 20
15.10508
 30
0.0
 10
42.47524
 20
15.09407
 30
0.0
 10
42.48625
 20
15.08067
 30
0.0
 10
42.49725
 20
15.06726
 30
0.0
 10
42.50501
 20
15.05033
 30
0.0
 10
42.50953
 20
15.02987
 30
0.0
 10
42.51193
 20
15.01717
 30
0.0
 10
42.5132
 20
14.99431
 30
0.0
 10
42.5132
 20
14.96143
 30
0.0
 10
42.5132
 20
14.96143
 30
0.0
 10
42.5132
 20
14.86265
 30
0.0
 10
42.5132
 20
14.86265
 30
0.0
 10
42.5132
 20
14.79365
 30
0.0
 10
42.51475
 20
14.75004
 30
0.0
 10
42.51785
 20
14.73156
 30
0.0
 10
42.52082
 20
14.71307
 30
0.0
 10
42.52703
 20
14.69543
 30
0.0
 10
42.53606
 20
14.6785
 30
0.0
 10
42.53606
 20
14.6785
 30
0.0
 10
42.45816
 20
14.6785
 30
0.0
 10
42.45816
 20
14.6785
 30
0.0
 10
42.45069
 20
14.69416
 30
0.0
 10
42.44589
 20
14.71251
 30
0.0
 10
42.44377
 20
14.73353
 30
0.0
  0
SPLINE
  5
A8
330
1F
100
AcDbEntity
  8
layer 1
 62
   250
370
     9
100
AcDbSpline
210
0.0
220
0.0
230
1.0
 70
    11
 71
     3
 72
    35
 73
    31
 74
     0
 42
0.0000000001
 43
0.0000000001
 40
0.0
 40
0.0
 40
0.0
 40
0.0
 40
0.1
 40
0.1
 40
0.1
 40
0.2
 40
0.2
 40
0.2
 40
0.3
 40
0.3
 40
0.3
 40
0.4
 40
0.4
 40
0.4
 40
0.5
 40
0.5
 40
0.5
 40
0.6000000000000001
 40
0.6000000000000001
 40
0.6000000000000001
 40
0.7000000000000001
 40
0.7000000000000001
 40
0.7000000000000001
 40
0.8
 40
0.8
 40
0.8
 40
0.9
 40
0.9
 40
0.9
 40
1.0
 40
1.0
 40
1.0
 40
1.0
 10
42.43784
 20
14.89863
 30
0.0
 10
42.41075
 20
14.88763
 30
0.0
 10
42.37011
 20
14.87831
 30
0.0
 10
42.31592
 20
14.87069
 30
0.0
 10
42.28516
 20
14.86632
 30
0.0
 10
42.26343
 20
14.86138
 30
0.0
 10
42.25073
 20
14.85588
 30
0.0
 10
42.23803
 20
14.85037
 30
0.0
 10
42.22829
 20
14.84233
 30
0.0
 10
42.22138
 20
14.83189
 30
0.0
 10
42.21446
 20
14.82131
 30
0.0
 10
42.21094
 20
14.80959
 30
0.0
 10
42.21094
 20
14.79661
 30
0.0
 10
42.21094
 20
14.777
 30
0.0
 10
42.21842
 20
14.76049
 30
0.0
 10
42.23351
 20
14.74736
 30
0.0
 10
42.24861
 20
14.73424
 30
0.0
 10
42.27063
 20
14.72761
 30
0.0
 10
42.29956
 20
14.72761
 30
0.0
 10
42.3282
 20
14.72761
 30
0.0
 10
42.35374
 20
14.73382
 30
0.0
 10
42.37618
 20
14.74637
 30
0.0
 10
42.39847
 20
14.75879
 30
0.0
 10
42.41498
 20
14.77587
 30
0.0
 10
42.42543
 20
14.79746
 30
0.0
 10
42.43347
 20
14.81425
 30
0.0
 10
42.43742
 20
14.83894
 30
0.0
 10
42.43742
 20
14.87154
 30
0.0
 10
42.43742
 20
14.87154
 30
0.0
 10
42.43784
 20
14.89863
 30
0.0
 10
42.43784
 20
14.89863
 30
0.0
  0
SPLINE
  5
A9
330
1F
100
AcDbEntity
  8
layer 1
 62
   250
370
     9
100
AcDbSpline
210
0.0
220
0.0
230
1.0
 70
    11
 71
     3
 72
    83
 73
    79
 74
     0
 42
0.0000000001
 43
0.0000000001
 40
0.0
 40
0.0
 40
0.0
 40
0.0
 40
0.0384615384615385
 40
0.0384615384615385
 40
0.0384615384615385
 40
0.0769230769230769
 40
0.0769230769230769
 40
0.0769230769230769
 40
0.1153846153846154
 40
0.1153846153846154
 40
0.1153846153846154
 40
0.1538461538461539
 40
0.1538461538461539
 40
0.1538461538461539
 40
0.1923076923076923
 40
0.1923076923076923
 40
0.1923076923076923
 40
0.2307692307692308
 40
0.2307692307692308
 40
0.2307692307692308
 40
0.2692307692307693
 40
0.2692307692307693
 40
0.2692307692307693
 40
0.3076923076923077
 40
0.3076923076923077
 40
0.3076923076923077
 40
0.3461538461538461
 40
0.3461538461538461
 40
0.3461538461538461
 40
0.3846153846153846
 40
0.3846153846153846
 40
0.3846153846153846
 40
0.4230769230769231
 40
0.4230769230769231
 40
0.4230769230769231
 40
0.4615384615384616
 40
0.4615384615384616
 40
0.4615384615384616
 40
0.5
 40
0.5
 40
0.5
 40
0.5384615384615385
 40
0.5384615384615385
 40
0.5384615384615385
 40
0.576923076923077
 40
0.576923076923077
 40
0.576923076923077
 40
0.6153846153846154
 40
0.6153846153846154
 40
0.6153846153846154
 40
0.6538461538461539
 40
0.6538461538461539
 40
0.6538461538461539
 40
0.6923076923076923
 40
0.6923076923076923
 40
0.6923076923076923
 40
0.7307692307692308
 40
0.7307692307692308
 40
0.7307692307692308
 40
0.7692307692307693
 40
0.7692307692307693
 40
0.7692307692307693
 40
0.8076923076923077
 40
0.8076923076923077
 40
0.8076923076923077
 40
0.8461538461538463
 40
0.8461538461538463
 40
0.8461538461538463
 40
0.8846153846153847
 40
0.8846153846153847
 40
0.8846153846153847
 40
0.9230769230769231
 40
0.9230769230769231
 40
0.9230769230769231
 40
0.9615384615384616
 40
0.9615384615384616
 40
0.9615384615384616
 40
1.0
 40
1.0
 40
1.0
 40
1.0
 10
42.71556
 20
14.87747
 30
0.0
 10
42.71556
 20
14.87747
 30
0.0
 10
42.71556
 20
14.93589
 30
0.0
 10
42.71556
 20
14.93589
 30
0.0
 10
42.74688
 20
14.93617
 30
0.0
 10
42.76833
 20
14.93744
 30
0.0
 10
42.77962
 20
14.93956
 30
0.0
 10
42.79105
 20
14.94181
 30
0.0
 10
42.80192
 20
14.94831
 30
0.0
 10
42.81208
 20
14.95931
 30
0.0
 10
42.82224
 20
14.97032
 30
0.0
 10
42.82732
 20
14.98401
 30
0.0
 10
42.82732
 20
15.00052
 30
0.0
 10
42.82732
 20
15.02041
 30
0.0
 10
42.82069
 20
15.0365
 30
0.0
 10
42.80728
 20
15.04835
 30
0.0
 10
42.79387
 20
15.06035
 30
0.0
 10
42.77666
 20
15.06627
 30
0.0
 10
42.75535
 20
15.06627
 30
0.0
 10
42.71344
 20
15.06627
 30
0.0
 10
42.68409
 20
15.04172
 30
0.0
 10
42.6673
 20
14.99261
 30
0.0
 10
42.6673
 20
14.99261
 30
0.0
 10
42.59618
 20
15.00447
 30
0.0
 10
42.59618
 20
15.00447
 30
0.0
 10
42.61819
 20
15.08631
 30
0.0
 10
42.67153
 20
15.12724
 30
0.0
 10
42.75592
 20
15.12724
 30
0.0
 10
42.80276
 20
15.12724
 30
0.0
 10
42.83945
 20
15.11454
 30
0.0
 10
42.86612
 20
15.08899
 30
0.0
 10
42.89279
 20
15.06345
 30
0.0
 10
42.90606
 20
15.03297
 30
0.0
 10
42.90606
 20
14.99755
 30
0.0
 10
42.90606
 20
14.96185
 30
0.0
 10
42.8887
 20
14.93335
 30
0.0
 10
42.85413
 20
14.91232
 30
0.0
 10
42.87628
 20
14.90047
 30
0.0
 10
42.89279
 20
14.88537
 30
0.0
 10
42.90394
 20
14.86703
 30
0.0
 10
42.91495
 20
14.84868
 30
0.0
 10
42.92045
 20
14.82695
 30
0.0
 10
42.92045
 20
14.80183
 30
0.0
 10
42.92045
 20
14.76246
 30
0.0
 10
42.90606
 20
14.73057
 30
0.0
 10
42.87741
 20
14.70602
 30
0.0
 10
42.84863
 20
14.68146
 30
0.0
 10
42.80855
 20
14.66919
 30
0.0
 10
42.7569
 20
14.66919
 30
0.0
 10
42.65671
 20
14.66919
 30
0.0
 10
42.59858
 20
14.7135
 30
0.0
 10
42.58263
 20
14.80211
 30
0.0
 10
42.58263
 20
14.80211
 30
0.0
 10
42.6529
 20
14.81735
 30
0.0
 10
42.6529
 20
14.81735
 30
0.0
 10
42.65925
 20
14.78941
 30
0.0
 10
42.67209
 20
14.76768
 30
0.0
 10
42.69157
 20
14.7523
 30
0.0
 10
42.71104
 20
14.73692
 30
0.0
 10
42.7332
 20
14.7293
 30
0.0
 10
42.75831
 20
14.7293
 30
0.0
 10
42.78343
 20
14.7293
 30
0.0
 10
42.80432
 20
14.73636
 30
0.0
 10
42.82097
 20
14.75061
 30
0.0
 10
42.83762
 20
14.76472
 30
0.0
 10
42.84594
 20
14.78278
 30
0.0
 10
42.84594
 20
14.80479
 30
0.0
 10
42.84594
 20
14.82187
 30
0.0
 10
42.84072
 20
14.83669
 30
0.0
 10
42.83028
 20
14.84939
 30
0.0
 10
42.81984
 20
14.86209
 30
0.0
 10
42.80869
 20
14.86999
 30
0.0
 10
42.79684
 20
14.87309
 30
0.0
 10
42.78498
 20
14.87634
 30
0.0
 10
42.76354
 20
14.87789
 30
0.0
 10
42.73249
 20
14.87789
 30
0.0
 10
42.72995
 20
14.87789
 30
0.0
 10
42.72431
 20
14.87775
 30
0.0
 10
42.71556
 20
14.87747
 30
0.0
  0
SPLINE
  5
AA
330
1F
100
AcDbEntity
  8
layer 1
 62
   250
370
     9
100
AcDbSpline
210
0.0
220
0.0
230
1.0
 70
    11
 71
     3
 72
    32
 73
    28
 74
     0
 42
0.0000000001
 43
0.0000000001
 40
0.0
 40
0.0
 40
0.0
 40
0.0
 40
0.1111111111111111
 40
0.1111111111111111
 40
0.1111111111111111
 40
0.2222222222222222
 40
0.2222222222222222
 40
0.2222222222222222
 40
0.3333333333333333
 40
0.3333333333333333
 40
0.3333333333333333
 40
0.4444444444444444
 40
0.4444444444444444
 40
0.4444444444444444
 40
0.5555555555555556
 40
0.5555555555555556
 40
0.5555555555555556
 40
0.6666666666666666
 40
0.6666666666666666
 40
0.6666666666666666
 40
0.7777777777777777
 40
0.7777777777777777
 40
0.7777777777777777
 40
0.8888888888888888
 40
0.8888888888888888
 40
0.8888888888888888
 40
1.0
 40
1.0
 40
1.0
 40
1.0
 10
42.969
 20
14.89821
 30
0.0
 10
42.969
 20
14.97935
 30
0.0
 10
42.99158
 20
15.03946
 30
0.0
 10
43.03687
 20
15.07855
 30
0.0
 10
43.07455
 20
15.11101
 30
0.0
 10
43.1207
 20
15.12724
 30
0.0
 10
43.17502
 20
15.12724
 30
0.0
 10
43.23528
 20
15.12724
 30
0.0
 10
43.28467
 20
15.10748
 30
0.0
 10
43.32305
 20
15.06797
 30
0.0
 10
43.36129
 20
15.0286
 30
0.0
 10
43.38048
 20
14.97399
 30
0.0
 10
43.38048
 20
14.90442
 30
0.0
 10
43.38048
 20
14.84798
 30
0.0
 10
43.37202
 20
14.80367
 30
0.0
 10
43.35508
 20
14.77135
 30
0.0
 10
43.33815
 20
14.73904
 30
0.0
 10
43.31345
 20
14.71392
 30
0.0
 10
43.281
 20
14.696
 30
0.0
 10
43.24868
 20
14.67808
 30
0.0
 10
43.21326
 20
14.66919
 30
0.0
 10
43.17502
 20
14.66919
 30
0.0
 10
43.1135
 20
14.66919
 30
0.0
 10
43.06383
 20
14.6888
 30
0.0
 10
43.02587
 20
14.72817
 30
0.0
 10
42.98791
 20
14.76754
 30
0.0
 10
42.969
 20
14.82427
 30
0.0
 10
42.969
 20
14.89821
 30
0.0
  0
SPLINE
  5
AB
330
1F
100
AcDbEntity
  8
layer 1
 62
   250
370
     9
100
AcDbSpline
210
0.0
220
0.0
230
1.0
 70
    11
 71
     3
 72
    29
 73
    25
 74
     0
 42
0.0000000001
 43
0.0000000001
 40
0.0
 40
0.0
 40
0.0
 40
0.0
 40
0.125
 40
0.125
 40
0.125
 40
0.25
 40
0.25
 40
0.25
 40
0.375
 40
0.375
 40
0.375
 40
0.5
 40
0.5
 40
0.5
 40
0.625
 40
0.625
 40
0.625
 40
0.75
 40
0.75
 40
0.75
 40
0.875
 40
0.875
 40
0.875
 40
1.0
 40
1.0
 40
1.0
 40
1.0
 10
43.0452
 20
14.89807
 30
0.0
 10
43.0452
 20
14.84191
 30
0.0
 10
43.05748
 20
14.79986
 30
0.0
 10
43.08203
 20
14.77206
 30
0.0
 10
43.10673
 20
14.74412
 30
0.0
 10
43.13763
 20
14.73015
 30
0.0
 10
43.17502
 20
14.73015
 30
0.0
 10
43.21199
 20
14.73015
 30
0.0
 10
43.24276
 20
14.74412
 30
0.0
 10
43.26745
 20
14.7722
 30
0.0
 10
43.292
 20
14.80028
 30
0.0
 10
43.30428
 20
14.84304
 30
0.0
 10
43.30428
 20
14.90047
 30
0.0
 10
43.30428
 20
14.95466
 30
0.0
 10
43.29186
 20
14.99572
 30
0.0
 10
43.26717
 20
15.02352
 30
0.0
 10
43.24247
 20
15.05146
 30
0.0
 10
43.21171
 20
15.06543
 30
0.0
 10
43.17502
 20
15.06543
 30
0.0
 10
43.13763
 20
15.06543
 30
0.0
 10
43.10673
 20
15.0516
 30
0.0
 10
43.08203
 20
15.0238
 30
0.0
 10
43.05748
 20
14.996
 30
0.0
 10
43.0452
 20
14.95409
 30
0.0
 10
43.0452
 20
14.89807
 30
0.0
  0
SPLINE
  5
AC
330
1F
100
AcDbEntity
  8
layer 1
 62
   250
370
     9
100
AcDbSpline
210
0.0
220
0.0
230
1.0
 70
    11
 71
     3
 72
    41
 73
    37
 74
     0
 42
0.0000000001
 43
0.0000000001
 40
0.0
 40
0.0
 40
0.0
 40
0.0
 40
0.0833333333333333
 40
0.0833333333333333
 40
0.0833333333333333
 40
0.1666666666666667
 40
0.1666666666666667
 40
0.1666666666666667
 40
0.25
 40
0.25
 40
0.25
 40
0.3333333333333333
 40
0.3333333333333333
 40
0.3333333333333333
 40
0.4166666666666666
 40
0.4166666666666666
 40
0.4166666666666666
 40
0.5
 40
0.5
 40
0.5
 40
0.5833333333333333
 40
0.5833333333333333
 40
0.5833333333333333
 40
0.6666666666666666
 40
0.6666666666666666
 40
0.6666666666666666
 40
0.75
 40
0.75
 40
0.75
 40
0.8333333333333333
 40
0.8333333333333333
 40
0.8333333333333333
 40
0.9166666666666666
 40
0.9166666666666666
 40
0.9166666666666666
 40
1.0
 40
1.0
 40
1.0
 40
1.0
 10
43.46783
 20
15.11792
 30
0.0
 10
43.46783
 20
15.11792
 30
0.0
 10
43.63928
 20
15.11792
 30
0.0
 10
43.63928
 20
15.11792
 30
0.0
 10
43.68133
 20
15.11792
 30
0.0
 10
43.71266
 20
15.11439
 30
0.0
 10
43.73326
 20
15.10734
 30
0.0
 10
43.75372
 20
15.10028
 30
0.0
 10
43.77136
 20
15.08744
 30
0.0
 10
43.78604
 20
15.06867
 30
0.0
 10
43.80085
 20
15.04976
 30
0.0
 10
43.80819
 20
15.02733
 30
0.0
 10
43.80819
 20
15.00108
 30
0.0
 10
43.80819
 20
14.98006
 30
0.0
 10
43.80382
 20
14.96171
 30
0.0
 10
43.79521
 20
14.94619
 30
0.0
 10
43.78646
 20
14.93053
 30
0.0
 10
43.77348
 20
14.9174
 30
0.0
 10
43.75598
 20
14.90696
 30
0.0
 10
43.77658
 20
14.90005
 30
0.0
 10
43.79366
 20
14.8872
 30
0.0
 10
43.80734
 20
14.8683
 30
0.0
 10
43.82089
 20
14.84953
 30
0.0
 10
43.82766
 20
14.82709
 30
0.0
 10
43.82766
 20
14.80127
 30
0.0
 10
43.82498
 20
14.75964
 30
0.0
 10
43.81003
 20
14.72874
 30
0.0
 10
43.78307
 20
14.7087
 30
0.0
 10
43.75612
 20
14.68852
 30
0.0
 10
43.71689
 20
14.6785
 30
0.0
 10
43.66553
 20
14.6785
 30
0.0
 10
43.66553
 20
14.6785
 30
0.0
 10
43.46783
 20
14.6785
 30
0.0
 10
43.46783
 20
14.6785
 30
0.0
 10
43.46783
 20
14.6785
 30
0.0
 10
43.46783
 20
15.11792
 30
0.0
 10
43.46783
 20
15.11792
 30
0.0
  0
SPLINE
  5
AD
330
1F
100
AcDbEntity
  8
layer 1
 62
   250
370
     9
100
AcDbSpline
210
0.0
220
0.0
230
1.0
 70
    11
 71
     3
 72
    29
 73
    25
 74
     0
 42
0.0000000001
 43
0.0000000001
 40
0.0
 40
0.0
 40
0.0
 40
0.0
 40
0.125
 40
0.125
 40
0.125
 40
0.25
 40
0.25
 40
0.25
 40
0.375
 40
0.375
 40
0.375
 40
0.5
 40
0.5
 40
0.5
 40
0.625
 40
0.625
 40
0.625
 40
0.75
 40
0.75
 40
0.75
 40
0.875
 40
0.875
 40
0.875
 40
1.0
 40
1.0
 40
1.0
 40
1.0
 10
43.54234
 20
14.9325
 30
0.0
 10
43.54234
 20
14.9325
 30
0.0
 10
43.62136
 20
14.9325
 30
0.0
 10
43.62136
 20
14.9325
 30
0.0
 10
43.65283
 20
14.9325
 30
0.0
 10
43.67456
 20
14.93419
 30
0.0
 10
43.68627
 20
14.93744
 30
0.0
 10
43.69812
 20
14.94083
 30
0.0
 10
43.70871
 20
14.94746
 30
0.0
 10
43.71802
 20
14.95762
 30
0.0
 10
43.72733
 20
14.96764
 30
0.0
 10
43.73199
 20
14.97977
 30
0.0
 10
43.73199
 20
14.99388
 30
0.0
 10
43.73199
 20
15.01717
 30
0.0
 10
43.72381
 20
15.03325
 30
0.0
 10
43.70758
 20
15.04243
 30
0.0
 10
43.69121
 20
15.0516
 30
0.0
 10
43.66327
 20
15.05611
 30
0.0
 10
43.62376
 20
15.05611
 30
0.0
 10
43.62376
 20
15.05611
 30
0.0
 10
43.54234
 20
15.05611
 30
0.0
 10
43.54234
 20
15.05611
 30
0.0
 10
43.54234
 20
15.05611
 30
0.0
 10
43.54234
 20
14.9325
 30
0.0
 10
43.54234
 20
14.9325
 30
0.0
  0
SPLINE
  5
AE
330
1F
100
AcDbEntity
  8
layer 1
 62
   250
370
     9
100
AcDbSpline
210
0.0
220
0.0
230
1.0
 70
    11
 71
     3
 72
    29
 73
    25
 74
     0
 42
0.0000000001
 43
0.0000000001
 40
0.0
 40
0.0
 40
0.0
 40
0.0
 40
0.125
 40
0.125
 40
0.125
 40
0.25
 40
0.25
 40
0.25
 40
0.375
 40
0.375
 40
0.375
 40
0.5
 40
0.5
 40
0.5
 40
0.625
 40
0.625
 40
0.625
 40
0.75
 40
0.75
 40
0.75
 40
0.875
 40
0.875
 40
0.875
 40
1.0
 40
1.0
 40
1.0
 40
1.0
 10
43.54234
 20
14.73946
 30
0.0
 10
43.54234
 20
14.73946
 30
0.0
 10
43.64013
 20
14.73946
 30
0.0
 10
43.64013
 20
14.73946
 30
0.0
 10
43.68218
 20
14.73946
 30
0.0
 10
43.71111
 20
14.7444
 30
0.0
 10
43.72677
 20
14.75414
 30
0.0
 10
43.74243
 20
14.76401
 30
0.0
 10
43.75062
 20
14.78081
 30
0.0
 10
43.75146
 20
14.80494
 30
0.0
 10
43.75146
 20
14.81891
 30
0.0
 10
43.74695
 20
14.83203
 30
0.0
 10
43.73792
 20
14.84402
 30
0.0
 10
43.72875
 20
14.85602
 30
0.0
 10
43.71689
 20
14.86364
 30
0.0
 10
43.70236
 20
14.86674
 30
0.0
 10
43.68782
 20
14.86999
 30
0.0
 10
43.6644
 20
14.87154
 30
0.0
 10
43.63223
 20
14.87154
 30
0.0
 10
43.63223
 20
14.87154
 30
0.0
 10
43.54234
 20
14.87154
 30
0.0
 10
43.54234
 20
14.87154
 30
0.0
 10
43.54234
 20
14.87154
 30
0.0
 10
43.54234
 20
14.73946
 30
0.0
 10
43.54234
 20
14.73946
 30
0.0
  0
SPLINE
  5
AF
330
1F
100
AcDbEntity
  8
layer 1
 62
   250
370
     9
100
AcDbSpline
210
0.0
220
0.0
230
1.0
 70
    11
 71
     3
 72
    32
 73
    28
 74
     0
 42
0.0000000001
 43
0.0000000001
 40
0.0
 40
0.0
 40
0.0
 40
0.0
 40
0.1111111111111111
 40
0.1111111111111111
 40
0.1111111111111111
 40
0.2222222222222222
 40
0.2222222222222222
 40
0.2222222222222222
 40
0.3333333333333333
 40
0.3333333333333333
 40
0.3333333333333333
 40
0.4444444444444444
 40
0.4444444444444444
 40
0.4444444444444444
 40
0.5555555555555556
 40
0.5555555555555556
 40
0.5555555555555556
 40
0.6666666666666666
 40
0.6666666666666666
 40
0.6666666666666666
 40
0.7777777777777777
 40
0.7777777777777777
 40
0.7777777777777777
 40
0.8888888888888888
 40
0.8888888888888888
 40
0.8888888888888888
 40
1.0
 40
1.0
 40
1.0
 40
1.0
 10
44.412
 20
14.6785
 30
0.0
 10
44.412
 20
14.6785
 30
0.0
 10
44.33749
 20
14.6785
 30
0.0
 10
44.33749
 20
14.6785
 30
0.0
 10
44.33749
 20
14.6785
 30
0.0
 10
44.33749
 20
15.15292
 30
0.0
 10
44.33749
 20
15.15292
 30
0.0
 10
44.31957
 20
15.1357
 30
0.0
 10
44.29601
 20
15.11863
 30
0.0
 10
44.26694
 20
15.10155
 30
0.0
 10
44.23787
 20
15.08448
 30
0.0
 10
44.21162
 20
15.07164
 30
0.0
 10
44.18848
 20
15.06317
 30
0.0
 10
44.18848
 20
15.06317
 30
0.0
 10
44.18848
 20
15.13514
 30
0.0
 10
44.18848
 20
15.13514
 30
0.0
 10
44.23011
 20
15.15461
 30
0.0
 10
44.26652
 20
15.17832
 30
0.0
 10
44.2977
 20
15.20626
 30
0.0
 10
44.32889
 20
15.23406
 30
0.0
 10
44.35104
 20
15.26101
 30
0.0
 10
44.36402
 20
15.28726
 30
0.0
 10
44.36402
 20
15.28726
 30
0.0
 10
44.412
 20
15.28726
 30
0.0
 10
44.412
 20
15.28726
 30
0.0
 10
44.412
 20
15.28726
 30
0.0
 10
44.412
 20
14.6785
 30
0.0
 10
44.412
 20
14.6785
 30
0.0
  0
SPLINE
  5
B0
330
1F
100
AcDbEntity
  8
layer 1
 62
   250
370
     9
100
AcDbSpline
210
0.0
220
0.0
230
1.0
 70
    11
 71
     3
 72
    32
 73
    28
 74
     0
 42
0.0000000001
 43
0.0000000001
 40
0.0
 40
0.0
 40
0.0
 40
0.0
 40
0.1111111111111111
 40
0.1111111111111111
 40
0.1111111111111111
 40
0.2222222222222222
 40
0.2222222222222222
 40
0.2222222222222222
 40
0.3333333333333333
 40
0.3333333333333333
 40
0.3333333333333333
 40
0.4444444444444444
 40
0.4444444444444444
 40
0.4444444444444444
 40
0.5555555555555556
 40
0.5555555555555556
 40
0.5555555555555556
 40
0.6666666666666666
 40
0.6666666666666666
 40
0.6666666666666666
 40
0.7777777777777777
 40
0.7777777777777777
 40
0.7777777777777777
 40
0.8888888888888888
 40
0.8888888888888888
 40
0.8888888888888888
 40
1.0
 40
1.0
 40
1.0
 40
1.0
 10
44.64328
 20
14.6785
 30
0.0
 10
44.64328
 20
14.6785
 30
0.0
 10
44.64328
 20
14.76317
 30
0.0
 10
44.64328
 20
14.76317
 30
0.0
 10
44.64328
 20
14.76317
 30
0.0
 10
44.72795
 20
14.76317
 30
0.0
 10
44.72795
 20
14.76317
 30
0.0
 10
44.72795
 20
14.76317
 30
0.0
 10
44.72795
 20
14.6785
 30
0.0
 10
44.72795
 20
14.6785
 30
0.0
 10
44.72795
 20
14.64731
 30
0.0
 10
44.72245
 20
14.62206
 30
0.0
 10
44.7113
 20
14.60286
 30
0.0
 10
44.70029
 20
14.58367
 30
0.0
 10
44.68265
 20
14.56872
 30
0.0
 10
44.65852
 20
14.55827
 30
0.0
 10
44.65852
 20
14.55827
 30
0.0
 10
44.6382
 20
14.59045
 30
0.0
 10
44.6382
 20
14.59045
 30
0.0
 10
44.65401
 20
14.59736
 30
0.0
 10
44.66558
 20
14.60752
 30
0.0
 10
44.67292
 20
14.62079
 30
0.0
 10
44.6804
 20
14.63419
 30
0.0
 10
44.68463
 20
14.65338
 30
0.0
 10
44.68548
 20
14.6785
 30
0.0
 10
44.68548
 20
14.6785
 30
0.0
 10
44.64328
 20
14.6785
 30
0.0
 10
44.64328
 20
14.6785
 30
0.0
  0
SPLINE
  5
B1
330
1F
100
AcDbEntity
  8
layer 1
 62
   250
370
     9
100
AcDbSpline
210
0.0
220
0.0
230
1.0
 70
    11
 71
     3
 72
    71
 73
    67
 74
     0
 42
0.0000000001
 43
0.0000000001
 40
0.0
 40
0.0
 40
0.0
 40
0.0
 40
0.0454545454545455
 40
0.0454545454545455
 40
0.0454545454545455
 40
0.0909090909090909
 40
0.0909090909090909
 40
0.0909090909090909
 40
0.1363636363636364
 40
0.1363636363636364
 40
0.1363636363636364
 40
0.1818181818181818
 40
0.1818181818181818
 40
0.1818181818181818
 40
0.2272727272727273
 40
0.2272727272727273
 40
0.2272727272727273
 40
0.2727272727272727
 40
0.2727272727272727
 40
0.2727272727272727
 40
0.3181818181818182
 40
0.3181818181818182
 40
0.3181818181818182
 40
0.3636363636363636
 40
0.3636363636363636
 40
0.3636363636363636
 40
0.4090909090909091
 40
0.4090909090909091
 40
0.4090909090909091
 40
0.4545454545454546
 40
0.4545454545454546
 40
0.4545454545454546
 40
0.5
 40
0.5
 40
0.5
 40
0.5454545454545454
 40
0.5454545454545454
 40
0.5454545454545454
 40
0.5909090909090909
 40
0.5909090909090909
 40
0.5909090909090909
 40
0.6363636363636364
 40
0.6363636363636364
 40
0.6363636363636364
 40
0.6818181818181819
 40
0.6818181818181819
 40
0.6818181818181819
 40
0.7272727272727273
 40
0.7272727272727273
 40
0.7272727272727273
 40
0.7727272727272727
 40
0.7727272727272727
 40
0.7727272727272727
 40
0.8181818181818182
 40
0.8181818181818182
 40
0.8181818181818182
 40
0.8636363636363636
 40
0.8636363636363636
 40
0.8636363636363636
 40
0.9090909090909092
 40
0.9090909090909092
 40
0.9090909090909092
 40
0.9545454545454546
 40
0.9545454545454546
 40
0.9545454545454546
 40
1.0
 40
1.0
 40
1.0
 40
1.0
 10
44.83872
 20
14.83767
 30
0.0
 10
44.83872
 20
14.83767
 30
0.0
 10
44.91661
 20
14.8436
 30
0.0
 10
44.91661
 20
14.8436
 30
0.0
 10
44.9224
 20
14.80564
 30
0.0
 10
44.9358
 20
14.77714
 30
0.0
 10
44.95669
 20
14.75795
 30
0.0
 10
44.97757
 20
14.7389
 30
0.0
 10
45.00312
 20
14.7293
 30
0.0
 10
45.03317
 20
14.7293
 30
0.0
 10
45.06944
 20
14.7293
 30
0.0
 10
45.09978
 20
14.74285
 30
0.0
 10
45.12447
 20
14.7698
 30
0.0
 10
45.14902
 20
14.79689
 30
0.0
 10
45.1613
 20
14.83274
 30
0.0
 10
45.1613
 20
14.87733
 30
0.0
 10
45.1613
 20
14.9198
 30
0.0
 10
45.14959
 20
14.95324
 30
0.0
 10
45.12602
 20
14.9778
 30
0.0
 10
45.10246
 20
15.00235
 30
0.0
 10
45.07127
 20
15.01463
 30
0.0
 10
45.03247
 20
15.01463
 30
0.0
 10
45.00834
 20
15.01463
 30
0.0
 10
44.98675
 20
15.00912
 30
0.0
 10
44.96756
 20
14.99812
 30
0.0
 10
44.94851
 20
14.98711
 30
0.0
 10
44.93355
 20
14.97286
 30
0.0
 10
44.92254
 20
14.95536
 30
0.0
 10
44.92254
 20
14.95536
 30
0.0
 10
44.85227
 20
14.96552
 30
0.0
 10
44.85227
 20
14.96552
 30
0.0
 10
44.85227
 20
14.96552
 30
0.0
 10
44.91069
 20
15.2771
 30
0.0
 10
44.91069
 20
15.2771
 30
0.0
 10
44.91069
 20
15.2771
 30
0.0
 10
45.21125
 20
15.2771
 30
0.0
 10
45.21125
 20
15.2771
 30
0.0
 10
45.21125
 20
15.2771
 30
0.0
 10
45.21125
 20
15.20598
 30
0.0
 10
45.21125
 20
15.20598
 30
0.0
 10
45.21125
 20
15.20598
 30
0.0
 10
44.9701
 20
15.20598
 30
0.0
 10
44.9701
 20
15.20598
 30
0.0
 10
44.9701
 20
15.20598
 30
0.0
 10
44.93778
 20
15.04243
 30
0.0
 10
44.93778
 20
15.04243
 30
0.0
 10
44.97405
 20
15.06797
 30
0.0
 10
45.01215
 20
15.08067
 30
0.0
 10
45.05194
 20
15.08067
 30
0.0
 10
45.10472
 20
15.08067
 30
0.0
 10
45.14931
 20
15.06232
 30
0.0
 10
45.18557
 20
15.02563
 30
0.0
 10
45.22184
 20
14.98895
 30
0.0
 10
45.24004
 20
14.94181
 30
0.0
 10
45.24004
 20
14.88424
 30
0.0
 10
45.24004
 20
14.82935
 30
0.0
 10
45.2241
 20
14.78193
 30
0.0
 10
45.1922
 20
14.742
 30
0.0
 10
45.1534
 20
14.69289
 30
0.0
 10
45.10034
 20
14.66834
 30
0.0
 10
45.03317
 20
14.66834
 30
0.0
 10
44.97814
 20
14.66834
 30
0.0
 10
44.93326
 20
14.68386
 30
0.0
 10
44.89841
 20
14.71477
 30
0.0
 10
44.86356
 20
14.74567
 30
0.0
 10
44.84366
 20
14.78659
 30
0.0
 10
44.83872
 20
14.83767
 30
0.0
  0
SPLINE
  5
B2
330
1F
100
AcDbEntity
  8
layer 1
 62
   250
370
     9
100
AcDbSpline
210
0.0
220
0.0
230
1.0
 70
    11
 71
     3
 72
    44
 73
    40
 74
     0
 42
0.0000000001
 43
0.0000000001
 40
0.0
 40
0.0
 40
0.0
 40
0.0
 40
0.0769230769230769
 40
0.0769230769230769
 40
0.0769230769230769
 40
0.1538461538461539
 40
0.1538461538461539
 40
0.1538461538461539
 40
0.2307692307692308
 40
0.2307692307692308
 40
0.2307692307692308
 40
0.3076923076923077
 40
0.3076923076923077
 40
0.3076923076923077
 40
0.3846153846153846
 40
0.3846153846153846
 40
0.3846153846153846
 40
0.4615384615384616
 40
0.4615384615384616
 40
0.4615384615384616
 40
0.5384615384615385
 40
0.5384615384615385
 40
0.5384615384615385
 40
0.6153846153846154
 40
0.6153846153846154
 40
0.6153846153846154
 40
0.6923076923076923
 40
0.6923076923076923
 40
0.6923076923076923
 40
0.7692307692307693
 40
0.7692307692307693
 40
0.7692307692307693
 40
0.8461538461538463
 40
0.8461538461538463
 40
0.8461538461538463
 40
0.9230769230769231
 40
0.9230769230769231
 40
0.9230769230769231
 40
1.0
 40
1.0
 40
1.0
 40
1.0
 10
45.33247
 20
15.11792
 30
0.0
 10
45.33247
 20
15.11792
 30
0.0
 10
45.44705
 20
15.11792
 30
0.0
 10
45.44705
 20
15.11792
 30
0.0
 10
45.44705
 20
15.11792
 30
0.0
 10
45.56319
 20
14.76627
 30
0.0
 10
45.56319
 20
14.76627
 30
0.0
 10
45.56319
 20
14.76627
 30
0.0
 10
45.69174
 20
15.11792
 30
0.0
 10
45.69174
 20
15.11792
 30
0.0
 10
45.69174
 20
15.11792
 30
0.0
 10
45.79814
 20
15.11792
 30
0.0
 10
45.79814
 20
15.11792
 30
0.0
 10
45.79814
 20
15.11792
 30
0.0
 10
45.79814
 20
14.6785
 30
0.0
 10
45.79814
 20
14.6785
 30
0.0
 10
45.79814
 20
14.6785
 30
0.0
 10
45.72363
 20
14.6785
 30
0.0
 10
45.72363
 20
14.6785
 30
0.0
 10
45.72363
 20
14.6785
 30
0.0
 10
45.72363
 20
15.03227
 30
0.0
 10
45.72363
 20
15.03227
 30
0.0
 10
45.72363
 20
15.03227
 30
0.0
 10
45.59423
 20
14.6785
 30
0.0
 10
45.59423
 20
14.6785
 30
0.0
 10
45.59423
 20
14.6785
 30
0.0
 10
45.52763
 20
14.6785
 30
0.0
 10
45.52763
 20
14.6785
 30
0.0
 10
45.52763
 20
14.6785
 30
0.0
 10
45.40528
 20
15.0492
 30
0.0
 10
45.40528
 20
15.0492
 30
0.0
 10
45.40528
 20
15.0492
 30
0.0
 10
45.40528
 20
14.6785
 30
0.0
 10
45.40528
 20
14.6785
 30
0.0
 10
45.40528
 20
14.6785
 30
0.0
 10
45.33247
 20
14.6785
 30
0.0
 10
45.33247
 20
14.6785
 30
0.0
 10
45.33247
 20
14.6785
 30
0.0
 10
45.33247
 20
15.11792
 30
0.0
 10
45.33247
 20
15.11792
 30
0.0
  0
SPLINE
  5
B3
330
1F
100
AcDbEntity
  8
layer 1
 62
   250
370
     9
100
AcDbSpline
210
0.0
220
0.0
230
1.0
 70
    11
 71
     3
 72
    44
 73
    40
 74
     0
 42
0.0000000001
 43
0.0000000001
 40
0.0
 40
0.0
 40
0.0
 40
0.0
 40
0.0769230769230769
 40
0.0769230769230769
 40
0.0769230769230769
 40
0.1538461538461539
 40
0.1538461538461539
 40
0.1538461538461539
 40
0.2307692307692308
 40
0.2307692307692308
 40
0.2307692307692308
 40
0.3076923076923077
 40
0.3076923076923077
 40
0.3076923076923077
 40
0.3846153846153846
 40
0.3846153846153846
 40
0.3846153846153846
 40
0.4615384615384616
 40
0.4615384615384616
 40
0.4615384615384616
 40
0.5384615384615385
 40
0.5384615384615385
 40
0.5384615384615385
 40
0.6153846153846154
 40
0.6153846153846154
 40
0.6153846153846154
 40
0.6923076923076923
 40
0.6923076923076923
 40
0.6923076923076923
 40
0.7692307692307693
 40
0.7692307692307693
 40
0.7692307692307693
 40
0.8461538461538463
 40
0.8461538461538463
 40
0.8461538461538463
 40
0.9230769230769231
 40
0.9230769230769231
 40
0.9230769230769231
 40
1.0
 40
1.0
 40
1.0
 40
1.0
 10
45.91456
 20
15.11792
 30
0.0
 10
45.91456
 20
15.11792
 30
0.0
 10
46.02914
 20
15.11792
 30
0.0
 10
46.02914
 20
15.11792
 30
0.0
 10
46.02914
 20
15.11792
 30
0.0
 10
46.14528
 20
14.76627
 30
0.0
 10
46.14528
 20
14.76627
 30
0.0
 10
46.14528
 20
14.76627
 30
0.0
 10
46.27383
 20
15.11792
 30
0.0
 10
46.27383
 20
15.11792
 30
0.0
 10
46.27383
 20
15.11792
 30
0.0
 10
46.38023
 20
15.11792
 30
0.0
 10
46.38023
 20
15.11792
 30
0.0
 10
46.38023
 20
15.11792
 30
0.0
 10
46.38023
 20
14.6785
 30
0.0
 10
46.38023
 20
14.6785
 30
0.0
 10
46.38023
 20
14.6785
 30
0.0
 10
46.30572
 20
14.6785
 30
0.0
 10
46.30572
 20
14.6785
 30
0.0
 10
46.30572
 20
14.6785
 30
0.0
 10
46.30572
 20
15.03227
 30
0.0
 10
46.30572
 20
15.03227
 30
0.0
 10
46.30572
 20
15.03227
 30
0.0
 10
46.17632
 20
14.6785
 30
0.0
 10
46.17632
 20
14.6785
 30
0.0
 10
46.17632
 20
14.6785
 30
0.0
 10
46.10972
 20
14.6785
 30
0.0
 10
46.10972
 20
14.6785
 30
0.0
 10
46.10972
 20
14.6785
 30
0.0
 10
45.98737
 20
15.0492
 30
0.0
 10
45.98737
 20
15.0492
 30
0.0
 10
45.98737
 20
15.0492
 30
0.0
 10
45.98737
 20
14.6785
 30
0.0
 10
45.98737
 20
14.6785
 30
0.0
 10
45.98737
 20
14.6785
 30
0.0
 10
45.91456
 20
14.6785
 30
0.0
 10
45.91456
 20
14.6785
 30
0.0
 10
45.91456
 20
14.6785
 30
0.0
 10
45.91456
 20
15.11792
 30
0.0
 10
45.91456
 20
15.11792
 30
0.0
  0
ENDSEC
  0
SECTION
  2
OBJECTS
  0
DICTIONARY
  5
C
330
0
100
AcDbDictionary
281
     1
  3
ACAD_DETAILVIEWSTYLE
350
BB
  3
ACAD_GROUP
350
D
  3
ACAD_LAYOUT
350
1A
  3
ACAD_MATERIAL
350
43
  3
ACAD_MLEADERSTYLE
350
5B
  3
ACAD_MLINESTYLE
350
17
  3
ACAD_PLOTSETTINGS
350
19
  3
ACAD_PLOTSTYLENAME
350
E
  3
ACAD_SCALELIST
350
47
  3
ACAD_SECTIONVIEWSTYLE
350
BC
  3
ACAD_TABLESTYLE
350
59
  3
ACAD_VISUALSTYLE
350
2A
  3
ACDB_RECOMPOSE_DATA
350
B8
  3
AcDbVariableDictionary
350
B4
  0
SUN
  5
5D
330
29
100
AcDbSun
 90
        1
290
     0
 63
     7
421
 16777215
 40
1.0
291
     1
 91
  2455826
 92
 54000000
292
     0
 70
     2
 71
   256
280
     1
  0
DICTIONARY
  5
BB
102
{ACAD_REACTORS
330
C
102
}
330
C
100
AcDbDictionary
281
     1
  0
DICTIONARY
  5
D
102
{ACAD_REACTORS
330
C
102
}
330
C
100
AcDbDictionary
281
     1
  0
DICTIONARY
  5
1A
102
{ACAD_REACTORS
330
C
102
}
330
C
100
AcDbDictionary
281
     1
  3
Layout1
350
1E
  3
Layout2
350
26
  3
Model
350
22
  0
DICTIONARY
  5
43
102
{ACAD_REACTORS
330
C
102
}
330
C
100
AcDbDictionary
281
     1
  3
ByBlock
350
45
  3
ByLayer
350
44
  3
Global
350
46
  0
DICTIONARY
  5
5B
102
{ACAD_REACTORS
330
C
102
}
330
C
100
AcDbDictionary
281
     1
  3
Standard
350
5C
  0
DICTIONARY
  5
17
102
{ACAD_REACTORS
330
C
102
}
330
C
100
AcDbDictionary
281
     1
  3
Standard
350
18
  0
DICTIONARY
  5
19
102
{ACAD_REACTORS
330
C
102
}
330
C
100
AcDbDictionary
281
     1
  0
ACDBDICTIONARYWDFLT
  5
E
102
{ACAD_REACTORS
330
C
102
}
330
C
100
AcDbDictionary
281
     1
  3
Normal
350
F
100
AcDbDictionaryWithDefault
340
F
  0
DICTIONARY
  5
47
102
{ACAD_REACTORS
330
C
102
}
330
C
100
AcDbDictionary
281
     1
  3
A0
350
48
  3
A1
350
49
  3
A2
350
4A
  3
A3
350
4B
  3
A4
350
4C
  3
A5
350
4D
  3
A6
350
4E
  3
A7
350
4F
  3
A8
350
50
  3
A9
350
51
  3
B1
350
52
  3
B2
350
53
  3
B3
350
54
  3
B4
350
55
  3
B5
350
56
  3
B6
350
57
  3
B7
350
58
  0
DICTIONARY
  5
BC
102
{ACAD_REACTORS
330
C
102
}
330
C
100
AcDbDictionary
281
     1
  0
DICTIONARY
  5
59
102
{ACAD_REACTORS
330
C
102
}
330
C
100
AcDbDictionary
281
     1
  3
Standard
350
5A
  0
DICTIONARY
  5
2A
102
{ACAD_REACTORS
330
C
102
}
330
C
100
AcDbDictionary
281
     1
  3
2dWireframe
350
2F
  3
Basic
350
32
  3
Brighten
350
36
  3
ColorChange
350
3A
  3
Conceptual
350
34
  3
Dim
350
35
  3
EdgeColorOff
350
3D
  3
Facepattern
350
39
  3
Flat
350
2B
  3
FlatWithEdges
350
2C
  3
Gouraud
350
2D
  3
GouraudWithEdges
350
2E
  3
Hidden
350
31
  3
JitterOff
350
3B
  3
Linepattern
350
38
  3
OverhangOff
350
3C
  3
Realistic
350
33
  3
Shaded
350
42
  3
Shaded with edges
350
41
  3
Shades of Gray
350
3E
  3
Sketchy
350
3F
  3
Thicken
350
37
  3
Wireframe
350
30
  3
X-Ray
350
40
  0
XRECORD
  5
B8
102
{ACAD_REACTORS
330
C
102
}
330
C
100
AcDbXrecord
280
     1
 90
        1
330
5A
  0
DICTIONARY
  5
B4
102
{ACAD_REACTORS
330
C
102
}
330
C
100
AcDbDictionary
281
     1
  3
CANNOSCALE
350
B5
  3
CMLEADERSTYLE
350
BA
  3
CTABLESTYLE
350
B9
  0
LAYOUT
  5
1E
102
{ACAD_REACTORS
330
1A
102
}
330
1A
100
AcDbPlotSettings
  1

  2
none_device
  4

  6

 40
0.0
 41
0.0
 42
0.0
 43
0.0
 44
0.0
 45
0.0
 46
0.0
 47
0.0
 48
0.0
 49
0.0
140
0.0
141
0.0
142
1.0
143
1.0
 70
   688
 72
     0
 73
     0
 74
     5
  7

 75
    16
 76
     0
 77
     2
 78
   300
147
1.0
148
0.0
149
0.0
100
AcDbLayout
  1
Layout1
 70
     1
 71
     1
 10
0.0
 20
0.0
 11
12.0
 21
9.0
 12
0.0
 22
0.0
 32
0.0
 14
1.000000000000000E+20
 24
1.000000000000000E+20
 34
1.000000000000000E+20
 15
-1.000000000000000E+20
 25
-1.000000000000000E+20
 35
-1.000000000000000E+20
146
0.0
 13
0.0
 23
0.0
 33
0.0
 16
1.0
 26
0.0
 36
0.0
 17
0.0
 27
1.0
 37
0.0
 76
     0
330
1B
  0
LAYOUT
  5
26
102
{ACAD_REACTORS
330
1A
102
}
330
1A
100
AcDbPlotSettings
  1

  2
none_device
  4

  6

 40
0.0
 41
0.0
 42
0.0
 43
0.0
 44
0.0
 45
0.0
 46
0.0
 47
0.0
 48
0.0
 49
0.0
140
0.0
141
0.0
142
1.0
143
1.0
 70
   688
 72
     0
 73
     0
 74
     5
  7

 75
    16
 76
     0
 77
     2
 78
   300
147
1.0
148
0.0
149
0.0
100
AcDbLayout
  1
Layout2
 70
     1
 71
     2
 10
0.0
 20
0.0
 11
0.0
 21
0.0
 12
0.0
 22
0.0
 32
0.0
 14
0.0
 24
0.0
 34
0.0
 15
0.0
 25
0.0
 35
0.0
146
0.0
 13
0.0
 23
0.0
 33
0.0
 16
1.0
 26
0.0
 36
0.0
 17
0.0
 27
1.0
 37
0.0
 76
     0
330
23
  0
LAYOUT
  5
22
102
{ACAD_REACTORS
330
1A
102
}
330
1A
100
AcDbPlotSettings
  1

  2
none_device
  4
Letter_(8.50_x_11.00_Inches)
  6

 40
6.35
 41
6.35
 42
6.35000508
 43
6.35000508
 44
215.9
 45
279.4
 46
0.0
 47
0.0
 48
0.0
 49
0.0
140
0.0
141
0.0
142
1.0
143
1.0
 70
  1712
 72
     0
 73
     0
 74
     0
  7

 75
     0
 76
     0
 77
     2
 78
   300
147
1.0
148
0.0
149
0.0
100
AcDbLayout
  1
Model
 70
     1
 71
     0
 10
0.0
 20
0.0
 11
12.0
 21
9.0
 12
0.0
 22
0.0
 32
0.0
 14
20.7566
 24
-12.2887
 34
0.0
 15
69.4163
 25
16.23694
 35
0.0
146
0.0
 13
0.0
 23
0.0
 33
0.0
 16
1.0
 26
0.0
 36
0.0
 17
0.0
 27
1.0
 37
0.0
 76
     0
330
1F
331
29
  0
MATERIAL
  5
45
102
{ACAD_REACTORS
330
43
102
}
330
43
100
AcDbMaterial
  1
ByBlock
 72
     1
 94
      127
  0
MATERIAL
  5
44
102
{ACAD_REACTORS
330
43
102
}
330
43
100
AcDbMaterial
  1
ByLayer
 72
     1
 94
      127
  0
MATERIAL
  5
46
102
{ACAD_REACTORS
330
43
102
}
330
43
100
AcDbMaterial
  1
Global
 72
     1
 94
      127
  0
MLEADERSTYLE
  5
5C
102
{ACAD_REACTORS
330
5B
102
}
330
5B
100
AcDbMLeaderStyle
179
     2
170
     2
171
     1
172
     0
 90
        2
 40
0.0
 41
0.0
173
     1
 91
-1056964608
340
14
 92
       -2
290
     1
 42
0.09
291
     1
 43
0.36
  3
Standard
341
0
 44
0.18
300

342
11
174
     1
178
     6
175
     1
176
     0
 93
-1056964608
 45
0.18
292
     0
297
     0
 46
0.18
343
0
 94
-1056964608
 47
1.0
 49
1.0
140
1.0
293
     1
141
0.0
294
     1
177
     0
142
1.0
295
     0
296
     0
143
0.125
271
     0
272
     9
273
     9
298
     0
  0
MLINESTYLE
  5
18
102
{ACAD_REACTORS
330
17
102
}
330
17
100
AcDbMlineStyle
  2
Standard
 70
     0
  3

 62
   256
 51
90.0
 52
90.0
 71
     2
 49
0.5
 62
   256
  6
BYLAYER
 49
-0.5
 62
   256
  6
BYLAYER
  0
ACDBPLACEHOLDER
  5
F
102
{ACAD_REACTORS
330
E
102
}
330
E
  0
SCALE
  5
48
102
{ACAD_REACTORS
330
47
102
}
330
47
100
AcDbScale
 70
     0
300
1:1
140
1.0
141
1.0
290
     1
  0
SCALE
  5
49
102
{ACAD_REACTORS
330
47
102
}
330
47
100
AcDbScale
 70
     0
300
1/128" = 1'-0"
140
0.0078125
141
12.0
290
     0
  0
SCALE
  5
4A
102
{ACAD_REACTORS
330
47
102
}
330
47
100
AcDbScale
 70
     0
300
1/64" = 1'-0"
140
0.015625
141
12.0
290
     0
  0
SCALE
  5
4B
102
{ACAD_REACTORS
330
47
102
}
330
47
100
AcDbScale
 70
     0
300
1/32" = 1'-0"
140
0.03125
141
12.0
290
     0
  0
SCALE
  5
4C
102
{ACAD_REACTORS
330
47
102
}
330
47
100
AcDbScale
 70
     0
300
1/16" = 1'-0"
140
0.0625
141
12.0
290
     0
  0
SCALE
  5
4D
102
{ACAD_REACTORS
330
47
102
}
330
47
100
AcDbScale
 70
     0
300
3/32" = 1'-0"
140
0.09375
141
12.0
290
     0
  0
SCALE
  5
4E
102
{ACAD_REACTORS
330
47
102
}
330
47
100
AcDbScale
 70
     0
300
1/8" = 1'-0"
140
0.125
141
12.0
290
     0
  0
SCALE
  5
4F
102
{ACAD_REACTORS
330
47
102
}
330
47
100
AcDbScale
 70
     0
300
3/16" = 1'-0"
140
0.1875
141
12.0
290
     0
  0
SCALE
  5
50
102
{ACAD_REACTORS
330
47
102
}
330
47
100
AcDbScale
 70
     0
300
1/4" = 1'-0"
140
0.25
141
12.0
290
     0
  0
SCALE
  5
51
102
{ACAD_REACTORS
330
47
102
}
330
47
100
AcDbScale
 70
     0
300
3/8" = 1'-0"
140
0.375
141
12.0
290
     0
  0
SCALE
  5
52
102
{ACAD_REACTORS
330
47
102
}
330
47
100
AcDbScale
 70
     0
300
1/2" = 1'-0"
140
0.5
141
12.0
290
     0
  0
SCALE
  5
53
102
{ACAD_REACTORS
330
47
102
}
330
47
100
AcDbScale
 70
     0
300
3/4" = 1'-0"
140
0.75
141
12.0
290
     0
  0
SCALE
  5
54
102
{ACAD_REACTORS
330
47
102
}
330
47
100
AcDbScale
 70
     0
300
1" = 1'-0"
140
1.0
141
12.0
290
     0
  0
SCALE
  5
55
102
{ACAD_REACTORS
330
47
102
}
330
47
100
AcDbScale
 70
     0
300
1-1/2" = 1'-0"
140
1.5
141
12.0
290
     0
  0
SCALE
  5
56
102
{ACAD_REACTORS
330
47
102
}
330
47
100
AcDbScale
 70
     0
300
3" = 1'-0"
140
3.0
141
12.0
290
     0
  0
SCALE
  5
57
102
{ACAD_REACTORS
330
47
102
}
330
47
100
AcDbScale
 70
     0
300
6" = 1'-0"
140
6.0
141
12.0
290
     0
  0
SCALE
  5
58
102
{ACAD_REACTORS
330
47
102
}
330
47
100
AcDbScale
 70
     0
300
1'-0" = 1'-0"
140
12.0
141
12.0
290
     0
  0
TABLESTYLE
  5
5A
102
{ACAD_REACTORS
330
59
102
}
102
{ACAD_XDICTIONARY
360
B6
102
}
330
59
100
AcDbTableStyle
  3
Standard
 70
     0
 71
     0
 40
0.06
 41
0.06
280
     0
281
     0
  7
Standard
140
0.18
170
     2
 62
     0
 63
   257
283
     0
 90
        4
 91
        0
  1

274
    -2
284
     1
 64
     0
275
    -2
285
     1
 65
     0
276
    -2
286
     1
 66
     0
277
    -2
287
     1
 67
     0
278
    -2
288
     1
 68
     0
279
    -2
289
     1
 69
     0
  7
Standard
140
0.25
170
     5
 62
     0
 63
   257
283
     0
 90
        4
 91
        0
  1

274
    -2
284
     1
 64
     0
275
    -2
285
     1
 65
     0
276
    -2
286
     1
 66
     0
277
    -2
287
     1
 67
     0
278
    -2
288
     1
 68
     0
279
    -2
289
     1
 69
     0
  7
Standard
140
0.18
170
     5
 62
     0
 63
   257
283
     0
 90
        4
 91
        0
  1

274
    -2
284
     1
 64
     0
275
    -2
285
     1
 65
     0
276
    -2
286
     1
 66
     0
277
    -2
287
     1
 67
     0
278
    -2
288
     1
 68
     0
279
    -2
289
     1
 69
     0
  0
VISUALSTYLE
  5
2F
102
{ACAD_REACTORS
330
2A
102
}
330
2A
100
AcDbVisualStyle
  2
2dWireframe
 70
     4
177
     3
291
     0
 70
    58
 90
        0
176
     1
 90
        2
176
     1
 90
        0
176
     1
 90
        0
176
     1
 40
0.6
176
     1
 40
30.0
176
     1
 62
     7
420
 16777215
176
     1
 90
        1
176
     1
 90
        4
176
     1
 62
     7
176
     1
 62
   257
176
     1
 90
        1
176
     1
 90
        1
176
     1
 40
1.0
176
     1
 90
        0
176
     1
 62
   257
176
     1
 40
1.0
176
     1
 90
        1
176
     1
 90
        6
176
     1
 90
        2
176
     1
 62
     7
176
     1
 90
        5
176
     1
 90
        0
176
     1
 90
        0
176
     1
290
     0
176
     1
 90
        1
176
     1
 40
0.0
176
     1
 90
        0
176
     1
290
     1
176
     1
290
     1
176
     1
290
     0
176
     1
290
     0
176
     1
290
     0
176
     1
290
     0
176
     1
290
     0
176
     1
290
     0
176
     1
290
     0
176
     1
 90
       50
176
     1
 40
0.0
176
     1
 40
1.0
176
     1
 90
        0
176
     1
 62
    18
420
        0
176
     1
 90
       50
176
     1
 90
        3
176
     1
 62
     5
420
      255
176
     1
290
     0
176
     1
 90
       50
176
     1
 90
       50
176
     1
 90
       50
176
     1
290
     0
176
     1
 90
       50
176
     1
 62
   256
176
     0
 40
1.0
176
     0
 90
        2
176
     1
  1
strokes_ogs.tif
176
     1
290
     0
176
     1
 40
1.0
176
     1
 40
1.0
176
     1
  0
VISUALSTYLE
  5
32
102
{ACAD_REACTORS
330
2A
102
}
330
2A
100
AcDbVisualStyle
  2
Basic
 70
     7
177
     3
291
     1
 70
    58
 90
        1
176
     1
 90
        0
176
     1
 90
        1
176
     1
 90
        0
176
     1
 40
0.6
176
     1
 40
30.0
176
     1
 62
     7
420
 16777215
176
     1
 90
        0
176
     1
 90
        4
176
     1
 62
     7
176
     1
 62
   257
176
     1
 90
        1
176
     1
 90
        1
176
     1
 40
1.0
176
     1
 90
        8
176
     1
 62
     7
176
     1
 40
1.0
176
     1
 90
        1
176
     1
 90
        6
176
     1
 90
        2
176
     1
 62
     7
176
     1
 90
        5
176
     1
 90
        0
176
     1
 90
        0
176
     1
290
     0
176
     1
 90
        1
176
     1
 40
0.0
176
     1
 90
        0
176
     1
290
     0
176
     1
290
     1
176
     1
290
     1
176
     1
290
     0
176
     1
290
     0
176
     1
290
     0
176
     1
290
     0
176
     1
290
     0
176
     1
290
     0
176
     1
 90
       50
176
     1
 40
0.0
176
     1
 40
1.0
176
     1
 90
        0
176
     1
 62
    18
420
        0
176
     1
 90
       50
176
     1
 90
        3
176
     1
 62
     5
420
      255
176
     1
290
     0
176
     1
 90
       50
176
     1
 90
       50
176
     1
 90
       50
176
     1
290
     0
176
     1
 90
       50
176
     1
 62
   256
176
     0
 40
1.0
176
     0
 90
        2
176
     1
  1
strokes_ogs.tif
176
     1
290
     0
176
     1
 40
1.0
176
     1
 40
1.0
176
     1
  0
VISUALSTYLE
  5
36
102
{ACAD_REACTORS
330
2A
102
}
330
2A
100
AcDbVisualStyle
  2
Brighten
 70
    12
177
     3
291
     1
 70
    58
 90
        2
176
     1
 90
        2
176
     1
 90
        0
176
     1
 90
        0
176
     1
 40
0.6
176
     1
 40
30.0
176
     1
 62
     7
420
 16777215
176
     1
 90
        1
176
     1
 90
        4
176
     1
 62
     7
176
     1
 62
   257
176
     1
 90
        1
176
     1
 90
        1
176
     1
 40
1.0
176
     1
 90
        8
176
     1
 62
     7
176
     1
 40
1.0
176
     1
 90
        1
176
     1
 90
        6
176
     1
 90
        2
176
     1
 62
     7
176
     1
 90
        5
176
     1
 90
        0
176
     1
 90
        0
176
     1
290
     0
176
     1
 90
        1
176
     1
 40
50.0
176
     1
 90
        0
176
     1
290
     0
176
     1
290
     1
176
     1
290
     1
176
     1
290
     0
176
     1
290
     0
176
     1
290
     0
176
     1
290
     0
176
     1
290
     0
176
     1
290
     0
176
     1
 90
       50
176
     1
 40
0.0
176
     1
 40
1.0
176
     1
 90
        0
176
     1
 62
    18
420
        0
176
     1
 90
       50
176
     1
 90
        3
176
     1
 62
     5
420
      255
176
     1
290
     0
176
     1
 90
       50
176
     1
 90
       50
176
     1
 90
       50
176
     1
290
     0
176
     1
 90
       50
176
     1
 62
   256
176
     0
 40
1.0
176
     0
 90
        2
176
     1
  1
strokes_ogs.tif
176
     1
290
     0
176
     1
 40
1.0
176
     1
 40
1.0
176
     1
  0
VISUALSTYLE
  5
3A
102
{ACAD_REACTORS
330
2A
102
}
330
2A
100
AcDbVisualStyle
  2
ColorChange
 70
    16
177
     3
291
     1
 70
    58
 90
        2
176
     1
 90
        2
176
     1
 90
        3
176
     1
 90
        0
176
     1
 40
0.6
176
     1
 40
30.0
176
     1
 62
     8
420
  8421504
176
     1
 90
        1
176
     1
 90
        4
176
     1
 62
     7
176
     1
 62
   257
176
     1
 90
        1
176
     1
 90
        1
176
     1
 40
1.0
176
     1
 90
        8
176
     1
 62
     8
420
  8421504
176
     1
 40
1.0
176
     1
 90
        1
176
     1
 90
        6
176
     1
 90
        2
176
     1
 62
     7
176
     1
 90
        5
176
     1
 90
        0
176
     1
 90
        0
176
     1
290
     0
176
     1
 90
        1
176
     1
 40
0.0
176
     1
 90
        0
176
     1
290
     0
176
     1
290
     1
176
     1
290
     1
176
     1
290
     0
176
     1
290
     0
176
     1
290
     0
176
     1
290
     0
176
     1
290
     0
176
     1
290
     0
176
     1
 90
       50
176
     1
 40
0.0
176
     1
 40
1.0
176
     1
 90
        0
176
     1
 62
    18
420
        0
176
     1
 90
       50
176
     1
 90
        3
176
     1
 62
     5
420
      255
176
     1
290
     0
176
     1
 90
       50
176
     1
 90
       50
176
     1
 90
       50
176
     1
290
     0
176
     1
 90
       50
176
     1
 62
   256
176
     0
 40
1.0
176
     0
 90
        2
176
     1
  1
strokes_ogs.tif
176
     1
290
     0
176
     1
 40
1.0
176
     1
 40
1.0
176
     1
  0
VISUALSTYLE
  5
34
102
{ACAD_REACTORS
330
2A
102
}
330
2A
100
AcDbVisualStyle
  2
Conceptual
 70
     9
177
     3
291
     0
 70
    58
 90
        3
176
     1
 90
        2
176
     1
 90
        0
176
     1
 90
        0
176
     1
 40
0.6
176
     1
 40
30.0
176
     1
 62
     7
420
 16777215
176
     1
 90
        2
176
     1
 90
        2
176
     1
 62
     7
176
     1
 62
   257
176
     1
 90
        1
176
     1
 90
        1
176
     1
 40
179.0
176
     1
 90
        8
176
     1
 62
     7
176
     1
 40
1.0
176
     1
 90
        1
176
     1
 90
        6
176
     1
 90
        2
176
     1
 62
     7
176
     1
 90
        3
176
     1
 90
        0
176
     1
 90
        0
176
     1
290
     0
176
     1
 90
        1
176
     1
 40
0.0
176
     1
 90
        0
176
     1
290
     0
176
     1
290
     1
176
     1
290
     1
176
     1
290
     0
176
     1
290
     0
176
     1
290
     0
176
     1
290
     0
176
     1
290
     0
176
     1
290
     0
176
     1
 90
       50
176
     1
 40
0.0
176
     1
 40
1.0
176
     1
 90
        0
176
     1
 62
    18
420
        0
176
     1
 90
       50
176
     1
 90
        3
176
     1
 62
     5
420
      255
176
     1
290
     0
176
     1
 90
       50
176
     1
 90
       50
176
     1
 90
       50
176
     1
290
     0
176
     1
 90
       50
176
     1
 62
   256
176
     0
 40
1.0
176
     0
 90
        2
176
     1
  1
strokes_ogs.tif
176
     1
290
     0
176
     1
 40
1.0
176
     1
 40
1.0
176
     1
  0
VISUALSTYLE
  5
35
102
{ACAD_REACTORS
330
2A
102
}
330
2A
100
AcDbVisualStyle
  2
Dim
 70
    11
177
     3
291
     1
 70
    58
 90
        2
176
     1
 90
        2
176
     1
 90
        0
176
     1
 90
        0
176
     1
 40
0.6
176
     1
 40
30.0
176
     1
 62
     7
420
 16777215
176
     1
 90
        1
176
     1
 90
        4
176
     1
 62
     7
176
     1
 62
   257
176
     1
 90
        1
176
     1
 90
        1
176
     1
 40
1.0
176
     1
 90
        8
176
     1
 62
     7
176
     1
 40
1.0
176
     1
 90
        1
176
     1
 90
        6
176
     1
 90
        2
176
     1
 62
     7
176
     1
 90
        5
176
     1
 90
        0
176
     1
 90
        0
176
     1
290
     0
176
     1
 90
        1
176
     1
 40
-50.0
176
     1
 90
        0
176
     1
290
     0
176
     1
290
     1
176
     1
290
     1
176
     1
290
     0
176
     1
290
     0
176
     1
290
     0
176
     1
290
     0
176
     1
290
     0
176
     1
290
     0
176
     1
 90
       50
176
     1
 40
0.0
176
     1
 40
1.0
176
     1
 90
        0
176
     1
 62
    18
420
        0
176
     1
 90
       50
176
     1
 90
        3
176
     1
 62
     5
420
      255
176
     1
290
     0
176
     1
 90
       50
176
     1
 90
       50
176
     1
 90
       50
176
     1
290
     0
176
     1
 90
       50
176
     1
 62
   256
176
     0
 40
1.0
176
     0
 90
        2
176
     1
  1
strokes_ogs.tif
176
     1
290
     0
176
     1
 40
1.0
176
     1
 40
1.0
176
     1
  0
VISUALSTYLE
  5
3D
102
{ACAD_REACTORS
330
2A
102
}
330
2A
100
AcDbVisualStyle
  2
EdgeColorOff
 70
    22
177
     3
291
     1
 70
    58
 90
        2
176
     0
 90
        2
176
     0
 90
        0
176
     0
 90
        0
176
     0
 40
0.6
176
     0
 40
30.0
176
     0
 62
     7
420
 16777215
176
     0
 90
        1
176
     0
 90
        4
176
     0
 62
     7
176
     0
 62
   257
176
     0
 90
        1
176
     0
 90
        1
176
     0
 40
1.0
176
     0
 90
        8
176
     2
 62
     7
176
     0
 40
1.0
176
     0
 90
        1
176
     0
 90
        6
176
     0
 90
        2
176
     0
 62
     7
176
     0
 90
        5
176
     0
 90
        0
176
     0
 90
        0
176
     0
290
     0
176
     0
 90
        1
176
     0
 40
0.0
176
     0
 90
        0
176
     0
290
     0
176
     0
290
     1
176
     0
290
     1
176
     0
290
     0
176
     0
290
     0
176
     0
290
     0
176
     0
290
     0
176
     0
290
     0
176
     0
290
     0
176
     0
 90
       50
176
     0
 40
0.0
176
     0
 40
1.0
176
     0
 90
        0
176
     0
 62
    18
420
        0
176
     0
 90
       50
176
     0
 90
        3
176
     0
 62
     5
420
      255
176
     0
290
     0
176
     0
 90
       50
176
     0
 90
       50
176
     0
 90
       50
176
     0
290
     0
176
     0
 90
       50
176
     0
 62
   256
176
     0
 40
1.0
176
     0
 90
        2
176
     0
  1
strokes_ogs.tif
176
     0
290
     0
176
     0
 40
1.0
176
     0
 40
1.0
176
     0
  0
VISUALSTYLE
  5
39
102
{ACAD_REACTORS
330
2A
102
}
330
2A
100
AcDbVisualStyle
  2
Facepattern
 70
    15
177
     3
291
     1
 70
    58
 90
        2
176
     1
 90
        2
176
     1
 90
        0
176
     1
 90
        0
176
     1
 40
0.6
176
     1
 40
30.0
176
     1
 62
     7
420
 16777215
176
     1
 90
        1
176
     1
 90
        4
176
     1
 62
     7
176
     1
 62
   257
176
     1
 90
        1
176
     1
 90
        1
176
     1
 40
1.0
176
     1
 90
        8
176
     1
 62
     7
176
     1
 40
1.0
176
     1
 90
        1
176
     1
 90
        6
176
     1
 90
        2
176
     1
 62
     7
176
     1
 90
        5
176
     1
 90
        0
176
     1
 90
        0
176
     1
290
     0
176
     1
 90
        1
176
     1
 40
0.0
176
     1
 90
        0
176
     1
290
     0
176
     1
290
     1
176
     1
290
     1
176
     1
290
     0
176
     1
290
     0
176
     1
290
     0
176
     1
290
     0
176
     1
290
     0
176
     1
290
     0
176
     1
 90
       50
176
     1
 40
0.0
176
     1
 40
1.0
176
     1
 90
        0
176
     1
 62
    18
420
        0
176
     1
 90
       50
176
     1
 90
        3
176
     1
 62
     5
420
      255
176
     1
290
     0
176
     1
 90
       50
176
     1
 90
       50
176
     1
 90
       50
176
     1
290
     0
176
     1
 90
       50
176
     1
 62
   256
176
     0
 40
1.0
176
     0
 90
        2
176
     1
  1
strokes_ogs.tif
176
     1
290
     0
176
     1
 40
1.0
176
     1
 40
1.0
176
     1
  0
VISUALSTYLE
  5
2B
102
{ACAD_REACTORS
330
2A
102
}
330
2A
100
AcDbVisualStyle
  2
Flat
 70
     0
177
     3
291
     1
 70
    58
 90
        2
176
     1
 90
        1
176
     1
 90
        1
176
     1
 90
        2
176
     1
 40
0.6
176
     1
 40
30.0
176
     1
 62
     7
420
 16777215
176
     1
 90
        0
176
     1
 90
        0
176
     1
 62
     7
176
     1
 62
   257
176
     1
 90
        1
176
     1
 90
        1
176
     1
 40
1.0
176
     1
 90
        8
176
     1
 62
     7
176
     1
 40
1.0
176
     1
 90
        1
176
     1
 90
        6
176
     1
 90
        2
176
     1
 62
     7
176
     1
 90
        5
176
     1
 90
        0
176
     1
 90
        0
176
     1
290
     0
176
     1
 90
       13
176
     1
 40
0.0
176
     1
 90
        0
176
     1
290
     0
176
     1
290
     1
176
     1
290
     1
176
     1
290
     0
176
     1
290
     0
176
     1
290
     0
176
     1
290
     0
176
     1
290
     0
176
     1
290
     0
176
     1
 90
       50
176
     1
 40
0.0
176
     1
 40
1.0
176
     1
 90
        0
176
     1
 62
    18
420
        0
176
     1
 90
       50
176
     1
 90
        3
176
     1
 62
     5
420
      255
176
     1
290
     0
176
     1
 90
       50
176
     1
 90
       50
176
     1
 90
       50
176
     1
290
     0
176
     1
 90
       50
176
     1
 62
   256
176
     0
 40
1.0
176
     0
 90
        2
176
     1
  1
strokes_ogs.tif
176
     1
290
     0
176
     1
 40
1.0
176
     1
 40
1.0
176
     1
  0
VISUALSTYLE
  5
2C
102
{ACAD_REACTORS
330
2A
102
}
330
2A
100
AcDbVisualStyle
  2
FlatWithEdges
 70
     1
177
     3
291
     1
 70
    58
 90
        2
176
     1
 90
        1
176
     1
 90
        1
176
     1
 90
        2
176
     1
 40
0.6
176
     1
 40
30.0
176
     1
 62
     7
420
 16777215
176
     1
 90
        1
176
     1
 90
        0
176
     1
 62
     7
176
     1
 62
   257
176
     1
 90
        1
176
     1
 90
        1
176
     1
 40
1.0
176
     1
 90
        0
176
     1
 62
   257
176
     1
 40
1.0
176
     1
 90
        1
176
     1
 90
        6
176
     1
 90
        2
176
     1
 62
     7
176
     1
 90
        5
176
     1
 90
        0
176
     1
 90
        0
176
     1
290
     0
176
     1
 90
       13
176
     1
 40
0.0
176
     1
 90
        0
176
     1
290
     0
176
     1
290
     1
176
     1
290
     1
176
     1
290
     0
176
     1
290
     0
176
     1
290
     0
176
     1
290
     0
176
     1
290
     0
176
     1
290
     0
176
     1
 90
       50
176
     1
 40
0.0
176
     1
 40
1.0
176
     1
 90
        0
176
     1
 62
    18
420
        0
176
     1
 90
       50
176
     1
 90
        3
176
     1
 62
     5
420
      255
176
     1
290
     0
176
     1
 90
       50
176
     1
 90
       50
176
     1
 90
       50
176
     1
290
     0
176
     1
 90
       50
176
     1
 62
   256
176
     0
 40
1.0
176
     0
 90
        2
176
     1
  1
strokes_ogs.tif
176
     1
290
     0
176
     1
 40
1.0
176
     1
 40
1.0
176
     1
  0
VISUALSTYLE
  5
2D
102
{ACAD_REACTORS
330
2A
102
}
330
2A
100
AcDbVisualStyle
  2
Gouraud
 70
     2
177
     3
291
     1
 70
    58
 90
        2
176
     1
 90
        2
176
     1
 90
        1
176
     1
 90
        2
176
     1
 40
0.6
176
     1
 40
30.0
176
     1
 62
     7
420
 16777215
176
     1
 90
        0
176
     1
 90
        0
176
     1
 62
     7
176
     1
 62
   257
176
     1
 90
        1
176
     1
 90
        1
176
     1
 40
1.0
176
     1
 90
        0
176
     1
 62
     7
176
     1
 40
1.0
176
     1
 90
        1
176
     1
 90
        6
176
     1
 90
        2
176
     1
 62
     7
176
     1
 90
        5
176
     1
 90
        0
176
     1
 90
        0
176
     1
290
     0
176
     1
 90
       13
176
     1
 40
0.0
176
     1
 90
        0
176
     1
290
     0
176
     1
290
     1
176
     1
290
     1
176
     1
290
     0
176
     1
290
     0
176
     1
290
     0
176
     1
290
     0
176
     1
290
     0
176
     1
290
     0
176
     1
 90
       50
176
     1
 40
0.0
176
     1
 40
1.0
176
     1
 90
        0
176
     1
 62
    18
420
        0
176
     1
 90
       50
176
     1
 90
        3
176
     1
 62
     5
420
      255
176
     1
290
     0
176
     1
 90
       50
176
     1
 90
       50
176
     1
 90
       50
176
     1
290
     0
176
     1
 90
       50
176
     1
 62
   256
176
     0
 40
1.0
176
     0
 90
        2
176
     1
  1
strokes_ogs.tif
176
     1
290
     0
176
     1
 40
1.0
176
     1
 40
1.0
176
     1
  0
VISUALSTYLE
  5
2E
102
{ACAD_REACTORS
330
2A
102
}
330
2A
100
AcDbVisualStyle
  2
GouraudWithEdges
 70
     3
177
     3
291
     1
 70
    58
 90
        2
176
     1
 90
        2
176
     1
 90
        1
176
     1
 90
        2
176
     1
 40
0.6
176
     1
 40
30.0
176
     1
 62
     7
420
 16777215
176
     1
 90
        1
176
     1
 90
        0
176
     1
 62
     7
176
     1
 62
   257
176
     1
 90
        1
176
     1
 90
        1
176
     1
 40
1.0
176
     1
 90
        0
176
     1
 62
   257
176
     1
 40
1.0
176
     1
 90
        1
176
     1
 90
        6
176
     1
 90
        2
176
     1
 62
     7
176
     1
 90
        5
176
     1
 90
        0
176
     1
 90
        0
176
     1
290
     0
176
     1
 90
       13
176
     1
 40
0.0
176
     1
 90
        0
176
     1
290
     0
176
     1
290
     1
176
     1
290
     1
176
     1
290
     0
176
     1
290
     0
176
     1
290
     0
176
     1
290
     0
176
     1
290
     0
176
     1
290
     0
176
     1
 90
       50
176
     1
 40
0.0
176
     1
 40
1.0
176
     1
 90
        0
176
     1
 62
    18
420
        0
176
     1
 90
       50
176
     1
 90
        3
176
     1
 62
     5
420
      255
176
     1
290
     0
176
     1
 90
       50
176
     1
 90
       50
176
     1
 90
       50
176
     1
290
     0
176
     1
 90
       50
176
     1
 62
   256
176
     0
 40
1.0
176
     0
 90
        2
176
     1
  1
strokes_ogs.tif
176
     1
290
     0
176
     1
 40
1.0
176
     1
 40
1.0
176
     1
  0
VISUALSTYLE
  5
31
102
{ACAD_REACTORS
330
2A
102
}
330
2A
100
AcDbVisualStyle
  2
Hidden
 70
     6
177
     3
291
     0
 70
    58
 90
        1
176
     1
 90
        2
176
     1
 90
        2
176
     1
 90
        0
176
     1
 40
0.6
176
     1
 40
30.0
176
     1
 62
     7
420
 16777215
176
     1
 90
        2
176
     1
 90
        2
176
     1
 62
     7
176
     1
 62
   257
176
     1
 90
        2
176
     1
 90
        1
176
     1
 40
40.0
176
     1
 90
        0
176
     1
 62
   257
176
     1
 40
1.0
176
     1
 90
        1
176
     1
 90
        6
176
     1
 90
        2
176
     1
 62
     7
176
     1
 90
        3
176
     1
 90
        0
176
     1
 90
        0
176
     1
290
     0
176
     1
 90
        1
176
     1
 40
0.0
176
     1
 90
        0
176
     1
290
     0
176
     1
290
     1
176
     1
290
     1
176
     1
290
     0
176
     1
290
     0
176
     1
290
     0
176
     1
290
     0
176
     1
290
     0
176
     1
290
     0
176
     1
 90
       50
176
     1
 40
0.0
176
     1
 40
1.0
176
     1
 90
        0
176
     1
 62
    18
420
        0
176
     1
 90
       50
176
     1
 90
        3
176
     1
 62
     5
420
      255
176
     1
290
     0
176
     1
 90
       50
176
     1
 90
       50
176
     1
 90
       50
176
     1
290
     0
176
     1
 90
       50
176
     1
 62
   256
176
     0
 40
1.0
176
     0
 90
        2
176
     1
  1
strokes_ogs.tif
176
     1
290
     0
176
     1
 40
1.0
176
     1
 40
1.0
176
     1
  0
VISUALSTYLE
  5
3B
102
{ACAD_REACTORS
330
2A
102
}
330
2A
100
AcDbVisualStyle
  2
JitterOff
 70
    20
177
     3
291
     1
 70
    58
 90
        2
176
     0
 90
        2
176
     0
 90
        0
176
     0
 90
        0
176
     0
 40
0.6
176
     0
 40
30.0
176
     0
 62
     7
420
 16777215
176
     0
 90
        1
176
     0
 90
        4
176
     0
 62
     7
176
     0
 62
   257
176
     0
 90
        1
176
     0
 90
        1
176
     0
 40
1.0
176
     0
 90
       10
176
     2
 62
     7
176
     0
 40
1.0
176
     0
 90
        1
176
     0
 90
        6
176
     0
 90
        2
176
     0
 62
     7
176
     0
 90
        5
176
     0
 90
        0
176
     0
 90
        0
176
     0
290
     0
176
     0
 90
        1
176
     0
 40
0.0
176
     0
 90
        0
176
     0
290
     0
176
     0
290
     1
176
     0
290
     1
176
     0
290
     0
176
     0
290
     0
176
     0
290
     0
176
     0
290
     0
176
     0
290
     0
176
     0
290
     0
176
     0
 90
       50
176
     0
 40
0.0
176
     0
 40
1.0
176
     0
 90
        0
176
     0
 62
    18
420
        0
176
     0
 90
       50
176
     0
 90
        3
176
     0
 62
     5
420
      255
176
     0
290
     0
176
     0
 90
       50
176
     0
 90
       50
176
     0
 90
       50
176
     0
290
     0
176
     0
 90
       50
176
     0
 62
   256
176
     0
 40
1.0
176
     0
 90
        2
176
     0
  1
strokes_ogs.tif
176
     0
290
     0
176
     0
 40
1.0
176
     0
 40
1.0
176
     0
  0
VISUALSTYLE
  5
38
102
{ACAD_REACTORS
330
2A
102
}
330
2A
100
AcDbVisualStyle
  2
Linepattern
 70
    14
177
     3
291
     1
 70
    58
 90
        2
176
     1
 90
        2
176
     1
 90
        0
176
     1
 90
        0
176
     1
 40
0.6
176
     1
 40
30.0
176
     1
 62
     7
420
 16777215
176
     1
 90
        1
176
     1
 90
        4
176
     1
 62
     7
176
     1
 62
   257
176
     1
 90
        7
176
     1
 90
        7
176
     1
 40
1.0
176
     1
 90
        8
176
     1
 62
     7
176
     1
 40
1.0
176
     1
 90
        1
176
     1
 90
        6
176
     1
 90
        2
176
     1
 62
     7
176
     1
 90
        5
176
     1
 90
        0
176
     1
 90
        0
176
     1
290
     0
176
     1
 90
        1
176
     1
 40
0.0
176
     1
 90
        0
176
     1
290
     0
176
     1
290
     1
176
     1
290
     1
176
     1
290
     0
176
     1
290
     0
176
     1
290
     0
176
     1
290
     0
176
     1
290
     0
176
     1
290
     0
176
     1
 90
       50
176
     1
 40
0.0
176
     1
 40
1.0
176
     1
 90
        0
176
     1
 62
    18
420
        0
176
     1
 90
       50
176
     1
 90
        3
176
     1
 62
     5
420
      255
176
     1
290
     0
176
     1
 90
       50
176
     1
 90
       50
176
     1
 90
       50
176
     1
290
     0
176
     1
 90
       50
176
     1
 62
   256
176
     0
 40
1.0
176
     0
 90
        2
176
     1
  1
strokes_ogs.tif
176
     1
290
     0
176
     1
 40
1.0
176
     1
 40
1.0
176
     1
  0
VISUALSTYLE
  5
3C
102
{ACAD_REACTORS
330
2A
102
}
330
2A
100
AcDbVisualStyle
  2
OverhangOff
 70
    21
177
     3
291
     1
 70
    58
 90
        2
176
     0
 90
        2
176
     0
 90
        0
176
     0
 90
        0
176
     0
 40
0.6
176
     0
 40
30.0
176
     0
 62
     7
420
 16777215
176
     0
 90
        1
176
     0
 90
        4
176
     0
 62
     7
176
     0
 62
   257
176
     0
 90
        1
176
     0
 90
        1
176
     0
 40
1.0
176
     0
 90
        9
176
     2
 62
     7
176
     0
 40
1.0
176
     0
 90
        1
176
     0
 90
        6
176
     0
 90
        2
176
     0
 62
     7
176
     0
 90
        5
176
     0
 90
        0
176
     0
 90
        0
176
     0
290
     0
176
     0
 90
        1
176
     0
 40
0.0
176
     0
 90
        0
176
     0
290
     0
176
     0
290
     1
176
     0
290
     1
176
     0
290
     0
176
     0
290
     0
176
     0
290
     0
176
     0
290
     0
176
     0
290
     0
176
     0
290
     0
176
     0
 90
       50
176
     0
 40
0.0
176
     0
 40
1.0
176
     0
 90
        0
176
     0
 62
    18
420
        0
176
     0
 90
       50
176
     0
 90
        3
176
     0
 62
     5
420
      255
176
     0
290
     0
176
     0
 90
       50
176
     0
 90
       50
176
     0
 90
       50
176
     0
290
     0
176
     0
 90
       50
176
     0
 62
   256
176
     0
 40
1.0
176
     0
 90
        2
176
     0
  1
strokes_ogs.tif
176
     0
290
     0
176
     0
 40
1.0
176
     0
 40
1.0
176
     0
  0
VISUALSTYLE
  5
33
102
{ACAD_REACTORS
330
2A
102
}
330
2A
100
AcDbVisualStyle
  2
Realistic
 70
     8
177
     3
291
     0
 70
    58
 90
        2
176
     1
 90
        3
176
     1
 90
        0
176
     1
 90
        2
176
     1
 40
0.6
176
     1
 40
30.0
176
     1
 62
     7
420
 16777215
176
     1
 90
        0
176
     1
 90
        0
176
     1
 62
     7
176
     1
 62
   257
176
     1
 90
        1
176
     1
 90
        1
176
     1
 40
1.0
176
     1
 90
        8
176
     1
 62
   257
176
     1
 40
1.0
176
     1
 90
        1
176
     1
 90
        6
176
     1
 90
        2
176
     1
 62
     7
176
     1
 90
        3
176
     1
 90
        0
176
     1
 90
        0
176
     1
290
     0
176
     1
 90
       13
176
     1
 40
0.0
176
     1
 90
        0
176
     1
290
     0
176
     1
290
     1
176
     1
290
     1
176
     1
290
     0
176
     1
290
     0
176
     1
290
     0
176
     1
290
     0
176
     1
290
     0
176
     1
290
     0
176
     1
 90
       50
176
     1
 40
0.0
176
     1
 40
1.0
176
     1
 90
        0
176
     1
 62
    18
420
        0
176
     1
 90
       50
176
     1
 90
        3
176
     1
 62
     5
420
      255
176
     1
290
     0
176
     1
 90
       50
176
     1
 90
       50
176
     1
 90
       50
176
     1
290
     0
176
     1
 90
       50
176
     1
 62
   256
176
     0
 40
1.0
176
     0
 90
        2
176
     1
  1
strokes_ogs.tif
176
     1
290
     0
176
     1
 40
1.0
176
     1
 40
1.0
176
     1
  0
VISUALSTYLE
  5
42
102
{ACAD_REACTORS
330
2A
102
}
330
2A
100
AcDbVisualStyle
  2
Shaded
 70
    27
177
     3
291
     0
 70
    58
 90
        2
176
     1
 90
        2
176
     1
 90
        1
176
     1
 90
        2
176
     1
 40
0.6
176
     1
 40
30.0
176
     1
 62
     7
420
 16777215
176
     1
 90
        0
176
     1
 90
        4
176
     1
 62
     7
176
     1
 62
   257
176
     1
 90
        1
176
     1
 90
        1
176
     1
 40
1.0
176
     1
 90
        8
176
     1
 62
   257
176
     1
 40
1.0
176
     1
 90
        1
176
     1
 90
        6
176
     1
 90
        2
176
     1
 62
     8
420
  7895160
176
     1
 90
        3
176
     1
 90
        0
176
     1
 90
        0
176
     1
290
     0
176
     1
 90
        5
176
     1
 40
0.0
176
     1
 90
        0
176
     1
290
     0
176
     1
290
     1
176
     1
290
     1
176
     1
290
     0
176
     1
290
     0
176
     1
290
     0
176
     1
290
     0
176
     1
290
     0
176
     1
290
     0
176
     1
 90
       50
176
     1
 40
0.0
176
     1
 40
1.0
176
     1
 90
        0
176
     1
 62
    18
420
        0
176
     1
 90
       50
176
     1
 90
        3
176
     1
 62
     5
420
      255
176
     1
290
     0
176
     1
 90
       50
176
     1
 90
       50
176
     1
 90
       50
176
     1
290
     0
176
     1
 90
       50
176
     1
 62
   256
176
     0
 40
1.0
176
     0
 90
        2
176
     1
  1
strokes_ogs.tif
176
     1
290
     0
176
     1
 40
1.0
176
     1
 40
1.0
176
     1
  0
VISUALSTYLE
  5
41
102
{ACAD_REACTORS
330
2A
102
}
330
2A
100
AcDbVisualStyle
  2
Shaded with edges
 70
    26
177
     3
291
     0
 70
    58
 90
        2
176
     1
 90
        2
176
     1
 90
        1
176
     1
 90
        2
176
     1
 40
0.6
176
     1
 40
30.0
176
     1
 62
     7
420
 16777215
176
     1
 90
        1
176
     1
 90
       10
176
     1
 62
     7
176
     1
 62
   257
176
     1
 90
        2
176
     1
 90
        1
176
     1
 40
1.0
176
     1
 90
        8
176
     1
 62
   257
176
     1
 40
1.0
176
     1
 90
        1
176
     1
 90
        6
176
     1
 90
        2
176
     1
 62
     7
176
     1
 90
        3
176
     1
 90
        0
176
     1
 90
        0
176
     1
290
     0
176
     1
 90
        5
176
     1
 40
0.0
176
     1
 90
        0
176
     1
290
     0
176
     1
290
     1
176
     1
290
     1
176
     1
290
     0
176
     1
290
     0
176
     1
290
     0
176
     1
290
     0
176
     1
290
     0
176
     1
290
     0
176
     1
 90
       50
176
     1
 40
0.0
176
     1
 40
1.0
176
     1
 90
        0
176
     1
 62
    18
420
        0
176
     1
 90
       50
176
     1
 90
        3
176
     1
 62
     5
420
      255
176
     1
290
     0
176
     1
 90
       50
176
     1
 90
       50
176
     1
 90
       50
176
     1
290
     0
176
     1
 90
       50
176
     1
 62
   256
176
     0
 40
1.0
176
     0
 90
        2
176
     1
  1
strokes_ogs.tif
176
     1
290
     0
176
     1
 40
1.0
176
     1
 40
1.0
176
     1
  0
VISUALSTYLE
  5
3E
102
{ACAD_REACTORS
330
2A
102
}
330
2A
100
AcDbVisualStyle
  2
Shades of Gray
 70
    23
177
     3
291
     0
 70
    58
 90
        2
176
     1
 90
        2
176
     1
 90
        3
176
     1
 90
        0
176
     1
 40
0.6
176
     1
 40
30.0
176
     1
 62
     7
420
 16777215
176
     1
 90
        2
176
     1
 90
        2
176
     1
 62
     7
176
     1
 62
     7
176
     1
 90
        1
176
     1
 90
        1
176
     1
 40
40.0
176
     1
 90
        8
176
     1
 62
     7
176
     1
 40
1.0
176
     1
 90
        1
176
     1
 90
        6
176
     1
 90
        2
176
     1
 62
     7
176
     1
 90
        3
176
     1
 90
        0
176
     1
 90
        0
176
     1
290
     0
176
     1
 90
        1
176
     1
 40
0.0
176
     1
 90
        0
176
     1
290
     0
176
     1
290
     1
176
     1
290
     1
176
     1
290
     0
176
     1
290
     0
176
     1
290
     0
176
     1
290
     0
176
     1
290
     0
176
     1
290
     0
176
     1
 90
       50
176
     1
 40
0.0
176
     1
 40
1.0
176
     1
 90
        0
176
     1
 62
    18
420
        0
176
     1
 90
       50
176
     1
 90
        3
176
     1
 62
     5
420
      255
176
     1
290
     0
176
     1
 90
       50
176
     1
 90
       50
176
     1
 90
       50
176
     1
290
     0
176
     1
 90
       50
176
     1
 62
   256
176
     0
 40
1.0
176
     0
 90
        2
176
     1
  1
strokes_ogs.tif
176
     1
290
     0
176
     1
 40
1.0
176
     1
 40
1.0
176
     1
  0
VISUALSTYLE
  5
3F
102
{ACAD_REACTORS
330
2A
102
}
330
2A
100
AcDbVisualStyle
  2
Sketchy
 70
    24
177
     3
291
     0
 70
    58
 90
        1
176
     1
 90
        2
176
     1
 90
        2
176
     1
 90
        0
176
     1
 40
0.6
176
     1
 40
30.0
176
     1
 62
     7
420
 16777215
176
     1
 90
        2
176
     1
 90
        2
176
     1
 62
     7
176
     1
 62
     7
176
     1
 90
        1
176
     1
 90
        1
176
     1
 40
40.0
176
     1
 90
       11
176
     1
 62
     7
176
     1
 40
1.0
176
     1
 90
        1
176
     1
 90
        6
176
     1
 90
        2
176
     1
 62
     7
176
     1
 90
        6
176
     1
 90
        0
176
     1
 90
        0
176
     1
290
     0
176
     1
 90
        1
176
     1
 40
0.0
176
     1
 90
        0
176
     1
290
     0
176
     1
290
     1
176
     1
290
     1
176
     1
290
     0
176
     1
290
     0
176
     1
290
     0
176
     1
290
     0
176
     1
290
     0
176
     1
290
     0
176
     1
 90
       50
176
     1
 40
0.0
176
     1
 40
1.0
176
     1
 90
        0
176
     1
 62
    18
420
        0
176
     1
 90
       50
176
     1
 90
        3
176
     1
 62
     5
420
      255
176
     1
290
     0
176
     1
 90
       50
176
     1
 90
       50
176
     1
 90
       50
176
     1
290
     0
176
     1
 90
       50
176
     1
 62
   256
176
     0
 40
1.0
176
     0
 90
        2
176
     1
  1
strokes_ogs.tif
176
     1
290
     0
176
     1
 40
1.0
176
     1
 40
1.0
176
     1
  0
VISUALSTYLE
  5
37
102
{ACAD_REACTORS
330
2A
102
}
330
2A
100
AcDbVisualStyle
  2
Thicken
 70
    13
177
     3
291
     1
 70
    58
 90
        2
176
     1
 90
        2
176
     1
 90
        0
176
     1
 90
        0
176
     1
 40
0.6
176
     1
 40
30.0
176
     1
 62
     7
420
 16777215
176
     1
 90
        1
176
     1
 90
        4
176
     1
 62
     7
176
     1
 62
   257
176
     1
 90
        1
176
     1
 90
        1
176
     1
 40
1.0
176
     1
 90
       12
176
     1
 62
     7
176
     1
 40
1.0
176
     1
 90
        1
176
     1
 90
        6
176
     1
 90
        2
176
     1
 62
     7
176
     1
 90
        5
176
     1
 90
        0
176
     1
 90
        0
176
     1
290
     0
176
     1
 90
        1
176
     1
 40
0.0
176
     1
 90
        0
176
     1
290
     0
176
     1
290
     1
176
     1
290
     1
176
     1
290
     0
176
     1
290
     0
176
     1
290
     0
176
     1
290
     0
176
     1
290
     0
176
     1
290
     0
176
     1
 90
       50
176
     1
 40
0.0
176
     1
 40
1.0
176
     1
 90
        0
176
     1
 62
    18
420
        0
176
     1
 90
       50
176
     1
 90
        3
176
     1
 62
     5
420
      255
176
     1
290
     0
176
     1
 90
       50
176
     1
 90
       50
176
     1
 90
       50
176
     1
290
     0
176
     1
 90
       50
176
     1
 62
   256
176
     0
 40
1.0
176
     0
 90
        2
176
     1
  1
strokes_ogs.tif
176
     1
290
     0
176
     1
 40
1.0
176
     1
 40
1.0
176
     1
  0
VISUALSTYLE
  5
30
102
{ACAD_REACTORS
330
2A
102
}
330
2A
100
AcDbVisualStyle
  2
Wireframe
 70
     5
177
     3
291
     0
 70
    58
 90
        0
176
     1
 90
        2
176
     1
 90
        0
176
     1
 90
        0
176
     1
 40
0.6
176
     1
 40
30.0
176
     1
 62
     7
420
 16777215
176
     1
 90
        1
176
     1
 90
        4
176
     1
 62
     7
176
     1
 62
   257
176
     1
 90
        1
176
     1
 90
        1
176
     1
 40
1.0
176
     1
 90
        0
176
     1
 62
   257
176
     1
 40
1.0
176
     1
 90
        1
176
     1
 90
        6
176
     1
 90
        2
176
     1
 62
     7
176
     1
 90
        3
176
     1
 90
        0
176
     1
 90
        0
176
     1
290
     0
176
     1
 90
        1
176
     1
 40
0.0
176
     1
 90
        0
176
     1
290
     0
176
     1
290
     1
176
     1
290
     1
176
     1
290
     0
176
     1
290
     0
176
     1
290
     0
176
     1
290
     0
176
     1
290
     0
176
     1
290
     0
176
     1
 90
       50
176
     1
 40
0.0
176
     1
 40
1.0
176
     1
 90
        0
176
     1
 62
    18
420
        0
176
     1
 90
       50
176
     1
 90
        3
176
     1
 62
     5
420
      255
176
     1
290
     0
176
     1
 90
       50
176
     1
 90
       50
176
     1
 90
       50
176
     1
290
     0
176
     1
 90
       50
176
     1
 62
   256
176
     0
 40
1.0
176
     0
 90
        2
176
     1
  1
strokes_ogs.tif
176
     1
290
     0
176
     1
 40
1.0
176
     1
 40
1.0
176
     1
  0
VISUALSTYLE
  5
40
102
{ACAD_REACTORS
330
2A
102
}
330
2A
100
AcDbVisualStyle
  2
X-Ray
 70
    25
177
     3
291
     0
 70
    58
 90
        2
176
     1
 90
        2
176
     1
 90
        1
176
     1
 90
        1
176
     1
 40
0.5
176
     1
 40
30.0
176
     1
 62
     7
420
 16777215
176
     1
 90
        1
176
     1
 90
        0
176
     1
 62
     7
176
     1
 62
   257
176
     1
 90
        1
176
     1
 90
        1
176
     1
 40
1.0
176
     1
 90
        8
176
     1
 62
     7
176
     1
 40
1.0
176
     1
 90
        1
176
     1
 90
        6
176
     1
 90
        2
176
     1
 62
     7
176
     1
 90
        3
176
     1
 90
        0
176
     1
 90
        0
176
     1
290
     0
176
     1
 90
       13
176
     1
 40
0.0
176
     1
 90
        0
176
     1
290
     0
176
     1
290
     1
176
     1
290
     1
176
     1
290
     0
176
     1
290
     0
176
     1
290
     0
176
     1
290
     0
176
     1
290
     0
176
     1
290
     0
176
     1
 90
       50
176
     1
 40
0.0
176
     1
 40
1.0
176
     1
 90
        0
176
     1
 62
    18
420
        0
176
     1
 90
       50
176
     1
 90
        3
176
     1
 62
     5
420
      255
176
     1
290
     0
176
     1
 90
       50
176
     1
 90
       50
176
     1
 90
       50
176
     1
290
     0
176
     1
 90
       50
176
     1
 62
   256
176
     0
 40
1.0
176
     0
 90
        2
176
     1
  1
strokes_ogs.tif
176
     1
290
     0
176
     1
 40
1.0
176
     1
 40
1.0
176
     1
  0
DICTIONARYVAR
  5
B5
102
{ACAD_REACTORS
330
B4
102
}
330
B4
100
DictionaryVariables
280
     0
  1
1:1
  0
DICTIONARYVAR
  5
BA
102
{ACAD_REACTORS
330
B4
102
}
330
B4
100
DictionaryVariables
280
     0
  1
Standard
  0
DICTIONARYVAR
  5
B9
102
{ACAD_REACTORS
330
B4
102
}
330
B4
100
DictionaryVariables
280
     0
  1
Standard
  0
DICTIONARY
  5
B6
330
5A
100
AcDbDictionary
280
     1
281
     1
  3
ACAD_ROUNDTRIP_2008_TABLESTYLE_CELLSTYLEMAP
360
B7
  0
CELLSTYLEMAP
  5
B7
102
{ACAD_REACTORS
330
B6
102
}
330
B6
100
AcDbCellStyleMap
 90
        3
300
CELLSTYLE
  1
TABLEFORMAT_BEGIN
 90
        5
170
     1
 91
        0
 92
    32768
 62
   257
 93
        1
300
CONTENTFORMAT
  1
CONTENTFORMAT_BEGIN
 90
        0
 91
        0
 92
        4
 93
        0
300

 40
0.0
140
1.0
 94
        5
 62
     0
340
11
144
0.25
309
CONTENTFORMAT_END
171
     1
301
MARGIN
  1
CELLMARGIN_BEGIN
 40
0.06
 40
0.06
 40
0.06
 40
0.06
 40
0.06
 40
0.06
309
CELLMARGIN_END
 94
        6
 95
        1
302
GRIDFORMAT
  1
GRIDFORMAT_BEGIN
 90
        0
 91
        1
 62
     0
 92
       -2
340
14
 93
        0
 40
0.045
309
GRIDFORMAT_END
 95
        2
302
GRIDFORMAT
  1
GRIDFORMAT_BEGIN
 90
        0
 91
        1
 62
     0
 92
       -2
340
14
 93
        0
 40
0.045
309
GRIDFORMAT_END
 95
        4
302
GRIDFORMAT
  1
GRIDFORMAT_BEGIN
 90
        0
 91
        1
 62
     0
 92
       -2
340
14
 93
        0
 40
0.045
309
GRIDFORMAT_END
 95
        8
302
GRIDFORMAT
  1
GRIDFORMAT_BEGIN
 90
        0
 91
        1
 62
     0
 92
       -2
340
14
 93
        0
 40
0.045
309
GRIDFORMAT_END
 95
       16
302
GRIDFORMAT
  1
GRIDFORMAT_BEGIN
 90
        0
 91
        1
 62
     0
 92
       -2
340
14
 93
        0
 40
0.045
309
GRIDFORMAT_END
 95
       32
302
GRIDFORMAT
  1
GRIDFORMAT_BEGIN
 90
        0
 91
        1
 62
     0
 92
       -2
340
14
 93
        0
 40
0.045
309
GRIDFORMAT_END
309
TABLEFORMAT_END
  1
CELLSTYLE_BEGIN
 90
        1
 91
        1
300
_TITLE
309
CELLSTYLE_END
300
CELLSTYLE
  1
TABLEFORMAT_BEGIN
 90
        5
170
     1
 91
        0
 92
        0
 62
   257
 93
        1
300
CONTENTFORMAT
  1
CONTENTFORMAT_BEGIN
 90
        0
 91
        0
 92
        4
 93
        0
300

 40
0.0
140
1.0
 94
        5
 62
     0
340
11
144
0.18
309
CONTENTFORMAT_END
171
     1
301
MARGIN
  1
CELLMARGIN_BEGIN
 40
0.06
 40
0.06
 40
0.06
 40
0.06
 40
0.06
 40
0.06
309
CELLMARGIN_END
 94
        6
 95
        1
302
GRIDFORMAT
  1
GRIDFORMAT_BEGIN
 90
        0
 91
        1
 62
     0
 92
       -2
340
14
 93
        0
 40
0.045
309
GRIDFORMAT_END
 95
        2
302
GRIDFORMAT
  1
GRIDFORMAT_BEGIN
 90
        0
 91
        1
 62
     0
 92
       -2
340
14
 93
        0
 40
0.045
309
GRIDFORMAT_END
 95
        4
302
GRIDFORMAT
  1
GRIDFORMAT_BEGIN
 90
        0
 91
        1
 62
     0
 92
       -2
340
14
 93
        0
 40
0.045
309
GRIDFORMAT_END
 95
        8
302
GRIDFORMAT
  1
GRIDFORMAT_BEGIN
 90
        0
 91
        1
 62
     0
 92
       -2
340
14
 93
        0
 40
0.045
309
GRIDFORMAT_END
 95
       16
302
GRIDFORMAT
  1
GRIDFORMAT_BEGIN
 90
        0
 91
        1
 62
     0
 92
       -2
340
14
 93
        0
 40
0.045
309
GRIDFORMAT_END
 95
       32
302
GRIDFORMAT
  1
GRIDFORMAT_BEGIN
 90
        0
 91
        1
 62
     0
 92
       -2
340
14
 93
        0
 40
0.045
309
GRIDFORMAT_END
309
TABLEFORMAT_END
  1
CELLSTYLE_BEGIN
 90
        2
 91
        1
300
_HEADER
309
CELLSTYLE_END
300
CELLSTYLE
  1
TABLEFORMAT_BEGIN
 90
        5
170
     1
 91
        0
 92
        0
 62
   257
 93
        1
300
CONTENTFORMAT
  1
CONTENTFORMAT_BEGIN
 90
        0
 91
        0
 92
        4
 93
        0
300

 40
0.0
140
1.0
 94
        2
 62
     0
340
11
144
0.18
309
CONTENTFORMAT_END
171
     1
301
MARGIN
  1
CELLMARGIN_BEGIN
 40
0.06
 40
0.06
 40
0.06
 40
0.06
 40
0.06
 40
0.06
309
CELLMARGIN_END
 94
        6
 95
        1
302
GRIDFORMAT
  1
GRIDFORMAT_BEGIN
 90
        0
 91
        1
 62
     0
 92
       -2
340
14
 93
        0
 40
0.045
309
GRIDFORMAT_END
 95
        2
302
GRIDFORMAT
  1
GRIDFORMAT_BEGIN
 90
        0
 91
        1
 62
     0
 92
       -2
340
14
 93
        0
 40
0.045
309
GRIDFORMAT_END
 95
        4
302
GRIDFORMAT
  1
GRIDFORMAT_BEGIN
 90
        0
 91
        1
 62
     0
 92
       -2
340
14
 93
        0
 40
0.045
309
GRIDFORMAT_END
 95
        8
302
GRIDFORMAT
  1
GRIDFORMAT_BEGIN
 90
        0
 91
        1
 62
     0
 92
       -2
340
14
 93
        0
 40
0.045
309
GRIDFORMAT_END
 95
       16
302
GRIDFORMAT
  1
GRIDFORMAT_BEGIN
 90
        0
 91
        1
 62
     0
 92
       -2
340
14
 93
        0
 40
0.045
309
GRIDFORMAT_END
 95
       32
302
GRIDFORMAT
  1
GRIDFORMAT_BEGIN
 90
        0
 91
        1
 62
     0
 92
       -2
340
14
 93
        0
 40
0.045
309
GRIDFORMAT_END
309
TABLEFORMAT_END
  1
CELLSTYLE_BEGIN
 90
        3
 91
        2
300
_DATA
309
CELLSTYLE_END
  0
ENDSEC
  0
EOF
