  0
SECTION
  2
HEADER
  9
$ACADVER
  1
AC1032
  9
$ACADMAINTVER
 90
       55
  9
$DWGCODEPAGE
  3
ANSI_1251
  9
$LASTSAVEDBY
  1
torde
  9
$REQUIREDVERSIONS
160
                 0
  9
$INSBASE
 10
0.0
 20
0.0
 30
0.0
  9
$EXTMIN
 10
-20.74721
 20
-20.12788
 30
0.0
  9
$EXTMAX
 10
20.74722
 20
20.12788
 30
0.0
  9
$LIMMIN
 10
0.0
 20
0.0
  9
$LIMMAX
 10
12.0
 20
9.0
  9
$ORTHOMODE
 70
     0
  9
$REGENMODE
 70
     1
  9
$FILLMODE
 70
     1
  9
$QTEXTMODE
 70
     0
  9
$MIRRTEXT
 70
     1
  9
$LTSCALE
 40
1.0
  9
$ATTMODE
 70
     1
  9
$TEXTSIZE
 40
0.2
  9
$TRACEWID
 40
0.05
  9
$TEXTSTYLE
  7
Standard
  9
$CLAYER
  8
0
  9
$CELTYPE
  6
ByLayer
  9
$CECOLOR
 62
   256
  9
$CELTSCALE
 40
1.0
  9
$DISPSILH
 70
     0
  9
$DIMSCALE
 40
1.0
  9
$DIMASZ
 40
0.18
  9
$DIMEXO
 40
0.0625
  9
$DIMDLI
 40
0.38
  9
$DIMRND
 40
0.0
  9
$DIMDLE
 40
0.0
  9
$DIMEXE
 40
0.18
  9
$DIMTP
 40
0.0
  9
$DIMTM
 40
0.0
  9
$DIMTXT
 40
0.18
  9
$DIMCEN
 40
0.09
  9
$DIMTSZ
 40
0.0
  9
$DIMTOL
 70
     0
  9
$DIMLIM
 70
     0
  9
$DIMTIH
 70
     1
  9
$DIMTOH
 70
     1
  9
$DIMSE1
 70
     0
  9
$DIMSE2
 70
     0
  9
$DIMTAD
 70
     0
  9
$DIMZIN
 70
     0
  9
$DIMBLK
  1

  9
$DIMASO
 70
     1
  9
$DIMSHO
 70
     1
  9
$DIMPOST
  1

  9
$DIMAPOST
  1

  9
$DIMALT
 70
     0
  9
$DIMALTD
 70
     2
  9
$DIMALTF
 40
25.4
  9
$DIMLFAC
 40
1.0
  9
$DIMTOFL
 70
     0
  9
$DIMTVP
 40
0.0
  9
$DIMTIX
 70
     0
  9
$DIMSOXD
 70
     0
  9
$DIMSAH
 70
     0
  9
$DIMBLK1
  1

  9
$DIMBLK2
  1

  9
$DIMSTYLE
  2
Standard
  9
$DIMCLRD
 70
     0
  9
$DIMCLRE
 70
     0
  9
$DIMCLRT
 70
     0
  9
$DIMTFAC
 40
1.0
  9
$DIMGAP
 40
0.09
  9
$DIMJUST
 70
     0
  9
$DIMSD1
 70
     0
  9
$DIMSD2
 70
     0
  9
$DIMTOLJ
 70
     1
  9
$DIMTZIN
 70
     0
  9
$DIMALTZ
 70
     0
  9
$DIMALTTZ
 70
     0
  9
$DIMUPT
 70
     0
  9
$DIMDEC
 70
     4
  9
$DIMTDEC
 70
     4
  9
$DIMALTU
 70
     2
  9
$DIMALTTD
 70
     2
  9
$DIMTXSTY
  7
Standard
  9
$DIMAUNIT
 70
     0
  9
$DIMADEC
 70
     0
  9
$DIMALTRND
 40
0.0
  9
$DIMAZIN
 70
     0
  9
$DIMDSEP
 70
    46
  9
$DIMATFIT
 70
     3
  9
$DIMFRAC
 70
     0
  9
$DIMLDRBLK
  1

  9
$DIMLUNIT
 70
     2
  9
$DIMLWD
 70
    -2
  9
$DIMLWE
 70
    -2
  9
$DIMTMOVE
 70
     0
  9
$DIMFXL
 40
1.0
  9
$DIMFXLON
 70
     0
  9
$DIMJOGANG
 40
0.7853981633974483
  9
$DIMTFILL
 70
     0
  9
$DIMTFILLCLR
 70
     0
  9
$DIMARCSYM
 70
     0
  9
$DIMLTYPE
  6

  9
$DIMLTEX1
  6

  9
$DIMLTEX2
  6

  9
$DIMTXTDIRECTION
 70
     0
  9
$LUNITS
 70
     2
  9
$LUPREC
 70
     4
  9
$SKETCHINC
 40
0.1
  9
$FILLETRAD
 40
0.0
  9
$AUNITS
 70
     0
  9
$AUPREC
 70
     0
  9
$MENU
  1
.
  9
$ELEVATION
 40
0.0
  9
$PELEVATION
 40
0.0
  9
$THICKNESS
 40
0.0
  9
$LIMCHECK
 70
     0
  9
$CHAMFERA
 40
0.0
  9
$CHAMFERB
 40
0.0
  9
$CHAMFERC
 40
0.0
  9
$CHAMFERD
 40
0.0
  9
$SKPOLY
 70
     0
  9
$TDCREATE
 40
2461096.633057778
  9
$TDUCREATE
 40
2461096.508057778
  9
$TDUPDATE
 40
2461096.633057778
  9
$TDUUPDATE
 40
2461096.508057778
  9
$TDINDWG
 40
0.0000000116
  9
$TDUSRTIMER
 40
0.0000000116
  9
$USRTIMER
 70
     1
  9
$ANGBASE
 50
0.0
  9
$ANGDIR
 70
     0
  9
$PDMODE
 70
     0
  9
$PDSIZE
 40
0.0
  9
$PLINEWID
 40
0.0
  9
$SPLFRAME
 70
     0
  9
$SPLINETYPE
 70
     6
  9
$SPLINESEGS
 70
     8
  9
$HANDSEED
  5
C6
  9
$SURFTAB1
 70
     6
  9
$SURFTAB2
 70
     6
  9
$SURFTYPE
 70
     6
  9
$SURFU
 70
     6
  9
$SURFV
 70
     6
  9
$UCSBASE
  2

  9
$UCSNAME
  2

  9
$UCSORG
 10
0.0
 20
0.0
 30
0.0
  9
$UCSXDIR
 10
1.0
 20
0.0
 30
0.0
  9
$UCSYDIR
 10
0.0
 20
1.0
 30
0.0
  9
$UCSORTHOREF
  2

  9
$UCSORTHOVIEW
 70
     0
  9
$UCSORGTOP
 10
0.0
 20
0.0
 30
0.0
  9
$UCSORGBOTTOM
 10
0.0
 20
0.0
 30
0.0
  9
$UCSORGLEFT
 10
0.0
 20
0.0
 30
0.0
  9
$UCSORGRIGHT
 10
0.0
 20
0.0
 30
0.0
  9
$UCSORGFRONT
 10
0.0
 20
0.0
 30
0.0
  9
$UCSORGBACK
 10
0.0
 20
0.0
 30
0.0
  9
$PUCSBASE
  2

  9
$PUCSNAME
  2

  9
$PUCSORG
 10
0.0
 20
0.0
 30
0.0
  9
$PUCSXDIR
 10
1.0
 20
0.0
 30
0.0
  9
$PUCSYDIR
 10
0.0
 20
1.0
 30
0.0
  9
$PUCSORTHOREF
  2

  9
$PUCSORTHOVIEW
 70
     0
  9
$PUCSORGTOP
 10
0.0
 20
0.0
 30
0.0
  9
$PUCSORGBOTTOM
 10
0.0
 20
0.0
 30
0.0
  9
$PUCSORGLEFT
 10
0.0
 20
0.0
 30
0.0
  9
$PUCSORGRIGHT
 10
0.0
 20
0.0
 30
0.0
  9
$PUCSORGFRONT
 10
0.0
 20
0.0
 30
0.0
  9
$PUCSORGBACK
 10
0.0
 20
0.0
 30
0.0
  9
$USERI1
 70
     0
  9
$USERI2
 70
     0
  9
$USERI3
 70
     0
  9
$USERI4
 70
     0
  9
$USERI5
 70
     0
  9
$USERR1
 40
0.0
  9
$USERR2
 40
0.0
  9
$USERR3
 40
0.0
  9
$USERR4
 40
0.0
  9
$USERR5
 40
0.0
  9
$WORLDVIEW
 70
     1
  9
$SHADEDGE
 70
     3
  9
$SHADEDIF
 70
    70
  9
$TILEMODE
 70
     1
  9
$MAXACTVP
 70
    64
  9
$PINSBASE
 10
0.0
 20
0.0
 30
0.0
  9
$PLIMCHECK
 70
     0
  9
$PEXTMIN
 10
1.000000000000000E+20
 20
1.000000000000000E+20
 30
1.000000000000000E+20
  9
$PEXTMAX
 10
-1.000000000000000E+20
 20
-1.000000000000000E+20
 30
-1.000000000000000E+20
  9
$PLIMMIN
 10
0.0
 20
0.0
  9
$PLIMMAX
 10
12.0
 20
9.0
  9
$UNITMODE
 70
     0
  9
$VISRETAIN
 70
     1
  9
$PLINEGEN
 70
     0
  9
$PSLTSCALE
 70
     1
  9
$TREEDEPTH
 70
  3020
  9
$CMLSTYLE
  2
Standard
  9
$CMLJUST
 70
     0
  9
$CMLSCALE
 40
1.0
  9
$PROXYGRAPHICS
 70
     1
  9
$MEASUREMENT
 70
     0
  9
$CELWEIGHT
370
    -1
  9
$ENDCAPS
280
     0
  9
$JOINSTYLE
280
     0
  9
$LWDISPLAY
290
     0
  9
$INSUNITS
 70
     5
  9
$HYPERLINKBASE
  1

  9
$STYLESHEET
  1

  9
$XEDIT
290
     1
  9
$CEPSNTYPE
380
     0
  9
$PSTYLEMODE
290
     1
  9
$FINGERPRINTGUID
  2
{79128df1-b265-42dd-a2b9-df934de490eb}
  9
$VERSIONGUID
  2
{FAEB1C32-E019-11D5-929B-00C0DF256EC4}
  9
$EXTNAMES
290
     1
  9
$PSVPSCALE
 40
0.0
  9
$OLESTARTUP
290
     0
  9
$SORTENTS
280
   127
  9
$INDEXCTL
280
     0
  9
$HIDETEXT
280
     1
  9
$XCLIPFRAME
280
     2
  9
$HALOGAP
280
     0
  9
$OBSCOLOR
 70
   257
  9
$OBSLTYPE
280
     0
  9
$INTERSECTIONDISPLAY
280
     0
  9
$INTERSECTIONCOLOR
 70
   257
  9
$DIMASSOC
280
     2
  9
$PROJECTNAME
  1

  9
$CAMERADISPLAY
290
     0
  9
$LENSLENGTH
 40
50.0
  9
$CAMERAHEIGHT
 40
0.0
  9
$STEPSPERSEC
 40
2.0
  9
$STEPSIZE
 40
6.0
  9
$3DDWFPREC
 40
2.0
  9
$PSOLWIDTH
 40
0.25
  9
$PSOLHEIGHT
 40
4.0
  9
$LOFTANG1
 40
1.570796326794897
  9
$LOFTANG2
 40
1.570796326794897
  9
$LOFTMAG1
 40
0.0
  9
$LOFTMAG2
 40
0.0
  9
$LOFTPARAM
 70
     7
  9
$LOFTNORMALS
280
     1
  9
$LATITUDE
 40
37.795
  9
$LONGITUDE
 40
-122.394
  9
$NORTHDIRECTION
 40
0.0
  9
$TIMEZONE
 70
 -8000
  9
$LIGHTGLYPHDISPLAY
280
     1
  9
$TILEMODELIGHTSYNCH
280
     1
  9
$CMATERIAL
347
44
  9
$SOLIDHIST
280
     0
  9
$SHOWHIST
280
     1
  9
$DWFFRAME
280
     2
  9
$DGNFRAME
280
     2
  9
$REALWORLDSCALE
290
     1
  9
$INTERFERECOLOR
 62
   256
  9
$CSHADOW
280
     0
  9
$SHADOWPLANELOCATION
 40
0.0
  0
ENDSEC
  0
SECTION
  2
CLASSES
  0
CLASS
  1
ACDBDICTIONARYWDFLT
  2
AcDbDictionaryWithDefault
  3
ObjectDBX Classes
 90
        0
 91
        3
280
     0
281
     0
  0
CLASS
  1
VISUALSTYLE
  2
AcDbVisualStyle
  3
ObjectDBX Classes
 90
     4095
 91
        3
280
     0
281
     0
  0
CLASS
  1
MATERIAL
  2
AcDbMaterial
  3
ObjectDBX Classes
 90
     1153
 91
        3
280
     0
281
     0
  0
CLASS
  1
SCALE
  2
AcDbScale
  3
ObjectDBX Classes
 90
     1153
 91
        3
280
     0
281
     0
  0
CLASS
  1
TABLESTYLE
  2
AcDbTableStyle
  3
ObjectDBX Classes
 90
     4095
 91
        3
280
     0
281
     0
  0
CLASS
  1
MLEADERSTYLE
  2
AcDbMLeaderStyle
  3
ACDB_MLEADERSTYLE_CLASS
 90
     4095
 91
        3
280
     0
281
     0
  0
CLASS
  1
SUN
  2
AcDbSun
  3
SCENEOE
 90
     1153
 91
        3
280
     0
281
     0
  0
CLASS
  1
DICTIONARYVAR
  2
AcDbDictionaryVar
  3
ObjectDBX Classes
 90
        0
 91
        3
280
     0
281
     0
  0
CLASS
  1
CELLSTYLEMAP
  2
AcDbCellStyleMap
  3
ObjectDBX Classes
 90
     1152
 91
        3
280
     0
281
     0
  0
ENDSEC
  0
SECTION
  2
TABLES
  0
TABLE
  2
VPORT
  5
8
330
0
100
AcDbSymbolTable
 70
     1
  0
VPORT
  5
29
330
8
100
AcDbSymbolTableRecord
100
AcDbViewportTableRecord
  2
*Active
 70
     0
 10
0.0
 20
0.0
 11
1.0
 21
1.0
 12
10.42990654205607
 22
4.5
 13
0.0
 23
0.0
 14
0.5
 24
0.5
 15
0.5
 25
0.5
 16
0.0
 26
0.0
 36
1.0
 17
0.0
 27
0.0
 37
0.0
 40
9.0
 41
1.972972972850329
 42
50.0
 43
0.0
 44
0.0
 50
0.0
 51
0.0
 71
     0
 72
   100
 73
     1
 74
     3
 75
     0
 76
     0
 77
     0
 78
     0
281
     0
 65
     1
110
0.0
120
0.0
130
0.0
111
1.0
121
0.0
131
0.0
112
0.0
122
1.0
132
0.0
 79
     0
146
0.0
348
2F
 60
     3
 61
     5
292
     1
282
     1
141
0.0
142
0.0
 63
   250
361
5D
  0
ENDTAB
  0
TABLE
  2
LTYPE
  5
5
330
0
100
AcDbSymbolTable
 70
     1
  0
LTYPE
  5
14
330
5
100
AcDbSymbolTableRecord
100
AcDbLinetypeTableRecord
  2
ByBlock
 70
     0
  3

 72
    65
 73
     0
 40
0.0
  0
LTYPE
  5
15
330
5
100
AcDbSymbolTableRecord
100
AcDbLinetypeTableRecord
  2
ByLayer
 70
     0
  3

 72
    65
 73
     0
 40
0.0
  0
LTYPE
  5
16
330
5
100
AcDbSymbolTableRecord
100
AcDbLinetypeTableRecord
  2
Continuous
 70
     0
  3
Solid line
 72
    65
 73
     0
 40
0.0
  0
ENDTAB
  0
TABLE
  2
LAYER
  5
2
330
0
100
AcDbSymbolTable
 70
     2
  0
LAYER
  5
10
330
2
100
AcDbSymbolTableRecord
100
AcDbLayerTableRecord
  2
0
 70
     0
 62
     7
  6
Continuous
370
    -3
390
F
347
46
348
0
  0
LAYER
  5
5F
330
2
100
AcDbSymbolTableRecord
100
AcDbLayerTableRecord
  2
Layer 1
 70
     0
 62
     7
  6
Continuous
370
    -3
390
F
347
46
348
0
  0
ENDTAB
  0
TABLE
  2
STYLE
  5
3
330
0
100
AcDbSymbolTable
 70
     1
  0
STYLE
  5
11
330
3
100
AcDbSymbolTableRecord
100
AcDbTextStyleTableRecord
  2
Standard
 70
     0
 40
0.0
 41
1.0
 50
0.0
 71
     0
 42
0.2
  3
txt
  4

  0
ENDTAB
  0
TABLE
  2
VIEW
  5
6
330
0
100
AcDbSymbolTable
 70
     0
  0
ENDTAB
  0
TABLE
  2
UCS
  5
7
330
0
100
AcDbSymbolTable
 70
     0
  0
ENDTAB
  0
TABLE
  2
APPID
  5
9
330
0
100
AcDbSymbolTable
 70
     2
  0
APPID
  5
12
330
9
100
AcDbSymbolTableRecord
100
AcDbRegAppTableRecord
  2
ACAD
 70
     0
  0
APPID
  5
5E
330
9
100
AcDbSymbolTableRecord
100
AcDbRegAppTableRecord
  2
ODA
 70
     0
  0
ENDTAB
  0
TABLE
  2
DIMSTYLE
  5
A
330
0
100
AcDbSymbolTable
 70
     1
100
AcDbDimStyleTable
  0
DIMSTYLE
105
27
330
A
100
AcDbSymbolTableRecord
100
AcDbDimStyleTableRecord
  2
Standard
 70
     0
178
     0
340
11
  0
ENDTAB
  0
TABLE
  2
BLOCK_RECORD
  5
1
330
0
100
AcDbSymbolTable
 70
     1
  0
BLOCK_RECORD
  5
1F
330
1
100
AcDbSymbolTableRecord
100
AcDbBlockTableRecord
  2
*Model_Space
340
22
 70
     0
280
     1
281
     0
  0
BLOCK_RECORD
  5
1B
330
1
100
AcDbSymbolTableRecord
100
AcDbBlockTableRecord
  2
*Paper_Space
340
1E
 70
     0
280
     1
281
     0
  0
BLOCK_RECORD
  5
23
330
1
100
AcDbSymbolTableRecord
100
AcDbBlockTableRecord
  2
*Paper_Space0
340
26
 70
     0
280
     1
281
     0
  0
ENDTAB
  0
ENDSEC
  0
SECTION
  2
BLOCKS
  0
BLOCK
  5
20
330
1F
100
AcDbEntity
  8
0
100
AcDbBlockBegin
  2
*Model_Space
 70
     0
 10
0.0
 20
0.0
 30
0.0
  3
*Model_Space
  1

  0
ENDBLK
  5
21
330
1F
100
AcDbEntity
  8
0
100
AcDbBlockEnd
  0
BLOCK
  5
1C
330
1B
100
AcDbEntity
 67
     1
  8
0
100
AcDbBlockBegin
  2
*Paper_Space
 70
     0
 10
0.0
 20
0.0
 30
0.0
  3
*Paper_Space
  1

  0
ENDBLK
  5
1D
330
1B
100
AcDbEntity
 67
     1
  8
0
100
AcDbBlockEnd
  0
BLOCK
  5
24
330
23
100
AcDbEntity
  8
0
100
AcDbBlockBegin
  2
*Paper_Space0
 70
     0
 10
0.0
 20
0.0
 30
0.0
  3
*Paper_Space0
  1

  0
ENDBLK
  5
25
330
23
100
AcDbEntity
  8
0
100
AcDbBlockEnd
  0
ENDSEC
  0
SECTION
  2
ENTITIES
  0
SPLINE
  5
60
330
1F
100
AcDbEntity
  8
Layer 1
 62
   250
370
     9
100
AcDbSpline
210
0.0
220
0.0
230
1.0
 70
    11
 71
     3
 72
    17
 73
    13
 74
     0
 42
0.0000000001
 43
0.0000000001
 40
0.0
 40
0.0
 40
0.0
 40
0.0
 40
0.25
 40
0.25
 40
0.25
 40
0.5
 40
0.5
 40
0.5
 40
0.75
 40
0.75
 40
0.75
 40
1.0
 40
1.0
 40
1.0
 40
1.0
 10
0.23737
 20
10.12407
 30
0.0
 10
0.23737
 20
15.64691
 30
0.0
 10
-4.23977
 20
20.12406
 30
0.0
 10
-9.76261
 20
20.12407
 30
0.0
 10
-15.28545
 20
20.12408
 30
0.0
 10
-19.76261
 20
15.64694
 30
0.0
 10
-19.76262
 20
10.1241
 30
0.0
 10
-19.76263
 20
4.60126
 30
0.0
 10
-15.2855
 20
0.1241
 30
0.0
 10
-9.76266
 20
0.12408
 30
0.0
 10
-4.23983
 20
0.12406
 30
0.0
 10
0.23734
 20
4.60118
 30
0.0
 10
0.23737
 20
10.12407
 30
0.0
  0
SPLINE
  5
61
330
1F
100
AcDbEntity
  8
Layer 1
 62
   250
370
     9
100
AcDbSpline
210
0.0
220
0.0
230
1.0
 70
    11
 71
     3
 72
    17
 73
    13
 74
     0
 42
0.0000000001
 43
0.0000000001
 40
0.0
 40
0.0
 40
0.0
 40
0.0
 40
0.25
 40
0.25
 40
0.25
 40
0.5
 40
0.5
 40
0.5
 40
0.75
 40
0.75
 40
0.75
 40
1.0
 40
1.0
 40
1.0
 40
1.0
 10
-9.5002
 20
19.41202
 30
0.0
 10
-9.5002
 20
19.41202
 30
0.0
 10
-10.02504
 20
19.41202
 30
0.0
 10
-10.02504
 20
19.41202
 30
0.0
 10
-10.02504
 20
19.41202
 30
0.0
 10
-10.02504
 20
19.71202
 30
0.0
 10
-10.02504
 20
19.71202
 30
0.0
 10
-10.02504
 20
19.71202
 30
0.0
 10
-9.5002
 20
19.71202
 30
0.0
 10
-9.5002
 20
19.71202
 30
0.0
 10
-9.5002
 20
19.71202
 30
0.0
 10
-9.5002
 20
19.41202
 30
0.0
 10
-9.5002
 20
19.41202
 30
0.0
  0
SPLINE
  5
62
330
1F
100
AcDbEntity
  8
Layer 1
 62
   250
370
     9
100
AcDbSpline
210
0.0
220
0.0
230
1.0
 70
    11
 71
     3
 72
    17
 73
    13
 74
     0
 42
0.0000000001
 43
0.0000000001
 40
0.0
 40
0.0
 40
0.0
 40
0.0
 40
0.25
 40
0.25
 40
0.25
 40
0.5
 40
0.5
 40
0.5
 40
0.75
 40
0.75
 40
0.75
 40
1.0
 40
1.0
 40
1.0
 40
1.0
 10
-4.52042
 20
17.79572
 30
0.0
 10
-4.52042
 20
17.79572
 30
0.0
 10
-4.96195
 20
18.07947
 30
0.0
 10
-4.96195
 20
18.07947
 30
0.0
 10
-4.96195
 20
18.07947
 30
0.0
 10
-4.79975
 20
18.33184
 30
0.0
 10
-4.79975
 20
18.33184
 30
0.0
 10
-4.79975
 20
18.33184
 30
0.0
 10
-4.35823
 20
18.04809
 30
0.0
 10
-4.35823
 20
18.04809
 30
0.0
 10
-4.35823
 20
18.04809
 30
0.0
 10
-4.52042
 20
17.79572
 30
0.0
 10
-4.52042
 20
17.79572
 30
0.0
  0
SPLINE
  5
63
330
1F
100
AcDbEntity
  8
Layer 1
 62
   250
370
     9
100
AcDbSpline
210
0.0
220
0.0
230
1.0
 70
    11
 71
     3
 72
    17
 73
    13
 74
     0
 42
0.0000000001
 43
0.0000000001
 40
0.0
 40
0.0
 40
0.0
 40
0.0
 40
0.25
 40
0.25
 40
0.25
 40
0.5
 40
0.5
 40
0.5
 40
0.75
 40
0.75
 40
0.75
 40
1.0
 40
1.0
 40
1.0
 40
1.0
 10
-1.205
 20
13.74372
 30
0.0
 10
-1.205
 20
13.74372
 30
0.0
 10
-1.42303
 20
14.22113
 30
0.0
 10
-1.42303
 20
14.22113
 30
0.0
 10
-1.42303
 20
14.22113
 30
0.0
 10
-1.15014
 20
14.34575
 30
0.0
 10
-1.15014
 20
14.34575
 30
0.0
 10
-1.15014
 20
14.34575
 30
0.0
 10
-0.93211
 20
13.86834
 30
0.0
 10
-0.93211
 20
13.86834
 30
0.0
 10
-0.93211
 20
13.86834
 30
0.0
 10
-1.205
 20
13.74372
 30
0.0
 10
-1.205
 20
13.74372
 30
0.0
  0
SPLINE
  5
64
330
1F
100
AcDbEntity
  8
Layer 1
 62
   250
370
     9
100
AcDbSpline
210
0.0
220
0.0
230
1.0
 70
    11
 71
     3
 72
    17
 73
    13
 74
     0
 42
0.0000000001
 43
0.0000000001
 40
0.0
 40
0.0
 40
0.0
 40
0.0
 40
0.25
 40
0.25
 40
0.25
 40
0.5
 40
0.5
 40
0.5
 40
0.75
 40
0.75
 40
0.75
 40
1.0
 40
1.0
 40
1.0
 40
1.0
 10
-18.10222
 20
14.22113
 30
0.0
 10
-18.10222
 20
14.22113
 30
0.0
 10
-18.32025
 20
13.74372
 30
0.0
 10
-18.32025
 20
13.74372
 30
0.0
 10
-18.32025
 20
13.74372
 30
0.0
 10
-18.59314
 20
13.86834
 30
0.0
 10
-18.59314
 20
13.86834
 30
0.0
 10
-18.59314
 20
13.86834
 30
0.0
 10
-18.37511
 20
14.34575
 30
0.0
 10
-18.37511
 20
14.34575
 30
0.0
 10
-18.37511
 20
14.34575
 30
0.0
 10
-18.10222
 20
14.22113
 30
0.0
 10
-18.10222
 20
14.22113
 30
0.0
  0
SPLINE
  5
65
330
1F
100
AcDbEntity
  8
Layer 1
 62
   250
370
     9
100
AcDbSpline
210
0.0
220
0.0
230
1.0
 70
    11
 71
     3
 72
    17
 73
    13
 74
     0
 42
0.0000000001
 43
0.0000000001
 40
0.0
 40
0.0
 40
0.0
 40
0.0
 40
0.25
 40
0.25
 40
0.25
 40
0.5
 40
0.5
 40
0.5
 40
0.75
 40
0.75
 40
0.75
 40
1.0
 40
1.0
 40
1.0
 40
1.0
 10
-14.5633
 20
18.07947
 30
0.0
 10
-14.5633
 20
18.07947
 30
0.0
 10
-15.00483
 20
17.79572
 30
0.0
 10
-15.00483
 20
17.79572
 30
0.0
 10
-15.00483
 20
17.79572
 30
0.0
 10
-15.16702
 20
18.04809
 30
0.0
 10
-15.16702
 20
18.04809
 30
0.0
 10
-15.16702
 20
18.04809
 30
0.0
 10
-14.7255
 20
18.33184
 30
0.0
 10
-14.7255
 20
18.33184
 30
0.0
 10
-14.7255
 20
18.33184
 30
0.0
 10
-14.5633
 20
18.07947
 30
0.0
 10
-14.5633
 20
18.07947
 30
0.0
  0
SPLINE
  5
66
330
1F
100
AcDbEntity
  8
Layer 1
 62
   250
370
     9
100
AcDbSpline
210
0.0
220
0.0
230
1.0
 70
    11
 71
     3
 72
    17
 73
    13
 74
     0
 42
0.0000000001
 43
0.0000000001
 40
0.0
 40
0.0
 40
0.0
 40
0.0
 40
0.25
 40
0.25
 40
0.25
 40
0.5
 40
0.5
 40
0.5
 40
0.75
 40
0.75
 40
0.75
 40
1.0
 40
1.0
 40
1.0
 40
1.0
 10
-12.63113
 20
1.28629
 30
0.0
 10
-12.63113
 20
1.28629
 30
0.0
 10
-12.12755
 20
1.13842
 30
0.0
 10
-12.12755
 20
1.13842
 30
0.0
 10
-12.12755
 20
1.13842
 30
0.0
 10
-12.21207
 20
0.85058
 30
0.0
 10
-12.21207
 20
0.85058
 30
0.0
 10
-12.21207
 20
0.85058
 30
0.0
 10
-12.71565
 20
0.99844
 30
0.0
 10
-12.71565
 20
0.99844
 30
0.0
 10
-12.71565
 20
0.99844
 30
0.0
 10
-12.63113
 20
1.28629
 30
0.0
 10
-12.63113
 20
1.28629
 30
0.0
  0
SPLINE
  5
67
330
1F
100
AcDbEntity
  8
Layer 1
 62
   250
370
     9
100
AcDbSpline
210
0.0
220
0.0
230
1.0
 70
    11
 71
     3
 72
    17
 73
    13
 74
     0
 42
0.0000000001
 43
0.0000000001
 40
0.0
 40
0.0
 40
0.0
 40
0.0
 40
0.25
 40
0.25
 40
0.25
 40
0.5
 40
0.5
 40
0.5
 40
0.75
 40
0.75
 40
0.75
 40
1.0
 40
1.0
 40
1.0
 40
1.0
 10
-16.95383
 20
4.24009
 30
0.0
 10
-16.95383
 20
4.24009
 30
0.0
 10
-16.61014
 20
3.84344
 30
0.0
 10
-16.61014
 20
3.84344
 30
0.0
 10
-16.61014
 20
3.84344
 30
0.0
 10
-16.83686
 20
3.64698
 30
0.0
 10
-16.83686
 20
3.64698
 30
0.0
 10
-16.83686
 20
3.64698
 30
0.0
 10
-17.18056
 20
4.04363
 30
0.0
 10
-17.18056
 20
4.04363
 30
0.0
 10
-17.18056
 20
4.04363
 30
0.0
 10
-16.95383
 20
4.24009
 30
0.0
 10
-16.95383
 20
4.24009
 30
0.0
  0
SPLINE
  5
68
330
1F
100
AcDbEntity
  8
Layer 1
 62
   250
370
     9
100
AcDbSpline
210
0.0
220
0.0
230
1.0
 70
    11
 71
     3
 72
    17
 73
    13
 74
     0
 42
0.0000000001
 43
0.0000000001
 40
0.0
 40
0.0
 40
0.0
 40
0.0
 40
0.25
 40
0.25
 40
0.25
 40
0.5
 40
0.5
 40
0.5
 40
0.75
 40
0.75
 40
0.75
 40
1.0
 40
1.0
 40
1.0
 40
1.0
 10
-18.99338
 20
9.06202
 30
0.0
 10
-18.99338
 20
9.06202
 30
0.0
 10
-18.91869
 20
8.54252
 30
0.0
 10
-18.91869
 20
8.54252
 30
0.0
 10
-18.91869
 20
8.54252
 30
0.0
 10
-19.21563
 20
8.49982
 30
0.0
 10
-19.21563
 20
8.49982
 30
0.0
 10
-19.21563
 20
8.49982
 30
0.0
 10
-19.29033
 20
9.01932
 30
0.0
 10
-19.29033
 20
9.01932
 30
0.0
 10
-19.29033
 20
9.01932
 30
0.0
 10
-18.99338
 20
9.06202
 30
0.0
 10
-18.99338
 20
9.06202
 30
0.0
  0
SPLINE
  5
69
330
1F
100
AcDbEntity
  8
Layer 1
 62
   250
370
     9
100
AcDbSpline
210
0.0
220
0.0
230
1.0
 70
    11
 71
     3
 72
    17
 73
    13
 74
     0
 42
0.0000000001
 43
0.0000000001
 40
0.0
 40
0.0
 40
0.0
 40
0.0
 40
0.25
 40
0.25
 40
0.25
 40
0.5
 40
0.5
 40
0.5
 40
0.75
 40
0.75
 40
0.75
 40
1.0
 40
1.0
 40
1.0
 40
1.0
 10
-0.60656
 20
8.54252
 30
0.0
 10
-0.60656
 20
8.54252
 30
0.0
 10
-0.53187
 20
9.06202
 30
0.0
 10
-0.53187
 20
9.06202
 30
0.0
 10
-0.53187
 20
9.06202
 30
0.0
 10
-0.23492
 20
9.01932
 30
0.0
 10
-0.23492
 20
9.01932
 30
0.0
 10
-0.23492
 20
9.01932
 30
0.0
 10
-0.30962
 20
8.49982
 30
0.0
 10
-0.30962
 20
8.49982
 30
0.0
 10
-0.30962
 20
8.49982
 30
0.0
 10
-0.60656
 20
8.54252
 30
0.0
 10
-0.60656
 20
8.54252
 30
0.0
  0
SPLINE
  5
6A
330
1F
100
AcDbEntity
  8
Layer 1
 62
   250
370
     9
100
AcDbSpline
210
0.0
220
0.0
230
1.0
 70
    11
 71
     3
 72
    17
 73
    13
 74
     0
 42
0.0000000001
 43
0.0000000001
 40
0.0
 40
0.0
 40
0.0
 40
0.0
 40
0.25
 40
0.25
 40
0.25
 40
0.5
 40
0.5
 40
0.5
 40
0.75
 40
0.75
 40
0.75
 40
1.0
 40
1.0
 40
1.0
 40
1.0
 10
-2.91511
 20
3.84344
 30
0.0
 10
-2.91511
 20
3.84344
 30
0.0
 10
-2.57142
 20
4.24009
 30
0.0
 10
-2.57142
 20
4.24009
 30
0.0
 10
-2.57142
 20
4.24009
 30
0.0
 10
-2.34469
 20
4.04363
 30
0.0
 10
-2.34469
 20
4.04363
 30
0.0
 10
-2.34469
 20
4.04363
 30
0.0
 10
-2.68839
 20
3.64698
 30
0.0
 10
-2.68839
 20
3.64698
 30
0.0
 10
-2.68839
 20
3.64698
 30
0.0
 10
-2.91511
 20
3.84344
 30
0.0
 10
-2.91511
 20
3.84344
 30
0.0
  0
SPLINE
  5
6B
330
1F
100
AcDbEntity
  8
Layer 1
 62
   250
370
     9
100
AcDbSpline
210
0.0
220
0.0
230
1.0
 70
    11
 71
     3
 72
    17
 73
    13
 74
     0
 42
0.0000000001
 43
0.0000000001
 40
0.0
 40
0.0
 40
0.0
 40
0.0
 40
0.25
 40
0.25
 40
0.25
 40
0.5
 40
0.5
 40
0.5
 40
0.75
 40
0.75
 40
0.75
 40
1.0
 40
1.0
 40
1.0
 40
1.0
 10
-7.3977
 20
1.13842
 30
0.0
 10
-7.3977
 20
1.13842
 30
0.0
 10
-6.89412
 20
1.28629
 30
0.0
 10
-6.89412
 20
1.28629
 30
0.0
 10
-6.89412
 20
1.28629
 30
0.0
 10
-6.8096
 20
0.99844
 30
0.0
 10
-6.8096
 20
0.99844
 30
0.0
 10
-6.8096
 20
0.99844
 30
0.0
 10
-7.31318
 20
0.85058
 30
0.0
 10
-7.31318
 20
0.85058
 30
0.0
 10
-7.31318
 20
0.85058
 30
0.0
 10
-7.3977
 20
1.13842
 30
0.0
 10
-7.3977
 20
1.13842
 30
0.0
  0
SPLINE
  5
6C
330
1F
100
AcDbEntity
  8
Layer 1
 62
   250
370
     9
100
AcDbSpline
210
0.0
220
0.0
230
1.0
 70
    11
 71
     3
 72
    17
 73
    13
 74
     0
 42
0.0000000001
 43
0.0000000001
 40
0.0
 40
0.0
 40
0.0
 40
0.0
 40
0.25
 40
0.25
 40
0.25
 40
0.5
 40
0.5
 40
0.5
 40
0.75
 40
0.75
 40
0.75
 40
1.0
 40
1.0
 40
1.0
 40
1.0
 10
16.07334
 20
-9.87497
 30
0.0
 10
16.07334
 20
-4.35213
 30
0.0
 10
11.5962
 20
0.12502
 30
0.0
 10
6.07336
 20
0.12503
 30
0.0
 10
0.55052
 20
0.12504
 30
0.0
 10
-3.92664
 20
-4.3521
 30
0.0
 10
-3.92665
 20
-9.87494
 30
0.0
 10
-3.92666
 20
-15.39778
 30
0.0
 10
0.55047
 20
-19.87494
 30
0.0
 10
6.07331
 20
-19.87496
 30
0.0
 10
11.59614
 20
-19.87498
 30
0.0
 10
16.07331
 20
-15.39786
 30
0.0
 10
16.07334
 20
-9.87497
 30
0.0
  0
SPLINE
  5
6D
330
1F
100
AcDbEntity
  8
Layer 1
 62
   250
370
     9
100
AcDbSpline
210
0.0
220
0.0
230
1.0
 70
    11
 71
     3
 72
    17
 73
    13
 74
     0
 42
0.0000000001
 43
0.0000000001
 40
0.0
 40
0.0
 40
0.0
 40
0.0
 40
0.25
 40
0.25
 40
0.25
 40
0.5
 40
0.5
 40
0.5
 40
0.75
 40
0.75
 40
0.75
 40
1.0
 40
1.0
 40
1.0
 40
1.0
 10
6.07336
 20
-0.87497
 30
0.0
 10
11.04391
 20
-0.87498
 30
0.0
 10
15.07334
 20
-4.90441
 30
0.0
 10
15.07334
 20
-9.87502
 30
0.0
 10
15.07331
 20
-14.84557
 30
0.0
 10
11.04386
 20
-18.87498
 30
0.0
 10
6.07331
 20
-18.87496
 30
0.0
 10
1.10276
 20
-18.87494
 30
0.0
 10
-2.92666
 20
-14.84549
 30
0.0
 10
-2.92665
 20
-9.87495
 30
0.0
 10
-2.92664
 20
-4.90439
 30
0.0
 10
1.1028
 20
-0.87496
 30
0.0
 10
6.07336
 20
-0.87497
 30
0.0
  0
SPLINE
  5
6E
330
1F
100
AcDbEntity
  8
Layer 1
 62
   250
370
     9
100
AcDbSpline
210
0.0
220
0.0
230
1.0
 70
    11
 71
     3
 72
    17
 73
    13
 74
     0
 42
0.0000000001
 43
0.0000000001
 40
0.0
 40
0.0
 40
0.0
 40
0.0
 40
0.25
 40
0.25
 40
0.25
 40
0.5
 40
0.5
 40
0.5
 40
0.75
 40
0.75
 40
0.75
 40
1.0
 40
1.0
 40
1.0
 40
1.0
 10
7.76393
 20
-0.58702
 30
0.0
 10
7.76393
 20
-0.58702
 30
0.0
 10
4.38276
 20
-0.58702
 30
0.0
 10
4.38276
 20
-0.58702
 30
0.0
 10
4.38276
 20
-0.58702
 30
0.0
 10
4.38276
 20
-0.28702
 30
0.0
 10
4.38276
 20
-0.28702
 30
0.0
 10
4.38276
 20
-0.28702
 30
0.0
 10
7.76393
 20
-0.28702
 30
0.0
 10
7.76393
 20
-0.28702
 30
0.0
 10
7.76393
 20
-0.28702
 30
0.0
 10
7.76393
 20
-0.58702
 30
0.0
 10
7.76393
 20
-0.58702
 30
0.0
  0
SPLINE
  5
6F
330
1F
100
AcDbEntity
  8
Layer 1
 62
   250
370
     9
100
AcDbSpline
210
0.0
220
0.0
230
1.0
 70
    11
 71
     3
 72
    17
 73
    13
 74
     0
 42
0.0000000001
 43
0.0000000001
 40
0.0
 40
0.0
 40
0.0
 40
0.0
 40
0.25
 40
0.25
 40
0.25
 40
0.5
 40
0.5
 40
0.5
 40
0.75
 40
0.75
 40
0.75
 40
1.0
 40
1.0
 40
1.0
 40
1.0
 10
15.02616
 20
-12.87016
 30
0.0
 10
15.02616
 20
-12.87016
 30
0.0
 10
15.50735
 20
-9.5234
 30
0.0
 10
15.50735
 20
-9.5234
 30
0.0
 10
15.50735
 20
-9.5234
 30
0.0
 10
15.8043
 20
-9.5661
 30
0.0
 10
15.8043
 20
-9.5661
 30
0.0
 10
15.8043
 20
-9.5661
 30
0.0
 10
15.3231
 20
-12.91285
 30
0.0
 10
15.3231
 20
-12.91285
 30
0.0
 10
15.3231
 20
-12.91285
 30
0.0
 10
15.02616
 20
-12.87016
 30
0.0
 10
15.02616
 20
-12.87016
 30
0.0
  0
SPLINE
  5
70
330
1F
100
AcDbEntity
  8
Layer 1
 62
   250
370
     9
100
AcDbSpline
210
0.0
220
0.0
230
1.0
 70
    11
 71
     3
 72
    17
 73
    13
 74
     0
 42
0.0000000001
 43
0.0000000001
 40
0.0
 40
0.0
 40
0.0
 40
0.0
 40
0.25
 40
0.25
 40
0.25
 40
0.5
 40
0.5
 40
0.5
 40
0.75
 40
0.75
 40
0.75
 40
1.0
 40
1.0
 40
1.0
 40
1.0
 10
13.81966
 20
-4.4788
 30
0.0
 10
13.81966
 20
-4.4788
 30
0.0
 10
14.09255
 20
-4.35418
 30
0.0
 10
14.09255
 20
-4.35418
 30
0.0
 10
14.09255
 20
-4.35418
 30
0.0
 10
15.49714
 20
-7.42981
 30
0.0
 10
15.49714
 20
-7.42981
 30
0.0
 10
15.49714
 20
-7.42981
 30
0.0
 10
15.22425
 20
-7.55443
 30
0.0
 10
15.22425
 20
-7.55443
 30
0.0
 10
15.22425
 20
-7.55443
 30
0.0
 10
13.81966
 20
-4.4788
 30
0.0
 10
13.81966
 20
-4.4788
 30
0.0
  0
SPLINE
  5
71
330
1F
100
AcDbEntity
  8
Layer 1
 62
   250
370
     9
100
AcDbSpline
210
0.0
220
0.0
230
1.0
 70
    11
 71
     3
 72
    17
 73
    13
 74
     0
 42
0.0000000001
 43
0.0000000001
 40
0.0
 40
0.0
 40
0.0
 40
0.0
 40
0.25
 40
0.25
 40
0.25
 40
0.5
 40
0.5
 40
0.5
 40
0.75
 40
0.75
 40
0.75
 40
1.0
 40
1.0
 40
1.0
 40
1.0
 10
12.67919
 20
-2.72307
 30
0.0
 10
12.67919
 20
-2.72307
 30
0.0
 10
12.517
 20
-2.97545
 30
0.0
 10
12.517
 20
-2.97545
 30
0.0
 10
12.517
 20
-2.97545
 30
0.0
 10
9.67257
 20
-1.14745
 30
0.0
 10
9.67257
 20
-1.14745
 30
0.0
 10
9.67257
 20
-1.14745
 30
0.0
 10
9.83476
 20
-0.89507
 30
0.0
 10
9.83476
 20
-0.89507
 30
0.0
 10
9.83476
 20
-0.89507
 30
0.0
 10
12.67919
 20
-2.72307
 30
0.0
 10
12.67919
 20
-2.72307
 30
0.0
  0
SPLINE
  5
72
330
1F
100
AcDbEntity
  8
Layer 1
 62
   250
370
     9
100
AcDbSpline
210
0.0
220
0.0
230
1.0
 70
    11
 71
     3
 72
    17
 73
    13
 74
     0
 42
0.0000000001
 43
0.0000000001
 40
0.0
 40
0.0
 40
0.0
 40
0.0
 40
0.25
 40
0.25
 40
0.25
 40
0.5
 40
0.5
 40
0.5
 40
0.75
 40
0.75
 40
0.75
 40
1.0
 40
1.0
 40
1.0
 40
1.0
 10
2.47412
 20
-1.14745
 30
0.0
 10
2.47412
 20
-1.14745
 30
0.0
 10
-0.37031
 20
-2.97545
 30
0.0
 10
-0.37031
 20
-2.97545
 30
0.0
 10
-0.37031
 20
-2.97545
 30
0.0
 10
-0.5325
 20
-2.72307
 30
0.0
 10
-0.5325
 20
-2.72307
 30
0.0
 10
-0.5325
 20
-2.72307
 30
0.0
 10
2.31193
 20
-0.89507
 30
0.0
 10
2.31193
 20
-0.89507
 30
0.0
 10
2.31193
 20
-0.89507
 30
0.0
 10
2.47412
 20
-1.14745
 30
0.0
 10
2.47412
 20
-1.14745
 30
0.0
  0
SPLINE
  5
73
330
1F
100
AcDbEntity
  8
Layer 1
 62
   250
370
     9
100
AcDbSpline
210
0.0
220
0.0
230
1.0
 70
    11
 71
     3
 72
    17
 73
    13
 74
     0
 42
0.0000000001
 43
0.0000000001
 40
0.0
 40
0.0
 40
0.0
 40
0.0
 40
0.25
 40
0.25
 40
0.25
 40
0.5
 40
0.5
 40
0.5
 40
0.75
 40
0.75
 40
0.75
 40
1.0
 40
1.0
 40
1.0
 40
1.0
 10
-1.67297
 20
-4.4788
 30
0.0
 10
-1.67297
 20
-4.4788
 30
0.0
 10
-3.07756
 20
-7.55443
 30
0.0
 10
-3.07756
 20
-7.55443
 30
0.0
 10
-3.07756
 20
-7.55443
 30
0.0
 10
-3.35045
 20
-7.42981
 30
0.0
 10
-3.35045
 20
-7.42981
 30
0.0
 10
-3.35045
 20
-7.42981
 30
0.0
 10
-1.94586
 20
-4.35418
 30
0.0
 10
-1.94586
 20
-4.35418
 30
0.0
 10
-1.94586
 20
-4.35418
 30
0.0
 10
-1.67297
 20
-4.4788
 30
0.0
 10
-1.67297
 20
-4.4788
 30
0.0
  0
SPLINE
  5
74
330
1F
100
AcDbEntity
  8
Layer 1
 62
   250
370
     9
100
AcDbSpline
210
0.0
220
0.0
230
1.0
 70
    11
 71
     3
 72
    17
 73
    13
 74
     0
 42
0.0000000001
 43
0.0000000001
 40
0.0
 40
0.0
 40
0.0
 40
0.0
 40
0.25
 40
0.25
 40
0.25
 40
0.5
 40
0.5
 40
0.5
 40
0.75
 40
0.75
 40
0.75
 40
1.0
 40
1.0
 40
1.0
 40
1.0
 10
-3.36066
 20
-9.5234
 30
0.0
 10
-3.36066
 20
-9.5234
 30
0.0
 10
-2.87947
 20
-12.87016
 30
0.0
 10
-2.87947
 20
-12.87016
 30
0.0
 10
-2.87947
 20
-12.87016
 30
0.0
 10
-3.17641
 20
-12.91285
 30
0.0
 10
-3.17641
 20
-12.91285
 30
0.0
 10
-3.17641
 20
-12.91285
 30
0.0
 10
-3.65761
 20
-9.5661
 30
0.0
 10
-3.65761
 20
-9.5661
 30
0.0
 10
-3.65761
 20
-9.5661
 30
0.0
 10
-3.36066
 20
-9.5234
 30
0.0
 10
-3.36066
 20
-9.5234
 30
0.0
  0
SPLINE
  5
75
330
1F
100
AcDbEntity
  8
Layer 1
 62
   250
370
     9
100
AcDbSpline
210
0.0
220
0.0
230
1.0
 70
    11
 71
     3
 72
    17
 73
    13
 74
     0
 42
0.0000000001
 43
0.0000000001
 40
0.0
 40
0.0
 40
0.0
 40
0.0
 40
0.25
 40
0.25
 40
0.25
 40
0.5
 40
0.5
 40
0.5
 40
0.75
 40
0.75
 40
0.75
 40
1.0
 40
1.0
 40
1.0
 40
1.0
 10
-2.05312
 20
-14.67961
 30
0.0
 10
-2.05312
 20
-14.67961
 30
0.0
 10
0.16109
 20
-17.23494
 30
0.0
 10
0.16109
 20
-17.23494
 30
0.0
 10
0.16109
 20
-17.23494
 30
0.0
 10
-0.06564
 20
-17.4314
 30
0.0
 10
-0.06564
 20
-17.4314
 30
0.0
 10
-0.06564
 20
-17.4314
 30
0.0
 10
-2.27984
 20
-14.87607
 30
0.0
 10
-2.27984
 20
-14.87607
 30
0.0
 10
-2.27984
 20
-14.87607
 30
0.0
 10
-2.05312
 20
-14.67961
 30
0.0
 10
-2.05312
 20
-14.67961
 30
0.0
  0
SPLINE
  5
76
330
1F
100
AcDbEntity
  8
Layer 1
 62
   250
370
     9
100
AcDbSpline
210
0.0
220
0.0
230
1.0
 70
    11
 71
     3
 72
    17
 73
    13
 74
     0
 42
0.0000000001
 43
0.0000000001
 40
0.0
 40
0.0
 40
0.0
 40
0.0
 40
0.25
 40
0.25
 40
0.25
 40
0.5
 40
0.5
 40
0.5
 40
0.75
 40
0.75
 40
0.75
 40
1.0
 40
1.0
 40
1.0
 40
1.0
 10
1.83452
 20
-18.31039
 30
0.0
 10
1.83452
 20
-18.31039
 30
0.0
 10
5.07874
 20
-19.26298
 30
0.0
 10
5.07874
 20
-19.26298
 30
0.0
 10
5.07874
 20
-19.26298
 30
0.0
 10
4.99422
 20
-19.55083
 30
0.0
 10
4.99422
 20
-19.55083
 30
0.0
 10
4.99422
 20
-19.55083
 30
0.0
 10
1.75
 20
-18.59824
 30
0.0
 10
1.75
 20
-18.59824
 30
0.0
 10
1.75
 20
-18.59824
 30
0.0
 10
1.83452
 20
-18.31039
 30
0.0
 10
1.83452
 20
-18.31039
 30
0.0
  0
SPLINE
  5
77
330
1F
100
AcDbEntity
  8
Layer 1
 62
   250
370
     9
100
AcDbSpline
210
0.0
220
0.0
230
1.0
 70
    11
 71
     3
 72
    17
 73
    13
 74
     0
 42
0.0000000001
 43
0.0000000001
 40
0.0
 40
0.0
 40
0.0
 40
0.0
 40
0.25
 40
0.25
 40
0.25
 40
0.5
 40
0.5
 40
0.5
 40
0.75
 40
0.75
 40
0.75
 40
1.0
 40
1.0
 40
1.0
 40
1.0
 10
7.06795
 20
-19.26298
 30
0.0
 10
7.06795
 20
-19.26298
 30
0.0
 10
10.31217
 20
-18.31039
 30
0.0
 10
10.31217
 20
-18.31039
 30
0.0
 10
10.31217
 20
-18.31039
 30
0.0
 10
10.39669
 20
-18.59824
 30
0.0
 10
10.39669
 20
-18.59824
 30
0.0
 10
10.39669
 20
-18.59824
 30
0.0
 10
7.15247
 20
-19.55083
 30
0.0
 10
7.15247
 20
-19.55083
 30
0.0
 10
7.15247
 20
-19.55083
 30
0.0
 10
7.06795
 20
-19.26298
 30
0.0
 10
7.06795
 20
-19.26298
 30
0.0
  0
SPLINE
  5
78
330
1F
100
AcDbEntity
  8
Layer 1
 62
   250
370
     9
100
AcDbSpline
210
0.0
220
0.0
230
1.0
 70
    11
 71
     3
 72
    17
 73
    13
 74
     0
 42
0.0000000001
 43
0.0000000001
 40
0.0
 40
0.0
 40
0.0
 40
0.0
 40
0.25
 40
0.25
 40
0.25
 40
0.5
 40
0.5
 40
0.5
 40
0.75
 40
0.75
 40
0.75
 40
1.0
 40
1.0
 40
1.0
 40
1.0
 10
11.9856
 20
-17.23494
 30
0.0
 10
11.9856
 20
-17.23494
 30
0.0
 10
14.19981
 20
-14.67961
 30
0.0
 10
14.19981
 20
-14.67961
 30
0.0
 10
14.19981
 20
-14.67961
 30
0.0
 10
14.42653
 20
-14.87607
 30
0.0
 10
14.42653
 20
-14.87607
 30
0.0
 10
14.42653
 20
-14.87607
 30
0.0
 10
12.21233
 20
-17.4314
 30
0.0
 10
12.21233
 20
-17.4314
 30
0.0
 10
12.21233
 20
-17.4314
 30
0.0
 10
11.9856
 20
-17.23494
 30
0.0
 10
11.9856
 20
-17.23494
 30
0.0
  0
SPLINE
  5
79
330
1F
100
AcDbEntity
  8
Layer 1
 62
   250
370
     9
100
AcDbSpline
210
0.0
220
0.0
230
1.0
 70
    27
 71
     3
 72
     8
 73
     4
 74
     0
 42
0.0000000001
 43
0.0000000001
 40
0.0
 40
0.0
 40
0.0
 40
0.0
 40
1.0
 40
1.0
 40
1.0
 40
1.0
 10
-16.50391
 20
-8.14903
 30
0.0
 10
-16.50391
 20
-8.14903
 30
0.0
 10
-16.50391
 20
-8.14903
 30
0.0
 10
-16.50391
 20
-8.14903
 30
0.0
  0
SPLINE
  5
7A
330
1F
100
AcDbEntity
  8
Layer 1
 62
   250
370
     9
100
AcDbSpline
210
0.0
220
0.0
230
1.0
 70
    27
 71
     3
 72
     8
 73
     4
 74
     0
 42
0.0000000001
 43
0.0000000001
 40
0.0
 40
0.0
 40
0.0
 40
0.0
 40
1.0
 40
1.0
 40
1.0
 40
1.0
 10
-19.88512
 20
-8.14904
 30
0.0
 10
-19.88512
 20
-8.14904
 30
0.0
 10
-19.88512
 20
-8.14904
 30
0.0
 10
-19.88512
 20
-8.14904
 30
0.0
  0
SPLINE
  5
7B
330
1F
100
AcDbEntity
  8
Layer 1
 62
   250
370
     9
100
AcDbSpline
210
0.0
220
0.0
230
1.0
 70
    11
 71
     3
 72
    41
 73
    37
 74
     0
 42
0.0000000001
 43
0.0000000001
 40
0.0
 40
0.0
 40
0.0
 40
0.0
 40
0.0833333333333333
 40
0.0833333333333333
 40
0.0833333333333333
 40
0.1666666666666667
 40
0.1666666666666667
 40
0.1666666666666667
 40
0.25
 40
0.25
 40
0.25
 40
0.3333333333333333
 40
0.3333333333333333
 40
0.3333333333333333
 40
0.4166666666666666
 40
0.4166666666666666
 40
0.4166666666666666
 40
0.5
 40
0.5
 40
0.5
 40
0.5833333333333333
 40
0.5833333333333333
 40
0.5833333333333333
 40
0.6666666666666666
 40
0.6666666666666666
 40
0.6666666666666666
 40
0.75
 40
0.75
 40
0.75
 40
0.8333333333333333
 40
0.8333333333333333
 40
0.8333333333333333
 40
0.9166666666666666
 40
0.9166666666666666
 40
0.9166666666666666
 40
1.0
 40
1.0
 40
1.0
 40
1.0
 10
-17.93215
 20
-12.34897
 30
0.0
 10
-17.93215
 20
-12.34897
 30
0.0
 10
-17.78997
 20
-12.34904
 30
0.0
 10
-17.78997
 20
-12.34904
 30
0.0
 10
-16.66373
 20
-11.30723
 30
0.0
 10
-15.64562
 20
-10.49291
 30
0.0
 10
-15.64562
 20
-9.35382
 30
0.0
 10
-15.64562
 20
-8.79604
 30
0.0
 10
-16.00456
 20
-8.32166
 30
0.0
 10
-16.50391
 20
-8.14903
 30
0.0
 10
-16.50391
 20
-8.14903
 30
0.0
 10
-16.50391
 20
-7.84904
 30
0.0
 10
-16.50391
 20
-7.84904
 30
0.0
 10
-16.50391
 20
-7.84904
 30
0.0
 10
-19.8851
 20
-7.84904
 30
0.0
 10
-19.8851
 20
-7.84904
 30
0.0
 10
-19.8851
 20
-7.84904
 30
0.0
 10
-19.88512
 20
-8.14904
 30
0.0
 10
-19.88512
 20
-8.14904
 30
0.0
 10
-20.38446
 20
-8.32166
 30
0.0
 10
-20.7434
 20
-8.79604
 30
0.0
 10
-20.7434
 20
-9.35382
 30
0.0
 10
-20.7434
 20
-10.49371
 30
0.0
 10
-19.72619
 20
-11.30593
 30
0.0
 10
-18.59905
 20
-12.34904
 30
0.0
 10
-18.59905
 20
-12.34904
 30
0.0
 10
-18.45693
 20
-12.34904
 30
0.0
 10
-18.45693
 20
-12.34904
 30
0.0
 10
-18.45693
 20
-12.34904
 30
0.0
 10
-18.45693
 20
-12.64904
 30
0.0
 10
-18.45693
 20
-12.64904
 30
0.0
 10
-18.45693
 20
-12.64904
 30
0.0
 10
-17.93208
 20
-12.64904
 30
0.0
 10
-17.93208
 20
-12.64904
 30
0.0
 10
-17.93208
 20
-12.64904
 30
0.0
 10
-17.93215
 20
-12.34897
 30
0.0
 10
-17.93215
 20
-12.34897
 30
0.0
  0
SPLINE
  5
7C
330
1F
100
AcDbEntity
  8
Layer 1
 62
   250
370
     9
100
AcDbSpline
210
0.0
220
0.0
230
1.0
 70
    11
 71
     3
 72
    23
 73
    19
 74
     0
 42
0.0000000001
 43
0.0000000001
 40
0.0
 40
0.0
 40
0.0
 40
0.0
 40
0.1666666666666667
 40
0.1666666666666667
 40
0.1666666666666667
 40
0.3333333333333333
 40
0.3333333333333333
 40
0.3333333333333333
 40
0.5
 40
0.5
 40
0.5
 40
0.6666666666666666
 40
0.6666666666666666
 40
0.6666666666666666
 40
0.8333333333333333
 40
0.8333333333333333
 40
0.8333333333333333
 40
1.0
 40
1.0
 40
1.0
 40
1.0
 10
-17.44587
 20
-9.21308
 30
0.0
 10
-17.03261
 20
-9.21308
 30
0.0
 10
-16.69723
 20
-9.54846
 30
0.0
 10
-16.69723
 20
-9.96171
 30
0.0
 10
-16.69723
 20
-10.71035
 30
0.0
 10
-17.44587
 20
-11.12225
 30
0.0
 10
-18.19451
 20
-11.87089
 30
0.0
 10
-18.94315
 20
-11.12225
 30
0.0
 10
-19.69179
 20
-10.71035
 30
0.0
 10
-19.69179
 20
-9.96171
 30
0.0
 10
-19.69179
 20
-9.54846
 30
0.0
 10
-19.35641
 20
-9.21308
 30
0.0
 10
-18.94315
 20
-9.21308
 30
0.0
 10
-18.56883
 20
-9.21308
 30
0.0
 10
-18.38167
 20
-9.40023
 30
0.0
 10
-18.19451
 20
-9.77455
 30
0.0
 10
-18.00735
 20
-9.40023
 30
0.0
 10
-17.82018
 20
-9.21308
 30
0.0
 10
-17.44587
 20
-9.21308
 30
0.0
  0
SPLINE
  5
7D
330
1F
100
AcDbEntity
  8
Layer 1
 62
   250
370
     9
100
AcDbSpline
210
0.0
220
0.0
230
1.0
 70
    11
 71
     3
 72
    14
 73
    10
 74
     0
 42
0.0000000001
 43
0.0000000001
 40
0.0
 40
0.0
 40
0.0
 40
0.0
 40
0.3333333333333333
 40
0.3333333333333333
 40
0.3333333333333333
 40
0.6666666666666666
 40
0.6666666666666666
 40
0.6666666666666666
 40
1.0
 40
1.0
 40
1.0
 40
1.0
 10
-17.37258
 20
-8.14904
 30
0.0
 10
-17.72923
 20
-8.2746
 30
0.0
 10
-17.96188
 20
-8.56995
 30
0.0
 10
-18.19451
 20
-9.0352
 30
0.0
 10
-18.42713
 20
-8.56995
 30
0.0
 10
-18.65979
 20
-8.2746
 30
0.0
 10
-19.01644
 20
-8.14904
 30
0.0
 10
-19.01644
 20
-8.14904
 30
0.0
 10
-17.37258
 20
-8.14904
 30
0.0
 10
-17.37258
 20
-8.14904
 30
0.0
  0
SPLINE
  5
7E
330
1F
100
AcDbEntity
  8
Layer 1
 62
   250
370
     9
100
AcDbSpline
210
0.0
220
0.0
230
1.0
 70
    27
 71
     3
 72
     8
 73
     4
 74
     0
 42
0.0000000001
 43
0.0000000001
 40
0.0
 40
0.0
 40
0.0
 40
0.0
 40
1.0
 40
1.0
 40
1.0
 40
1.0
 10
-17.1159
 20
-14.80438
 30
0.0
 10
-17.1159
 20
-14.80438
 30
0.0
 10
-17.1159
 20
-14.80438
 30
0.0
 10
-17.1159
 20
-14.80438
 30
0.0
  0
SPLINE
  5
7F
330
1F
100
AcDbEntity
  8
Layer 1
 62
   250
370
     9
100
AcDbSpline
210
0.0
220
0.0
230
1.0
 70
    27
 71
     3
 72
     8
 73
     4
 74
     0
 42
0.0000000001
 43
0.0000000001
 40
0.0
 40
0.0
 40
0.0
 40
0.0
 40
1.0
 40
1.0
 40
1.0
 40
1.0
 10
-13.73469
 20
-14.80437
 30
0.0
 10
-13.73469
 20
-14.80437
 30
0.0
 10
-13.73469
 20
-14.80437
 30
0.0
 10
-13.73469
 20
-14.80437
 30
0.0
  0
SPLINE
  5
80
330
1F
100
AcDbEntity
  8
Layer 1
 62
   250
370
     9
100
AcDbSpline
210
0.0
220
0.0
230
1.0
 70
    11
 71
     3
 72
    41
 73
    37
 74
     0
 42
0.0000000001
 43
0.0000000001
 40
0.0
 40
0.0
 40
0.0
 40
0.0
 40
0.0833333333333333
 40
0.0833333333333333
 40
0.0833333333333333
 40
0.1666666666666667
 40
0.1666666666666667
 40
0.1666666666666667
 40
0.25
 40
0.25
 40
0.25
 40
0.3333333333333333
 40
0.3333333333333333
 40
0.3333333333333333
 40
0.4166666666666666
 40
0.4166666666666666
 40
0.4166666666666666
 40
0.5
 40
0.5
 40
0.5
 40
0.5833333333333333
 40
0.5833333333333333
 40
0.5833333333333333
 40
0.6666666666666666
 40
0.6666666666666666
 40
0.6666666666666666
 40
0.75
 40
0.75
 40
0.75
 40
0.8333333333333333
 40
0.8333333333333333
 40
0.8333333333333333
 40
0.9166666666666666
 40
0.9166666666666666
 40
0.9166666666666666
 40
1.0
 40
1.0
 40
1.0
 40
1.0
 10
-15.68766
 20
-10.60444
 30
0.0
 10
-15.68766
 20
-10.60444
 30
0.0
 10
-15.82984
 20
-10.60437
 30
0.0
 10
-15.82984
 20
-10.60437
 30
0.0
 10
-16.95608
 20
-11.64618
 30
0.0
 10
-17.97419
 20
-12.4605
 30
0.0
 10
-17.97419
 20
-13.59959
 30
0.0
 10
-17.97419
 20
-14.15737
 30
0.0
 10
-17.61525
 20
-14.63175
 30
0.0
 10
-17.1159
 20
-14.80438
 30
0.0
 10
-17.1159
 20
-14.80438
 30
0.0
 10
-17.1159
 20
-15.10437
 30
0.0
 10
-17.1159
 20
-15.10437
 30
0.0
 10
-17.1159
 20
-15.10437
 30
0.0
 10
-13.73471
 20
-15.10437
 30
0.0
 10
-13.73471
 20
-15.10437
 30
0.0
 10
-13.73471
 20
-15.10437
 30
0.0
 10
-13.73469
 20
-14.80437
 30
0.0
 10
-13.73469
 20
-14.80437
 30
0.0
 10
-13.23535
 20
-14.63175
 30
0.0
 10
-12.87641
 20
-14.15737
 30
0.0
 10
-12.87641
 20
-13.59959
 30
0.0
 10
-12.87641
 20
-12.4597
 30
0.0
 10
-13.89362
 20
-11.64748
 30
0.0
 10
-15.02076
 20
-10.60437
 30
0.0
 10
-15.02076
 20
-10.60437
 30
0.0
 10
-15.16288
 20
-10.60437
 30
0.0
 10
-15.16288
 20
-10.60437
 30
0.0
 10
-15.16288
 20
-10.60437
 30
0.0
 10
-15.16288
 20
-10.30437
 30
0.0
 10
-15.16288
 20
-10.30437
 30
0.0
 10
-15.16288
 20
-10.30437
 30
0.0
 10
-15.68773
 20
-10.30437
 30
0.0
 10
-15.68773
 20
-10.30437
 30
0.0
 10
-15.68773
 20
-10.30437
 30
0.0
 10
-15.68766
 20
-10.60444
 30
0.0
 10
-15.68766
 20
-10.60444
 30
0.0
  0
SPLINE
  5
81
330
1F
100
AcDbEntity
  8
Layer 1
 62
   250
370
     9
100
AcDbSpline
210
0.0
220
0.0
230
1.0
 70
    11
 71
     3
 72
    23
 73
    19
 74
     0
 42
0.0000000001
 43
0.0000000001
 40
0.0
 40
0.0
 40
0.0
 40
0.0
 40
0.1666666666666667
 40
0.1666666666666667
 40
0.1666666666666667
 40
0.3333333333333333
 40
0.3333333333333333
 40
0.3333333333333333
 40
0.5
 40
0.5
 40
0.5
 40
0.6666666666666666
 40
0.6666666666666666
 40
0.6666666666666666
 40
0.8333333333333333
 40
0.8333333333333333
 40
0.8333333333333333
 40
1.0
 40
1.0
 40
1.0
 40
1.0
 10
-16.17394
 20
-13.74033
 30
0.0
 10
-16.5872
 20
-13.74033
 30
0.0
 10
-16.92258
 20
-13.40495
 30
0.0
 10
-16.92258
 20
-12.9917
 30
0.0
 10
-16.92258
 20
-12.24306
 30
0.0
 10
-16.17394
 20
-11.83116
 30
0.0
 10
-15.4253
 20
-11.08252
 30
0.0
 10
-14.67666
 20
-11.83116
 30
0.0
 10
-13.92802
 20
-12.24306
 30
0.0
 10
-13.92802
 20
-12.9917
 30
0.0
 10
-13.92802
 20
-13.40495
 30
0.0
 10
-14.2634
 20
-13.74033
 30
0.0
 10
-14.67666
 20
-13.74033
 30
0.0
 10
-15.05098
 20
-13.74033
 30
0.0
 10
-15.23814
 20
-13.55318
 30
0.0
 10
-15.4253
 20
-13.17886
 30
0.0
 10
-15.61246
 20
-13.55318
 30
0.0
 10
-15.79963
 20
-13.74033
 30
0.0
 10
-16.17394
 20
-13.74033
 30
0.0
  0
SPLINE
  5
82
330
1F
100
AcDbEntity
  8
Layer 1
 62
   250
370
     9
100
AcDbSpline
210
0.0
220
0.0
230
1.0
 70
    11
 71
     3
 72
    14
 73
    10
 74
     0
 42
0.0000000001
 43
0.0000000001
 40
0.0
 40
0.0
 40
0.0
 40
0.0
 40
0.3333333333333333
 40
0.3333333333333333
 40
0.3333333333333333
 40
0.6666666666666666
 40
0.6666666666666666
 40
0.6666666666666666
 40
1.0
 40
1.0
 40
1.0
 40
1.0
 10
-16.24723
 20
-14.80437
 30
0.0
 10
-15.89058
 20
-14.67881
 30
0.0
 10
-15.65793
 20
-14.38346
 30
0.0
 10
-15.4253
 20
-13.91821
 30
0.0
 10
-15.19268
 20
-14.38346
 30
0.0
 10
-14.96002
 20
-14.67881
 30
0.0
 10
-14.60337
 20
-14.80437
 30
0.0
 10
-14.60337
 20
-14.80437
 30
0.0
 10
-16.24723
 20
-14.80437
 30
0.0
 10
-16.24723
 20
-14.80437
 30
0.0
  0
SPLINE
  5
83
330
1F
100
AcDbEntity
  8
Layer 1
 62
   250
370
     9
100
AcDbSpline
210
0.0
220
0.0
230
1.0
 70
    27
 71
     3
 72
     8
 73
     4
 74
     0
 42
0.0000000001
 43
0.0000000001
 40
0.0
 40
0.0
 40
0.0
 40
0.0
 40
1.0
 40
1.0
 40
1.0
 40
1.0
 10
-10.90351
 20
-8.14903
 30
0.0
 10
-10.90351
 20
-8.14903
 30
0.0
 10
-10.90351
 20
-8.14903
 30
0.0
 10
-10.90351
 20
-8.14903
 30
0.0
  0
SPLINE
  5
84
330
1F
100
AcDbEntity
  8
Layer 1
 62
   250
370
     9
100
AcDbSpline
210
0.0
220
0.0
230
1.0
 70
    27
 71
     3
 72
     8
 73
     4
 74
     0
 42
0.0000000001
 43
0.0000000001
 40
0.0
 40
0.0
 40
0.0
 40
0.0
 40
1.0
 40
1.0
 40
1.0
 40
1.0
 10
-14.28472
 20
-8.14904
 30
0.0
 10
-14.28472
 20
-8.14904
 30
0.0
 10
-14.28472
 20
-8.14904
 30
0.0
 10
-14.28472
 20
-8.14904
 30
0.0
  0
SPLINE
  5
85
330
1F
100
AcDbEntity
  8
Layer 1
 62
   250
370
     9
100
AcDbSpline
210
0.0
220
0.0
230
1.0
 70
    11
 71
     3
 72
    41
 73
    37
 74
     0
 42
0.0000000001
 43
0.0000000001
 40
0.0
 40
0.0
 40
0.0
 40
0.0
 40
0.0833333333333333
 40
0.0833333333333333
 40
0.0833333333333333
 40
0.1666666666666667
 40
0.1666666666666667
 40
0.1666666666666667
 40
0.25
 40
0.25
 40
0.25
 40
0.3333333333333333
 40
0.3333333333333333
 40
0.3333333333333333
 40
0.4166666666666666
 40
0.4166666666666666
 40
0.4166666666666666
 40
0.5
 40
0.5
 40
0.5
 40
0.5833333333333333
 40
0.5833333333333333
 40
0.5833333333333333
 40
0.6666666666666666
 40
0.6666666666666666
 40
0.6666666666666666
 40
0.75
 40
0.75
 40
0.75
 40
0.8333333333333333
 40
0.8333333333333333
 40
0.8333333333333333
 40
0.9166666666666666
 40
0.9166666666666666
 40
0.9166666666666666
 40
1.0
 40
1.0
 40
1.0
 40
1.0
 10
-12.33175
 20
-12.34897
 30
0.0
 10
-12.33175
 20
-12.34897
 30
0.0
 10
-12.18957
 20
-12.34904
 30
0.0
 10
-12.18957
 20
-12.34904
 30
0.0
 10
-11.06333
 20
-11.30723
 30
0.0
 10
-10.04522
 20
-10.49291
 30
0.0
 10
-10.04522
 20
-9.35382
 30
0.0
 10
-10.04522
 20
-8.79604
 30
0.0
 10
-10.40416
 20
-8.32166
 30
0.0
 10
-10.90351
 20
-8.14903
 30
0.0
 10
-10.90351
 20
-8.14903
 30
0.0
 10
-10.90351
 20
-7.84904
 30
0.0
 10
-10.90351
 20
-7.84904
 30
0.0
 10
-10.90351
 20
-7.84904
 30
0.0
 10
-14.2847
 20
-7.84904
 30
0.0
 10
-14.2847
 20
-7.84904
 30
0.0
 10
-14.2847
 20
-7.84904
 30
0.0
 10
-14.28472
 20
-8.14904
 30
0.0
 10
-14.28472
 20
-8.14904
 30
0.0
 10
-14.78406
 20
-8.32166
 30
0.0
 10
-15.143
 20
-8.79604
 30
0.0
 10
-15.143
 20
-9.35382
 30
0.0
 10
-15.143
 20
-10.49371
 30
0.0
 10
-14.12579
 20
-11.30593
 30
0.0
 10
-12.99865
 20
-12.34904
 30
0.0
 10
-12.99865
 20
-12.34904
 30
0.0
 10
-12.85653
 20
-12.34904
 30
0.0
 10
-12.85653
 20
-12.34904
 30
0.0
 10
-12.85653
 20
-12.34904
 30
0.0
 10
-12.85653
 20
-12.64904
 30
0.0
 10
-12.85653
 20
-12.64904
 30
0.0
 10
-12.85653
 20
-12.64904
 30
0.0
 10
-12.33168
 20
-12.64904
 30
0.0
 10
-12.33168
 20
-12.64904
 30
0.0
 10
-12.33168
 20
-12.64904
 30
0.0
 10
-12.33175
 20
-12.34897
 30
0.0
 10
-12.33175
 20
-12.34897
 30
0.0
  0
SPLINE
  5
86
330
1F
100
AcDbEntity
  8
Layer 1
 62
   250
370
     9
100
AcDbSpline
210
0.0
220
0.0
230
1.0
 70
    11
 71
     3
 72
    23
 73
    19
 74
     0
 42
0.0000000001
 43
0.0000000001
 40
0.0
 40
0.0
 40
0.0
 40
0.0
 40
0.1666666666666667
 40
0.1666666666666667
 40
0.1666666666666667
 40
0.3333333333333333
 40
0.3333333333333333
 40
0.3333333333333333
 40
0.5
 40
0.5
 40
0.5
 40
0.6666666666666666
 40
0.6666666666666666
 40
0.6666666666666666
 40
0.8333333333333333
 40
0.8333333333333333
 40
0.8333333333333333
 40
1.0
 40
1.0
 40
1.0
 40
1.0
 10
-11.84547
 20
-9.21308
 30
0.0
 10
-11.43221
 20
-9.21308
 30
0.0
 10
-11.09683
 20
-9.54846
 30
0.0
 10
-11.09683
 20
-9.96171
 30
0.0
 10
-11.09683
 20
-10.71035
 30
0.0
 10
-11.84547
 20
-11.12225
 30
0.0
 10
-12.59411
 20
-11.87089
 30
0.0
 10
-13.34275
 20
-11.12225
 30
0.0
 10
-14.09139
 20
-10.71035
 30
0.0
 10
-14.09139
 20
-9.96171
 30
0.0
 10
-14.09139
 20
-9.54846
 30
0.0
 10
-13.75601
 20
-9.21308
 30
0.0
 10
-13.34275
 20
-9.21308
 30
0.0
 10
-12.96843
 20
-9.21308
 30
0.0
 10
-12.78127
 20
-9.40023
 30
0.0
 10
-12.59411
 20
-9.77455
 30
0.0
 10
-12.40695
 20
-9.40023
 30
0.0
 10
-12.21978
 20
-9.21308
 30
0.0
 10
-11.84547
 20
-9.21308
 30
0.0
  0
SPLINE
  5
87
330
1F
100
AcDbEntity
  8
Layer 1
 62
   250
370
     9
100
AcDbSpline
210
0.0
220
0.0
230
1.0
 70
    11
 71
     3
 72
    14
 73
    10
 74
     0
 42
0.0000000001
 43
0.0000000001
 40
0.0
 40
0.0
 40
0.0
 40
0.0
 40
0.3333333333333333
 40
0.3333333333333333
 40
0.3333333333333333
 40
0.6666666666666666
 40
0.6666666666666666
 40
0.6666666666666666
 40
1.0
 40
1.0
 40
1.0
 40
1.0
 10
-11.77218
 20
-8.14904
 30
0.0
 10
-12.12883
 20
-8.2746
 30
0.0
 10
-12.36148
 20
-8.56995
 30
0.0
 10
-12.59411
 20
-9.0352
 30
0.0
 10
-12.82673
 20
-8.56995
 30
0.0
 10
-13.05939
 20
-8.2746
 30
0.0
 10
-13.41604
 20
-8.14904
 30
0.0
 10
-13.41604
 20
-8.14904
 30
0.0
 10
-11.77218
 20
-8.14904
 30
0.0
 10
-11.77218
 20
-8.14904
 30
0.0
  0
SPLINE
  5
88
330
1F
100
AcDbEntity
  8
Layer 1
 62
   250
370
     9
100
AcDbSpline
210
0.0
220
0.0
230
1.0
 70
    27
 71
     3
 72
     8
 73
     4
 74
     0
 42
0.0000000001
 43
0.0000000001
 40
0.0
 40
0.0
 40
0.0
 40
0.0
 40
1.0
 40
1.0
 40
1.0
 40
1.0
 10
-5.30311
 20
-8.14903
 30
0.0
 10
-5.30311
 20
-8.14903
 30
0.0
 10
-5.30311
 20
-8.14903
 30
0.0
 10
-5.30311
 20
-8.14903
 30
0.0
  0
SPLINE
  5
89
330
1F
100
AcDbEntity
  8
Layer 1
 62
   250
370
     9
100
AcDbSpline
210
0.0
220
0.0
230
1.0
 70
    27
 71
     3
 72
     8
 73
     4
 74
     0
 42
0.0000000001
 43
0.0000000001
 40
0.0
 40
0.0
 40
0.0
 40
0.0
 40
1.0
 40
1.0
 40
1.0
 40
1.0
 10
-8.68432
 20
-8.14904
 30
0.0
 10
-8.68432
 20
-8.14904
 30
0.0
 10
-8.68432
 20
-8.14904
 30
0.0
 10
-8.68432
 20
-8.14904
 30
0.0
  0
SPLINE
  5
8A
330
1F
100
AcDbEntity
  8
Layer 1
 62
   250
370
     9
100
AcDbSpline
210
0.0
220
0.0
230
1.0
 70
    11
 71
     3
 72
    41
 73
    37
 74
     0
 42
0.0000000001
 43
0.0000000001
 40
0.0
 40
0.0
 40
0.0
 40
0.0
 40
0.0833333333333333
 40
0.0833333333333333
 40
0.0833333333333333
 40
0.1666666666666667
 40
0.1666666666666667
 40
0.1666666666666667
 40
0.25
 40
0.25
 40
0.25
 40
0.3333333333333333
 40
0.3333333333333333
 40
0.3333333333333333
 40
0.4166666666666666
 40
0.4166666666666666
 40
0.4166666666666666
 40
0.5
 40
0.5
 40
0.5
 40
0.5833333333333333
 40
0.5833333333333333
 40
0.5833333333333333
 40
0.6666666666666666
 40
0.6666666666666666
 40
0.6666666666666666
 40
0.75
 40
0.75
 40
0.75
 40
0.8333333333333333
 40
0.8333333333333333
 40
0.8333333333333333
 40
0.9166666666666666
 40
0.9166666666666666
 40
0.9166666666666666
 40
1.0
 40
1.0
 40
1.0
 40
1.0
 10
-6.73135
 20
-12.34897
 30
0.0
 10
-6.73135
 20
-12.34897
 30
0.0
 10
-6.58917
 20
-12.34904
 30
0.0
 10
-6.58917
 20
-12.34904
 30
0.0
 10
-5.46293
 20
-11.30723
 30
0.0
 10
-4.44482
 20
-10.49291
 30
0.0
 10
-4.44482
 20
-9.35382
 30
0.0
 10
-4.44482
 20
-8.79604
 30
0.0
 10
-4.80376
 20
-8.32166
 30
0.0
 10
-5.30311
 20
-8.14903
 30
0.0
 10
-5.30311
 20
-8.14903
 30
0.0
 10
-5.30311
 20
-7.84904
 30
0.0
 10
-5.30311
 20
-7.84904
 30
0.0
 10
-5.30311
 20
-7.84904
 30
0.0
 10
-8.6843
 20
-7.84904
 30
0.0
 10
-8.6843
 20
-7.84904
 30
0.0
 10
-8.6843
 20
-7.84904
 30
0.0
 10
-8.68432
 20
-8.14904
 30
0.0
 10
-8.68432
 20
-8.14904
 30
0.0
 10
-9.18366
 20
-8.32166
 30
0.0
 10
-9.5426
 20
-8.79604
 30
0.0
 10
-9.5426
 20
-9.35382
 30
0.0
 10
-9.5426
 20
-10.49371
 30
0.0
 10
-8.52539
 20
-11.30593
 30
0.0
 10
-7.39825
 20
-12.34904
 30
0.0
 10
-7.39825
 20
-12.34904
 30
0.0
 10
-7.25613
 20
-12.34904
 30
0.0
 10
-7.25613
 20
-12.34904
 30
0.0
 10
-7.25613
 20
-12.34904
 30
0.0
 10
-7.25613
 20
-12.64904
 30
0.0
 10
-7.25613
 20
-12.64904
 30
0.0
 10
-7.25613
 20
-12.64904
 30
0.0
 10
-6.73128
 20
-12.64904
 30
0.0
 10
-6.73128
 20
-12.64904
 30
0.0
 10
-6.73128
 20
-12.64904
 30
0.0
 10
-6.73135
 20
-12.34897
 30
0.0
 10
-6.73135
 20
-12.34897
 30
0.0
  0
SPLINE
  5
8B
330
1F
100
AcDbEntity
  8
Layer 1
 62
   250
370
     9
100
AcDbSpline
210
0.0
220
0.0
230
1.0
 70
    11
 71
     3
 72
    23
 73
    19
 74
     0
 42
0.0000000001
 43
0.0000000001
 40
0.0
 40
0.0
 40
0.0
 40
0.0
 40
0.1666666666666667
 40
0.1666666666666667
 40
0.1666666666666667
 40
0.3333333333333333
 40
0.3333333333333333
 40
0.3333333333333333
 40
0.5
 40
0.5
 40
0.5
 40
0.6666666666666666
 40
0.6666666666666666
 40
0.6666666666666666
 40
0.8333333333333333
 40
0.8333333333333333
 40
0.8333333333333333
 40
1.0
 40
1.0
 40
1.0
 40
1.0
 10
-6.24507
 20
-9.21308
 30
0.0
 10
-5.83181
 20
-9.21308
 30
0.0
 10
-5.49643
 20
-9.54846
 30
0.0
 10
-5.49643
 20
-9.96171
 30
0.0
 10
-5.49643
 20
-10.71035
 30
0.0
 10
-6.24507
 20
-11.12225
 30
0.0
 10
-6.99371
 20
-11.87089
 30
0.0
 10
-7.74235
 20
-11.12225
 30
0.0
 10
-8.49099
 20
-10.71035
 30
0.0
 10
-8.49099
 20
-9.96171
 30
0.0
 10
-8.49099
 20
-9.54846
 30
0.0
 10
-8.15561
 20
-9.21308
 30
0.0
 10
-7.74235
 20
-9.21308
 30
0.0
 10
-7.36803
 20
-9.21308
 30
0.0
 10
-7.18087
 20
-9.40023
 30
0.0
 10
-6.99371
 20
-9.77455
 30
0.0
 10
-6.80655
 20
-9.40023
 30
0.0
 10
-6.61938
 20
-9.21308
 30
0.0
 10
-6.24507
 20
-9.21308
 30
0.0
  0
SPLINE
  5
8C
330
1F
100
AcDbEntity
  8
Layer 1
 62
   250
370
     9
100
AcDbSpline
210
0.0
220
0.0
230
1.0
 70
    11
 71
     3
 72
    14
 73
    10
 74
     0
 42
0.0000000001
 43
0.0000000001
 40
0.0
 40
0.0
 40
0.0
 40
0.0
 40
0.3333333333333333
 40
0.3333333333333333
 40
0.3333333333333333
 40
0.6666666666666666
 40
0.6666666666666666
 40
0.6666666666666666
 40
1.0
 40
1.0
 40
1.0
 40
1.0
 10
-6.17178
 20
-8.14904
 30
0.0
 10
-6.52843
 20
-8.2746
 30
0.0
 10
-6.76108
 20
-8.56995
 30
0.0
 10
-6.99371
 20
-9.0352
 30
0.0
 10
-7.22633
 20
-8.56995
 30
0.0
 10
-7.45899
 20
-8.2746
 30
0.0
 10
-7.81564
 20
-8.14904
 30
0.0
 10
-7.81564
 20
-8.14904
 30
0.0
 10
-6.17178
 20
-8.14904
 30
0.0
 10
-6.17178
 20
-8.14904
 30
0.0
  0
SPLINE
  5
8D
330
1F
100
AcDbEntity
  8
Layer 1
 62
   250
370
     9
100
AcDbSpline
210
0.0
220
0.0
230
1.0
 70
    27
 71
     3
 72
     8
 73
     4
 74
     0
 42
0.0000000001
 43
0.0000000001
 40
0.0
 40
0.0
 40
0.0
 40
0.0
 40
1.0
 40
1.0
 40
1.0
 40
1.0
 10
-11.5155
 20
-14.80438
 30
0.0
 10
-11.5155
 20
-14.80438
 30
0.0
 10
-11.5155
 20
-14.80438
 30
0.0
 10
-11.5155
 20
-14.80438
 30
0.0
  0
SPLINE
  5
8E
330
1F
100
AcDbEntity
  8
Layer 1
 62
   250
370
     9
100
AcDbSpline
210
0.0
220
0.0
230
1.0
 70
    27
 71
     3
 72
     8
 73
     4
 74
     0
 42
0.0000000001
 43
0.0000000001
 40
0.0
 40
0.0
 40
0.0
 40
0.0
 40
1.0
 40
1.0
 40
1.0
 40
1.0
 10
-8.13429
 20
-14.80437
 30
0.0
 10
-8.13429
 20
-14.80437
 30
0.0
 10
-8.13429
 20
-14.80437
 30
0.0
 10
-8.13429
 20
-14.80437
 30
0.0
  0
SPLINE
  5
8F
330
1F
100
AcDbEntity
  8
Layer 1
 62
   250
370
     9
100
AcDbSpline
210
0.0
220
0.0
230
1.0
 70
    11
 71
     3
 72
    41
 73
    37
 74
     0
 42
0.0000000001
 43
0.0000000001
 40
0.0
 40
0.0
 40
0.0
 40
0.0
 40
0.0833333333333333
 40
0.0833333333333333
 40
0.0833333333333333
 40
0.1666666666666667
 40
0.1666666666666667
 40
0.1666666666666667
 40
0.25
 40
0.25
 40
0.25
 40
0.3333333333333333
 40
0.3333333333333333
 40
0.3333333333333333
 40
0.4166666666666666
 40
0.4166666666666666
 40
0.4166666666666666
 40
0.5
 40
0.5
 40
0.5
 40
0.5833333333333333
 40
0.5833333333333333
 40
0.5833333333333333
 40
0.6666666666666666
 40
0.6666666666666666
 40
0.6666666666666666
 40
0.75
 40
0.75
 40
0.75
 40
0.8333333333333333
 40
0.8333333333333333
 40
0.8333333333333333
 40
0.9166666666666666
 40
0.9166666666666666
 40
0.9166666666666666
 40
1.0
 40
1.0
 40
1.0
 40
1.0
 10
-10.08726
 20
-10.60444
 30
0.0
 10
-10.08726
 20
-10.60444
 30
0.0
 10
-10.22944
 20
-10.60437
 30
0.0
 10
-10.22944
 20
-10.60437
 30
0.0
 10
-11.35568
 20
-11.64618
 30
0.0
 10
-12.37379
 20
-12.4605
 30
0.0
 10
-12.37379
 20
-13.59959
 30
0.0
 10
-12.37379
 20
-14.15737
 30
0.0
 10
-12.01485
 20
-14.63175
 30
0.0
 10
-11.5155
 20
-14.80438
 30
0.0
 10
-11.5155
 20
-14.80438
 30
0.0
 10
-11.5155
 20
-15.10437
 30
0.0
 10
-11.5155
 20
-15.10437
 30
0.0
 10
-11.5155
 20
-15.10437
 30
0.0
 10
-8.13431
 20
-15.10437
 30
0.0
 10
-8.13431
 20
-15.10437
 30
0.0
 10
-8.13431
 20
-15.10437
 30
0.0
 10
-8.13429
 20
-14.80437
 30
0.0
 10
-8.13429
 20
-14.80437
 30
0.0
 10
-7.63495
 20
-14.63175
 30
0.0
 10
-7.27601
 20
-14.15737
 30
0.0
 10
-7.27601
 20
-13.59959
 30
0.0
 10
-7.27601
 20
-12.4597
 30
0.0
 10
-8.29322
 20
-11.64748
 30
0.0
 10
-9.42036
 20
-10.60437
 30
0.0
 10
-9.42036
 20
-10.60437
 30
0.0
 10
-9.56248
 20
-10.60437
 30
0.0
 10
-9.56248
 20
-10.60437
 30
0.0
 10
-9.56248
 20
-10.60437
 30
0.0
 10
-9.56248
 20
-10.30437
 30
0.0
 10
-9.56248
 20
-10.30437
 30
0.0
 10
-9.56248
 20
-10.30437
 30
0.0
 10
-10.08733
 20
-10.30437
 30
0.0
 10
-10.08733
 20
-10.30437
 30
0.0
 10
-10.08733
 20
-10.30437
 30
0.0
 10
-10.08726
 20
-10.60444
 30
0.0
 10
-10.08726
 20
-10.60444
 30
0.0
  0
SPLINE
  5
90
330
1F
100
AcDbEntity
  8
Layer 1
 62
   250
370
     9
100
AcDbSpline
210
0.0
220
0.0
230
1.0
 70
    11
 71
     3
 72
    23
 73
    19
 74
     0
 42
0.0000000001
 43
0.0000000001
 40
0.0
 40
0.0
 40
0.0
 40
0.0
 40
0.1666666666666667
 40
0.1666666666666667
 40
0.1666666666666667
 40
0.3333333333333333
 40
0.3333333333333333
 40
0.3333333333333333
 40
0.5
 40
0.5
 40
0.5
 40
0.6666666666666666
 40
0.6666666666666666
 40
0.6666666666666666
 40
0.8333333333333333
 40
0.8333333333333333
 40
0.8333333333333333
 40
1.0
 40
1.0
 40
1.0
 40
1.0
 10
-10.57354
 20
-13.74033
 30
0.0
 10
-10.9868
 20
-13.74033
 30
0.0
 10
-11.32218
 20
-13.40495
 30
0.0
 10
-11.32218
 20
-12.9917
 30
0.0
 10
-11.32218
 20
-12.24306
 30
0.0
 10
-10.57354
 20
-11.83116
 30
0.0
 10
-9.8249
 20
-11.08252
 30
0.0
 10
-9.07626
 20
-11.83116
 30
0.0
 10
-8.32762
 20
-12.24306
 30
0.0
 10
-8.32762
 20
-12.9917
 30
0.0
 10
-8.32762
 20
-13.40495
 30
0.0
 10
-8.663
 20
-13.74033
 30
0.0
 10
-9.07626
 20
-13.74033
 30
0.0
 10
-9.45058
 20
-13.74033
 30
0.0
 10
-9.63774
 20
-13.55318
 30
0.0
 10
-9.8249
 20
-13.17886
 30
0.0
 10
-10.01206
 20
-13.55318
 30
0.0
 10
-10.19923
 20
-13.74033
 30
0.0
 10
-10.57354
 20
-13.74033
 30
0.0
  0
SPLINE
  5
91
330
1F
100
AcDbEntity
  8
Layer 1
 62
   250
370
     9
100
AcDbSpline
210
0.0
220
0.0
230
1.0
 70
    11
 71
     3
 72
    14
 73
    10
 74
     0
 42
0.0000000001
 43
0.0000000001
 40
0.0
 40
0.0
 40
0.0
 40
0.0
 40
0.3333333333333333
 40
0.3333333333333333
 40
0.3333333333333333
 40
0.6666666666666666
 40
0.6666666666666666
 40
0.6666666666666666
 40
1.0
 40
1.0
 40
1.0
 40
1.0
 10
-10.64683
 20
-14.80437
 30
0.0
 10
-10.29018
 20
-14.67881
 30
0.0
 10
-10.05753
 20
-14.38346
 30
0.0
 10
-9.8249
 20
-13.91821
 30
0.0
 10
-9.59228
 20
-14.38346
 30
0.0
 10
-9.35962
 20
-14.67881
 30
0.0
 10
-9.00297
 20
-14.80437
 30
0.0
 10
-9.00297
 20
-14.80437
 30
0.0
 10
-10.64683
 20
-14.80437
 30
0.0
 10
-10.64683
 20
-14.80437
 30
0.0
  0
SPLINE
  5
92
330
1F
100
AcDbEntity
  8
Layer 1
 62
   250
370
     9
100
AcDbSpline
210
0.0
220
0.0
230
1.0
 70
    27
 71
     3
 72
     8
 73
     4
 74
     0
 42
0.0000000001
 43
0.0000000001
 40
0.0
 40
0.0
 40
0.0
 40
0.0
 40
1.0
 40
1.0
 40
1.0
 40
1.0
 10
-16.01152
 20
-7.19019
 30
0.0
 10
-16.01152
 20
-7.19019
 30
0.0
 10
-16.01152
 20
-7.19019
 30
0.0
 10
-16.01152
 20
-7.19019
 30
0.0
  0
SPLINE
  5
93
330
1F
100
AcDbEntity
  8
Layer 1
 62
   250
370
     9
100
AcDbSpline
210
0.0
220
0.0
230
1.0
 70
    27
 71
     3
 72
     8
 73
     4
 74
     0
 42
0.0000000001
 43
0.0000000001
 40
0.0
 40
0.0
 40
0.0
 40
0.0
 40
1.0
 40
1.0
 40
1.0
 40
1.0
 10
-19.39273
 20
-7.19018
 30
0.0
 10
-19.39273
 20
-7.19018
 30
0.0
 10
-19.39273
 20
-7.19018
 30
0.0
 10
-19.39273
 20
-7.19018
 30
0.0
  0
SPLINE
  5
94
330
1F
100
AcDbEntity
  8
Layer 1
 62
   250
370
     9
100
AcDbSpline
210
0.0
220
0.0
230
1.0
 70
    11
 71
     3
 72
    41
 73
    37
 74
     0
 42
0.0000000001
 43
0.0000000001
 40
0.0
 40
0.0
 40
0.0
 40
0.0
 40
0.0833333333333333
 40
0.0833333333333333
 40
0.0833333333333333
 40
0.1666666666666667
 40
0.1666666666666667
 40
0.1666666666666667
 40
0.25
 40
0.25
 40
0.25
 40
0.3333333333333333
 40
0.3333333333333333
 40
0.3333333333333333
 40
0.4166666666666666
 40
0.4166666666666666
 40
0.4166666666666666
 40
0.5
 40
0.5
 40
0.5
 40
0.5833333333333333
 40
0.5833333333333333
 40
0.5833333333333333
 40
0.6666666666666666
 40
0.6666666666666666
 40
0.6666666666666666
 40
0.75
 40
0.75
 40
0.75
 40
0.8333333333333333
 40
0.8333333333333333
 40
0.8333333333333333
 40
0.9166666666666666
 40
0.9166666666666666
 40
0.9166666666666666
 40
1.0
 40
1.0
 40
1.0
 40
1.0
 10
-17.43976
 20
-2.99025
 30
0.0
 10
-17.43976
 20
-2.99025
 30
0.0
 10
-17.29758
 20
-2.99018
 30
0.0
 10
-17.29758
 20
-2.99018
 30
0.0
 10
-16.17134
 20
-4.03199
 30
0.0
 10
-15.15323
 20
-4.84631
 30
0.0
 10
-15.15323
 20
-5.9854
 30
0.0
 10
-15.15323
 20
-6.54318
 30
0.0
 10
-15.51217
 20
-7.01756
 30
0.0
 10
-16.01152
 20
-7.19019
 30
0.0
 10
-16.01152
 20
-7.19019
 30
0.0
 10
-16.01152
 20
-7.49018
 30
0.0
 10
-16.01152
 20
-7.49018
 30
0.0
 10
-16.01152
 20
-7.49018
 30
0.0
 10
-19.39271
 20
-7.49018
 30
0.0
 10
-19.39271
 20
-7.49018
 30
0.0
 10
-19.39271
 20
-7.49018
 30
0.0
 10
-19.39273
 20
-7.19018
 30
0.0
 10
-19.39273
 20
-7.19018
 30
0.0
 10
-19.89207
 20
-7.01756
 30
0.0
 10
-20.25101
 20
-6.54318
 30
0.0
 10
-20.25101
 20
-5.9854
 30
0.0
 10
-20.25101
 20
-4.84551
 30
0.0
 10
-19.2338
 20
-4.03329
 30
0.0
 10
-18.10666
 20
-2.99018
 30
0.0
 10
-18.10666
 20
-2.99018
 30
0.0
 10
-17.96454
 20
-2.99018
 30
0.0
 10
-17.96454
 20
-2.99018
 30
0.0
 10
-17.96454
 20
-2.99018
 30
0.0
 10
-17.96454
 20
-2.69018
 30
0.0
 10
-17.96454
 20
-2.69018
 30
0.0
 10
-17.96454
 20
-2.69018
 30
0.0
 10
-17.43969
 20
-2.69018
 30
0.0
 10
-17.43969
 20
-2.69018
 30
0.0
 10
-17.43969
 20
-2.69018
 30
0.0
 10
-17.43976
 20
-2.99025
 30
0.0
 10
-17.43976
 20
-2.99025
 30
0.0
  0
SPLINE
  5
95
330
1F
100
AcDbEntity
  8
Layer 1
 62
   250
370
     9
100
AcDbSpline
210
0.0
220
0.0
230
1.0
 70
    11
 71
     3
 72
    23
 73
    19
 74
     0
 42
0.0000000001
 43
0.0000000001
 40
0.0
 40
0.0
 40
0.0
 40
0.0
 40
0.1666666666666667
 40
0.1666666666666667
 40
0.1666666666666667
 40
0.3333333333333333
 40
0.3333333333333333
 40
0.3333333333333333
 40
0.5
 40
0.5
 40
0.5
 40
0.6666666666666666
 40
0.6666666666666666
 40
0.6666666666666666
 40
0.8333333333333333
 40
0.8333333333333333
 40
0.8333333333333333
 40
1.0
 40
1.0
 40
1.0
 40
1.0
 10
-16.95348
 20
-6.12614
 30
0.0
 10
-16.54022
 20
-6.12614
 30
0.0
 10
-16.20484
 20
-5.79076
 30
0.0
 10
-16.20484
 20
-5.37751
 30
0.0
 10
-16.20484
 20
-4.62887
 30
0.0
 10
-16.95348
 20
-4.21697
 30
0.0
 10
-17.70212
 20
-3.46833
 30
0.0
 10
-18.45076
 20
-4.21697
 30
0.0
 10
-19.1994
 20
-4.62887
 30
0.0
 10
-19.1994
 20
-5.37751
 30
0.0
 10
-19.1994
 20
-5.79076
 30
0.0
 10
-18.86402
 20
-6.12614
 30
0.0
 10
-18.45076
 20
-6.12614
 30
0.0
 10
-18.07644
 20
-6.12614
 30
0.0
 10
-17.88928
 20
-5.93899
 30
0.0
 10
-17.70212
 20
-5.56467
 30
0.0
 10
-17.51496
 20
-5.93899
 30
0.0
 10
-17.32779
 20
-6.12614
 30
0.0
 10
-16.95348
 20
-6.12614
 30
0.0
  0
SPLINE
  5
96
330
1F
100
AcDbEntity
  8
Layer 1
 62
   250
370
     9
100
AcDbSpline
210
0.0
220
0.0
230
1.0
 70
    11
 71
     3
 72
    14
 73
    10
 74
     0
 42
0.0000000001
 43
0.0000000001
 40
0.0
 40
0.0
 40
0.0
 40
0.0
 40
0.3333333333333333
 40
0.3333333333333333
 40
0.3333333333333333
 40
0.6666666666666666
 40
0.6666666666666666
 40
0.6666666666666666
 40
1.0
 40
1.0
 40
1.0
 40
1.0
 10
-16.88019
 20
-7.19018
 30
0.0
 10
-17.23684
 20
-7.06462
 30
0.0
 10
-17.46949
 20
-6.76927
 30
0.0
 10
-17.70212
 20
-6.30402
 30
0.0
 10
-17.93474
 20
-6.76927
 30
0.0
 10
-18.1674
 20
-7.06462
 30
0.0
 10
-18.52405
 20
-7.19018
 30
0.0
 10
-18.52405
 20
-7.19018
 30
0.0
 10
-16.88019
 20
-7.19018
 30
0.0
 10
-16.88019
 20
-7.19018
 30
0.0
  0
SPLINE
  5
97
330
1F
100
AcDbEntity
  8
Layer 1
 62
   250
370
     9
100
AcDbSpline
210
0.0
220
0.0
230
1.0
 70
    27
 71
     3
 72
     8
 73
     4
 74
     0
 42
0.0000000001
 43
0.0000000001
 40
0.0
 40
0.0
 40
0.0
 40
0.0
 40
1.0
 40
1.0
 40
1.0
 40
1.0
 10
-16.62351
 20
-0.53484
 30
0.0
 10
-16.62351
 20
-0.53484
 30
0.0
 10
-16.62351
 20
-0.53484
 30
0.0
 10
-16.62351
 20
-0.53484
 30
0.0
  0
SPLINE
  5
98
330
1F
100
AcDbEntity
  8
Layer 1
 62
   250
370
     9
100
AcDbSpline
210
0.0
220
0.0
230
1.0
 70
    27
 71
     3
 72
     8
 73
     4
 74
     0
 42
0.0000000001
 43
0.0000000001
 40
0.0
 40
0.0
 40
0.0
 40
0.0
 40
1.0
 40
1.0
 40
1.0
 40
1.0
 10
-13.2423
 20
-0.53485
 30
0.0
 10
-13.2423
 20
-0.53485
 30
0.0
 10
-13.2423
 20
-0.53485
 30
0.0
 10
-13.2423
 20
-0.53485
 30
0.0
  0
SPLINE
  5
99
330
1F
100
AcDbEntity
  8
Layer 1
 62
   250
370
     9
100
AcDbSpline
210
0.0
220
0.0
230
1.0
 70
    11
 71
     3
 72
    41
 73
    37
 74
     0
 42
0.0000000001
 43
0.0000000001
 40
0.0
 40
0.0
 40
0.0
 40
0.0
 40
0.0833333333333333
 40
0.0833333333333333
 40
0.0833333333333333
 40
0.1666666666666667
 40
0.1666666666666667
 40
0.1666666666666667
 40
0.25
 40
0.25
 40
0.25
 40
0.3333333333333333
 40
0.3333333333333333
 40
0.3333333333333333
 40
0.4166666666666666
 40
0.4166666666666666
 40
0.4166666666666666
 40
0.5
 40
0.5
 40
0.5
 40
0.5833333333333333
 40
0.5833333333333333
 40
0.5833333333333333
 40
0.6666666666666666
 40
0.6666666666666666
 40
0.6666666666666666
 40
0.75
 40
0.75
 40
0.75
 40
0.8333333333333333
 40
0.8333333333333333
 40
0.8333333333333333
 40
0.9166666666666666
 40
0.9166666666666666
 40
0.9166666666666666
 40
1.0
 40
1.0
 40
1.0
 40
1.0
 10
-15.19527
 20
-4.73478
 30
0.0
 10
-15.19527
 20
-4.73478
 30
0.0
 10
-15.33745
 20
-4.73485
 30
0.0
 10
-15.33745
 20
-4.73485
 30
0.0
 10
-16.46369
 20
-3.69304
 30
0.0
 10
-17.4818
 20
-2.87872
 30
0.0
 10
-17.4818
 20
-1.73963
 30
0.0
 10
-17.4818
 20
-1.18185
 30
0.0
 10
-17.12286
 20
-0.70747
 30
0.0
 10
-16.62351
 20
-0.53484
 30
0.0
 10
-16.62351
 20
-0.53484
 30
0.0
 10
-16.62351
 20
-0.23485
 30
0.0
 10
-16.62351
 20
-0.23485
 30
0.0
 10
-16.62351
 20
-0.23485
 30
0.0
 10
-13.24232
 20
-0.23485
 30
0.0
 10
-13.24232
 20
-0.23485
 30
0.0
 10
-13.24232
 20
-0.23485
 30
0.0
 10
-13.2423
 20
-0.53485
 30
0.0
 10
-13.2423
 20
-0.53485
 30
0.0
 10
-12.74296
 20
-0.70747
 30
0.0
 10
-12.38402
 20
-1.18185
 30
0.0
 10
-12.38402
 20
-1.73963
 30
0.0
 10
-12.38402
 20
-2.87952
 30
0.0
 10
-13.40123
 20
-3.69174
 30
0.0
 10
-14.52837
 20
-4.73485
 30
0.0
 10
-14.52837
 20
-4.73485
 30
0.0
 10
-14.67049
 20
-4.73485
 30
0.0
 10
-14.67049
 20
-4.73485
 30
0.0
 10
-14.67049
 20
-4.73485
 30
0.0
 10
-14.67049
 20
-5.03485
 30
0.0
 10
-14.67049
 20
-5.03485
 30
0.0
 10
-14.67049
 20
-5.03485
 30
0.0
 10
-15.19534
 20
-5.03485
 30
0.0
 10
-15.19534
 20
-5.03485
 30
0.0
 10
-15.19534
 20
-5.03485
 30
0.0
 10
-15.19527
 20
-4.73478
 30
0.0
 10
-15.19527
 20
-4.73478
 30
0.0
  0
SPLINE
  5
9A
330
1F
100
AcDbEntity
  8
Layer 1
 62
   250
370
     9
100
AcDbSpline
210
0.0
220
0.0
230
1.0
 70
    11
 71
     3
 72
    23
 73
    19
 74
     0
 42
0.0000000001
 43
0.0000000001
 40
0.0
 40
0.0
 40
0.0
 40
0.0
 40
0.1666666666666667
 40
0.1666666666666667
 40
0.1666666666666667
 40
0.3333333333333333
 40
0.3333333333333333
 40
0.3333333333333333
 40
0.5
 40
0.5
 40
0.5
 40
0.6666666666666666
 40
0.6666666666666666
 40
0.6666666666666666
 40
0.8333333333333333
 40
0.8333333333333333
 40
0.8333333333333333
 40
1.0
 40
1.0
 40
1.0
 40
1.0
 10
-15.68155
 20
-1.59889
 30
0.0
 10
-16.09481
 20
-1.59889
 30
0.0
 10
-16.43019
 20
-1.93427
 30
0.0
 10
-16.43019
 20
-2.34752
 30
0.0
 10
-16.43019
 20
-3.09616
 30
0.0
 10
-15.68155
 20
-3.50806
 30
0.0
 10
-14.93291
 20
-4.2567
 30
0.0
 10
-14.18427
 20
-3.50806
 30
0.0
 10
-13.43563
 20
-3.09616
 30
0.0
 10
-13.43563
 20
-2.34752
 30
0.0
 10
-13.43563
 20
-1.93427
 30
0.0
 10
-13.77101
 20
-1.59889
 30
0.0
 10
-14.18427
 20
-1.59889
 30
0.0
 10
-14.55859
 20
-1.59889
 30
0.0
 10
-14.74575
 20
-1.78604
 30
0.0
 10
-14.93291
 20
-2.16036
 30
0.0
 10
-15.12007
 20
-1.78604
 30
0.0
 10
-15.30724
 20
-1.59889
 30
0.0
 10
-15.68155
 20
-1.59889
 30
0.0
  0
SPLINE
  5
9B
330
1F
100
AcDbEntity
  8
Layer 1
 62
   250
370
     9
100
AcDbSpline
210
0.0
220
0.0
230
1.0
 70
    11
 71
     3
 72
    14
 73
    10
 74
     0
 42
0.0000000001
 43
0.0000000001
 40
0.0
 40
0.0
 40
0.0
 40
0.0
 40
0.3333333333333333
 40
0.3333333333333333
 40
0.3333333333333333
 40
0.6666666666666666
 40
0.6666666666666666
 40
0.6666666666666666
 40
1.0
 40
1.0
 40
1.0
 40
1.0
 10
-15.75484
 20
-0.53485
 30
0.0
 10
-15.39819
 20
-0.66041
 30
0.0
 10
-15.16554
 20
-0.95576
 30
0.0
 10
-14.93291
 20
-1.42101
 30
0.0
 10
-14.70029
 20
-0.95576
 30
0.0
 10
-14.46763
 20
-0.66041
 30
0.0
 10
-14.11098
 20
-0.53485
 30
0.0
 10
-14.11098
 20
-0.53485
 30
0.0
 10
-15.75484
 20
-0.53485
 30
0.0
 10
-15.75484
 20
-0.53485
 30
0.0
  0
SPLINE
  5
9C
330
1F
100
AcDbEntity
  8
Layer 1
 62
   250
370
     9
100
AcDbSpline
210
0.0
220
0.0
230
1.0
 70
    27
 71
     3
 72
     8
 73
     4
 74
     0
 42
0.0000000001
 43
0.0000000001
 40
0.0
 40
0.0
 40
0.0
 40
0.0
 40
1.0
 40
1.0
 40
1.0
 40
1.0
 10
-10.41112
 20
-7.19019
 30
0.0
 10
-10.41112
 20
-7.19019
 30
0.0
 10
-10.41112
 20
-7.19019
 30
0.0
 10
-10.41112
 20
-7.19019
 30
0.0
  0
SPLINE
  5
9D
330
1F
100
AcDbEntity
  8
Layer 1
 62
   250
370
     9
100
AcDbSpline
210
0.0
220
0.0
230
1.0
 70
    27
 71
     3
 72
     8
 73
     4
 74
     0
 42
0.0000000001
 43
0.0000000001
 40
0.0
 40
0.0
 40
0.0
 40
0.0
 40
1.0
 40
1.0
 40
1.0
 40
1.0
 10
-13.79233
 20
-7.19018
 30
0.0
 10
-13.79233
 20
-7.19018
 30
0.0
 10
-13.79233
 20
-7.19018
 30
0.0
 10
-13.79233
 20
-7.19018
 30
0.0
  0
SPLINE
  5
9E
330
1F
100
AcDbEntity
  8
Layer 1
 62
   250
370
     9
100
AcDbSpline
210
0.0
220
0.0
230
1.0
 70
    11
 71
     3
 72
    41
 73
    37
 74
     0
 42
0.0000000001
 43
0.0000000001
 40
0.0
 40
0.0
 40
0.0
 40
0.0
 40
0.0833333333333333
 40
0.0833333333333333
 40
0.0833333333333333
 40
0.1666666666666667
 40
0.1666666666666667
 40
0.1666666666666667
 40
0.25
 40
0.25
 40
0.25
 40
0.3333333333333333
 40
0.3333333333333333
 40
0.3333333333333333
 40
0.4166666666666666
 40
0.4166666666666666
 40
0.4166666666666666
 40
0.5
 40
0.5
 40
0.5
 40
0.5833333333333333
 40
0.5833333333333333
 40
0.5833333333333333
 40
0.6666666666666666
 40
0.6666666666666666
 40
0.6666666666666666
 40
0.75
 40
0.75
 40
0.75
 40
0.8333333333333333
 40
0.8333333333333333
 40
0.8333333333333333
 40
0.9166666666666666
 40
0.9166666666666666
 40
0.9166666666666666
 40
1.0
 40
1.0
 40
1.0
 40
1.0
 10
-11.83936
 20
-2.99025
 30
0.0
 10
-11.83936
 20
-2.99025
 30
0.0
 10
-11.69718
 20
-2.99018
 30
0.0
 10
-11.69718
 20
-2.99018
 30
0.0
 10
-10.57094
 20
-4.03199
 30
0.0
 10
-9.55283
 20
-4.84631
 30
0.0
 10
-9.55283
 20
-5.9854
 30
0.0
 10
-9.55283
 20
-6.54318
 30
0.0
 10
-9.91177
 20
-7.01756
 30
0.0
 10
-10.41112
 20
-7.19019
 30
0.0
 10
-10.41112
 20
-7.19019
 30
0.0
 10
-10.41112
 20
-7.49018
 30
0.0
 10
-10.41112
 20
-7.49018
 30
0.0
 10
-10.41112
 20
-7.49018
 30
0.0
 10
-13.79231
 20
-7.49018
 30
0.0
 10
-13.79231
 20
-7.49018
 30
0.0
 10
-13.79231
 20
-7.49018
 30
0.0
 10
-13.79233
 20
-7.19018
 30
0.0
 10
-13.79233
 20
-7.19018
 30
0.0
 10
-14.29167
 20
-7.01756
 30
0.0
 10
-14.65061
 20
-6.54318
 30
0.0
 10
-14.65061
 20
-5.9854
 30
0.0
 10
-14.65061
 20
-4.84551
 30
0.0
 10
-13.6334
 20
-4.03329
 30
0.0
 10
-12.50626
 20
-2.99018
 30
0.0
 10
-12.50626
 20
-2.99018
 30
0.0
 10
-12.36414
 20
-2.99018
 30
0.0
 10
-12.36414
 20
-2.99018
 30
0.0
 10
-12.36414
 20
-2.99018
 30
0.0
 10
-12.36414
 20
-2.69018
 30
0.0
 10
-12.36414
 20
-2.69018
 30
0.0
 10
-12.36414
 20
-2.69018
 30
0.0
 10
-11.83929
 20
-2.69018
 30
0.0
 10
-11.83929
 20
-2.69018
 30
0.0
 10
-11.83929
 20
-2.69018
 30
0.0
 10
-11.83936
 20
-2.99025
 30
0.0
 10
-11.83936
 20
-2.99025
 30
0.0
  0
SPLINE
  5
9F
330
1F
100
AcDbEntity
  8
Layer 1
 62
   250
370
     9
100
AcDbSpline
210
0.0
220
0.0
230
1.0
 70
    11
 71
     3
 72
    23
 73
    19
 74
     0
 42
0.0000000001
 43
0.0000000001
 40
0.0
 40
0.0
 40
0.0
 40
0.0
 40
0.1666666666666667
 40
0.1666666666666667
 40
0.1666666666666667
 40
0.3333333333333333
 40
0.3333333333333333
 40
0.3333333333333333
 40
0.5
 40
0.5
 40
0.5
 40
0.6666666666666666
 40
0.6666666666666666
 40
0.6666666666666666
 40
0.8333333333333333
 40
0.8333333333333333
 40
0.8333333333333333
 40
1.0
 40
1.0
 40
1.0
 40
1.0
 10
-11.35308
 20
-6.12614
 30
0.0
 10
-10.93982
 20
-6.12614
 30
0.0
 10
-10.60444
 20
-5.79076
 30
0.0
 10
-10.60444
 20
-5.37751
 30
0.0
 10
-10.60444
 20
-4.62887
 30
0.0
 10
-11.35308
 20
-4.21697
 30
0.0
 10
-12.10172
 20
-3.46833
 30
0.0
 10
-12.85036
 20
-4.21697
 30
0.0
 10
-13.599
 20
-4.62887
 30
0.0
 10
-13.599
 20
-5.37751
 30
0.0
 10
-13.599
 20
-5.79076
 30
0.0
 10
-13.26362
 20
-6.12614
 30
0.0
 10
-12.85036
 20
-6.12614
 30
0.0
 10
-12.47604
 20
-6.12614
 30
0.0
 10
-12.28888
 20
-5.93899
 30
0.0
 10
-12.10172
 20
-5.56467
 30
0.0
 10
-11.91456
 20
-5.93899
 30
0.0
 10
-11.72739
 20
-6.12614
 30
0.0
 10
-11.35308
 20
-6.12614
 30
0.0
  0
SPLINE
  5
A0
330
1F
100
AcDbEntity
  8
Layer 1
 62
   250
370
     9
100
AcDbSpline
210
0.0
220
0.0
230
1.0
 70
    11
 71
     3
 72
    14
 73
    10
 74
     0
 42
0.0000000001
 43
0.0000000001
 40
0.0
 40
0.0
 40
0.0
 40
0.0
 40
0.3333333333333333
 40
0.3333333333333333
 40
0.3333333333333333
 40
0.6666666666666666
 40
0.6666666666666666
 40
0.6666666666666666
 40
1.0
 40
1.0
 40
1.0
 40
1.0
 10
-11.27979
 20
-7.19018
 30
0.0
 10
-11.63644
 20
-7.06462
 30
0.0
 10
-11.86909
 20
-6.76927
 30
0.0
 10
-12.10172
 20
-6.30402
 30
0.0
 10
-12.33434
 20
-6.76927
 30
0.0
 10
-12.567
 20
-7.06462
 30
0.0
 10
-12.92365
 20
-7.19018
 30
0.0
 10
-12.92365
 20
-7.19018
 30
0.0
 10
-11.27979
 20
-7.19018
 30
0.0
 10
-11.27979
 20
-7.19018
 30
0.0
  0
SPLINE
  5
A1
330
1F
100
AcDbEntity
  8
Layer 1
 62
   250
370
     9
100
AcDbSpline
210
0.0
220
0.0
230
1.0
 70
    27
 71
     3
 72
     8
 73
     4
 74
     0
 42
0.0000000001
 43
0.0000000001
 40
0.0
 40
0.0
 40
0.0
 40
0.0
 40
1.0
 40
1.0
 40
1.0
 40
1.0
 10
-4.81072
 20
-7.19019
 30
0.0
 10
-4.81072
 20
-7.19019
 30
0.0
 10
-4.81072
 20
-7.19019
 30
0.0
 10
-4.81072
 20
-7.19019
 30
0.0
  0
SPLINE
  5
A2
330
1F
100
AcDbEntity
  8
Layer 1
 62
   250
370
     9
100
AcDbSpline
210
0.0
220
0.0
230
1.0
 70
    27
 71
     3
 72
     8
 73
     4
 74
     0
 42
0.0000000001
 43
0.0000000001
 40
0.0
 40
0.0
 40
0.0
 40
0.0
 40
1.0
 40
1.0
 40
1.0
 40
1.0
 10
-8.19193
 20
-7.19018
 30
0.0
 10
-8.19193
 20
-7.19018
 30
0.0
 10
-8.19193
 20
-7.19018
 30
0.0
 10
-8.19193
 20
-7.19018
 30
0.0
  0
SPLINE
  5
A3
330
1F
100
AcDbEntity
  8
Layer 1
 62
   250
370
     9
100
AcDbSpline
210
0.0
220
0.0
230
1.0
 70
    11
 71
     3
 72
    41
 73
    37
 74
     0
 42
0.0000000001
 43
0.0000000001
 40
0.0
 40
0.0
 40
0.0
 40
0.0
 40
0.0833333333333333
 40
0.0833333333333333
 40
0.0833333333333333
 40
0.1666666666666667
 40
0.1666666666666667
 40
0.1666666666666667
 40
0.25
 40
0.25
 40
0.25
 40
0.3333333333333333
 40
0.3333333333333333
 40
0.3333333333333333
 40
0.4166666666666666
 40
0.4166666666666666
 40
0.4166666666666666
 40
0.5
 40
0.5
 40
0.5
 40
0.5833333333333333
 40
0.5833333333333333
 40
0.5833333333333333
 40
0.6666666666666666
 40
0.6666666666666666
 40
0.6666666666666666
 40
0.75
 40
0.75
 40
0.75
 40
0.8333333333333333
 40
0.8333333333333333
 40
0.8333333333333333
 40
0.9166666666666666
 40
0.9166666666666666
 40
0.9166666666666666
 40
1.0
 40
1.0
 40
1.0
 40
1.0
 10
-6.23896
 20
-2.99025
 30
0.0
 10
-6.23896
 20
-2.99025
 30
0.0
 10
-6.09678
 20
-2.99018
 30
0.0
 10
-6.09678
 20
-2.99018
 30
0.0
 10
-4.97054
 20
-4.03199
 30
0.0
 10
-3.95243
 20
-4.84631
 30
0.0
 10
-3.95243
 20
-5.9854
 30
0.0
 10
-3.95243
 20
-6.54318
 30
0.0
 10
-4.31137
 20
-7.01756
 30
0.0
 10
-4.81072
 20
-7.19019
 30
0.0
 10
-4.81072
 20
-7.19019
 30
0.0
 10
-4.81072
 20
-7.49018
 30
0.0
 10
-4.81072
 20
-7.49018
 30
0.0
 10
-4.81072
 20
-7.49018
 30
0.0
 10
-8.19191
 20
-7.49018
 30
0.0
 10
-8.19191
 20
-7.49018
 30
0.0
 10
-8.19191
 20
-7.49018
 30
0.0
 10
-8.19193
 20
-7.19018
 30
0.0
 10
-8.19193
 20
-7.19018
 30
0.0
 10
-8.69127
 20
-7.01756
 30
0.0
 10
-9.05021
 20
-6.54318
 30
0.0
 10
-9.05021
 20
-5.9854
 30
0.0
 10
-9.05021
 20
-4.84551
 30
0.0
 10
-8.033
 20
-4.03329
 30
0.0
 10
-6.90586
 20
-2.99018
 30
0.0
 10
-6.90586
 20
-2.99018
 30
0.0
 10
-6.76374
 20
-2.99018
 30
0.0
 10
-6.76374
 20
-2.99018
 30
0.0
 10
-6.76374
 20
-2.99018
 30
0.0
 10
-6.76374
 20
-2.69018
 30
0.0
 10
-6.76374
 20
-2.69018
 30
0.0
 10
-6.76374
 20
-2.69018
 30
0.0
 10
-6.23889
 20
-2.69018
 30
0.0
 10
-6.23889
 20
-2.69018
 30
0.0
 10
-6.23889
 20
-2.69018
 30
0.0
 10
-6.23896
 20
-2.99025
 30
0.0
 10
-6.23896
 20
-2.99025
 30
0.0
  0
SPLINE
  5
A4
330
1F
100
AcDbEntity
  8
Layer 1
 62
   250
370
     9
100
AcDbSpline
210
0.0
220
0.0
230
1.0
 70
    11
 71
     3
 72
    23
 73
    19
 74
     0
 42
0.0000000001
 43
0.0000000001
 40
0.0
 40
0.0
 40
0.0
 40
0.0
 40
0.1666666666666667
 40
0.1666666666666667
 40
0.1666666666666667
 40
0.3333333333333333
 40
0.3333333333333333
 40
0.3333333333333333
 40
0.5
 40
0.5
 40
0.5
 40
0.6666666666666666
 40
0.6666666666666666
 40
0.6666666666666666
 40
0.8333333333333333
 40
0.8333333333333333
 40
0.8333333333333333
 40
1.0
 40
1.0
 40
1.0
 40
1.0
 10
-5.75268
 20
-6.12614
 30
0.0
 10
-5.33942
 20
-6.12614
 30
0.0
 10
-5.00404
 20
-5.79076
 30
0.0
 10
-5.00404
 20
-5.37751
 30
0.0
 10
-5.00404
 20
-4.62887
 30
0.0
 10
-5.75268
 20
-4.21697
 30
0.0
 10
-6.50132
 20
-3.46833
 30
0.0
 10
-7.24996
 20
-4.21697
 30
0.0
 10
-7.9986
 20
-4.62887
 30
0.0
 10
-7.9986
 20
-5.37751
 30
0.0
 10
-7.9986
 20
-5.79076
 30
0.0
 10
-7.66322
 20
-6.12614
 30
0.0
 10
-7.24996
 20
-6.12614
 30
0.0
 10
-6.87564
 20
-6.12614
 30
0.0
 10
-6.68848
 20
-5.93899
 30
0.0
 10
-6.50132
 20
-5.56467
 30
0.0
 10
-6.31416
 20
-5.93899
 30
0.0
 10
-6.12699
 20
-6.12614
 30
0.0
 10
-5.75268
 20
-6.12614
 30
0.0
  0
SPLINE
  5
A5
330
1F
100
AcDbEntity
  8
Layer 1
 62
   250
370
     9
100
AcDbSpline
210
0.0
220
0.0
230
1.0
 70
    11
 71
     3
 72
    14
 73
    10
 74
     0
 42
0.0000000001
 43
0.0000000001
 40
0.0
 40
0.0
 40
0.0
 40
0.0
 40
0.3333333333333333
 40
0.3333333333333333
 40
0.3333333333333333
 40
0.6666666666666666
 40
0.6666666666666666
 40
0.6666666666666666
 40
1.0
 40
1.0
 40
1.0
 40
1.0
 10
-5.67939
 20
-7.19018
 30
0.0
 10
-6.03604
 20
-7.06462
 30
0.0
 10
-6.26869
 20
-6.76927
 30
0.0
 10
-6.50132
 20
-6.30402
 30
0.0
 10
-6.73394
 20
-6.76927
 30
0.0
 10
-6.9666
 20
-7.06462
 30
0.0
 10
-7.32325
 20
-7.19018
 30
0.0
 10
-7.32325
 20
-7.19018
 30
0.0
 10
-5.67939
 20
-7.19018
 30
0.0
 10
-5.67939
 20
-7.19018
 30
0.0
  0
SPLINE
  5
A6
330
1F
100
AcDbEntity
  8
Layer 1
 62
   250
370
     9
100
AcDbSpline
210
0.0
220
0.0
230
1.0
 70
    27
 71
     3
 72
     8
 73
     4
 74
     0
 42
0.0000000001
 43
0.0000000001
 40
0.0
 40
0.0
 40
0.0
 40
0.0
 40
1.0
 40
1.0
 40
1.0
 40
1.0
 10
-11.02311
 20
-0.53484
 30
0.0
 10
-11.02311
 20
-0.53484
 30
0.0
 10
-11.02311
 20
-0.53484
 30
0.0
 10
-11.02311
 20
-0.53484
 30
0.0
  0
SPLINE
  5
A7
330
1F
100
AcDbEntity
  8
Layer 1
 62
   250
370
     9
100
AcDbSpline
210
0.0
220
0.0
230
1.0
 70
    27
 71
     3
 72
     8
 73
     4
 74
     0
 42
0.0000000001
 43
0.0000000001
 40
0.0
 40
0.0
 40
0.0
 40
0.0
 40
1.0
 40
1.0
 40
1.0
 40
1.0
 10
-7.6419
 20
-0.53485
 30
0.0
 10
-7.6419
 20
-0.53485
 30
0.0
 10
-7.6419
 20
-0.53485
 30
0.0
 10
-7.6419
 20
-0.53485
 30
0.0
  0
SPLINE
  5
A8
330
1F
100
AcDbEntity
  8
Layer 1
 62
   250
370
     9
100
AcDbSpline
210
0.0
220
0.0
230
1.0
 70
    11
 71
     3
 72
    41
 73
    37
 74
     0
 42
0.0000000001
 43
0.0000000001
 40
0.0
 40
0.0
 40
0.0
 40
0.0
 40
0.0833333333333333
 40
0.0833333333333333
 40
0.0833333333333333
 40
0.1666666666666667
 40
0.1666666666666667
 40
0.1666666666666667
 40
0.25
 40
0.25
 40
0.25
 40
0.3333333333333333
 40
0.3333333333333333
 40
0.3333333333333333
 40
0.4166666666666666
 40
0.4166666666666666
 40
0.4166666666666666
 40
0.5
 40
0.5
 40
0.5
 40
0.5833333333333333
 40
0.5833333333333333
 40
0.5833333333333333
 40
0.6666666666666666
 40
0.6666666666666666
 40
0.6666666666666666
 40
0.75
 40
0.75
 40
0.75
 40
0.8333333333333333
 40
0.8333333333333333
 40
0.8333333333333333
 40
0.9166666666666666
 40
0.9166666666666666
 40
0.9166666666666666
 40
1.0
 40
1.0
 40
1.0
 40
1.0
 10
-9.59487
 20
-4.73478
 30
0.0
 10
-9.59487
 20
-4.73478
 30
0.0
 10
-9.73705
 20
-4.73485
 30
0.0
 10
-9.73705
 20
-4.73485
 30
0.0
 10
-10.86329
 20
-3.69304
 30
0.0
 10
-11.8814
 20
-2.87872
 30
0.0
 10
-11.8814
 20
-1.73963
 30
0.0
 10
-11.8814
 20
-1.18185
 30
0.0
 10
-11.52246
 20
-0.70747
 30
0.0
 10
-11.02311
 20
-0.53484
 30
0.0
 10
-11.02311
 20
-0.53484
 30
0.0
 10
-11.02311
 20
-0.23485
 30
0.0
 10
-11.02311
 20
-0.23485
 30
0.0
 10
-11.02311
 20
-0.23485
 30
0.0
 10
-7.64192
 20
-0.23485
 30
0.0
 10
-7.64192
 20
-0.23485
 30
0.0
 10
-7.64192
 20
-0.23485
 30
0.0
 10
-7.6419
 20
-0.53485
 30
0.0
 10
-7.6419
 20
-0.53485
 30
0.0
 10
-7.14256
 20
-0.70747
 30
0.0
 10
-6.78362
 20
-1.18185
 30
0.0
 10
-6.78362
 20
-1.73963
 30
0.0
 10
-6.78362
 20
-2.87952
 30
0.0
 10
-7.80083
 20
-3.69174
 30
0.0
 10
-8.92797
 20
-4.73485
 30
0.0
 10
-8.92797
 20
-4.73485
 30
0.0
 10
-9.07009
 20
-4.73485
 30
0.0
 10
-9.07009
 20
-4.73485
 30
0.0
 10
-9.07009
 20
-4.73485
 30
0.0
 10
-9.07009
 20
-5.03485
 30
0.0
 10
-9.07009
 20
-5.03485
 30
0.0
 10
-9.07009
 20
-5.03485
 30
0.0
 10
-9.59494
 20
-5.03485
 30
0.0
 10
-9.59494
 20
-5.03485
 30
0.0
 10
-9.59494
 20
-5.03485
 30
0.0
 10
-9.59487
 20
-4.73478
 30
0.0
 10
-9.59487
 20
-4.73478
 30
0.0
  0
SPLINE
  5
A9
330
1F
100
AcDbEntity
  8
Layer 1
 62
   250
370
     9
100
AcDbSpline
210
0.0
220
0.0
230
1.0
 70
    11
 71
     3
 72
    23
 73
    19
 74
     0
 42
0.0000000001
 43
0.0000000001
 40
0.0
 40
0.0
 40
0.0
 40
0.0
 40
0.1666666666666667
 40
0.1666666666666667
 40
0.1666666666666667
 40
0.3333333333333333
 40
0.3333333333333333
 40
0.3333333333333333
 40
0.5
 40
0.5
 40
0.5
 40
0.6666666666666666
 40
0.6666666666666666
 40
0.6666666666666666
 40
0.8333333333333333
 40
0.8333333333333333
 40
0.8333333333333333
 40
1.0
 40
1.0
 40
1.0
 40
1.0
 10
-10.08115
 20
-1.59889
 30
0.0
 10
-10.49441
 20
-1.59889
 30
0.0
 10
-10.82979
 20
-1.93427
 30
0.0
 10
-10.82979
 20
-2.34752
 30
0.0
 10
-10.82979
 20
-3.09616
 30
0.0
 10
-10.08115
 20
-3.50806
 30
0.0
 10
-9.33251
 20
-4.2567
 30
0.0
 10
-8.58387
 20
-3.50806
 30
0.0
 10
-7.83523
 20
-3.09616
 30
0.0
 10
-7.83523
 20
-2.34752
 30
0.0
 10
-7.83523
 20
-1.93427
 30
0.0
 10
-8.17061
 20
-1.59889
 30
0.0
 10
-8.58387
 20
-1.59889
 30
0.0
 10
-8.95819
 20
-1.59889
 30
0.0
 10
-9.14535
 20
-1.78604
 30
0.0
 10
-9.33251
 20
-2.16036
 30
0.0
 10
-9.51967
 20
-1.78604
 30
0.0
 10
-9.70684
 20
-1.59889
 30
0.0
 10
-10.08115
 20
-1.59889
 30
0.0
  0
SPLINE
  5
AA
330
1F
100
AcDbEntity
  8
Layer 1
 62
   250
370
     9
100
AcDbSpline
210
0.0
220
0.0
230
1.0
 70
    11
 71
     3
 72
    14
 73
    10
 74
     0
 42
0.0000000001
 43
0.0000000001
 40
0.0
 40
0.0
 40
0.0
 40
0.0
 40
0.3333333333333333
 40
0.3333333333333333
 40
0.3333333333333333
 40
0.6666666666666666
 40
0.6666666666666666
 40
0.6666666666666666
 40
1.0
 40
1.0
 40
1.0
 40
1.0
 10
-10.15444
 20
-0.53485
 30
0.0
 10
-9.79779
 20
-0.66041
 30
0.0
 10
-9.56514
 20
-0.95576
 30
0.0
 10
-9.33251
 20
-1.42101
 30
0.0
 10
-9.09989
 20
-0.95576
 30
0.0
 10
-8.86723
 20
-0.66041
 30
0.0
 10
-8.51058
 20
-0.53485
 30
0.0
 10
-8.51058
 20
-0.53485
 30
0.0
 10
-10.15444
 20
-0.53485
 30
0.0
 10
-10.15444
 20
-0.53485
 30
0.0
  0
SPLINE
  5
AB
330
1F
100
AcDbEntity
  8
Layer 1
 62
   250
370
     9
100
AcDbSpline
210
0.0
220
0.0
230
1.0
 70
    27
 71
     3
 72
     8
 73
     4
 74
     0
 42
0.0000000001
 43
0.0000000001
 40
0.0
 40
0.0
 40
0.0
 40
0.0
 40
1.0
 40
1.0
 40
1.0
 40
1.0
 10
-14.17736
 20
-15.62406
 30
0.0
 10
-14.17736
 20
-15.62406
 30
0.0
 10
-14.17736
 20
-15.62406
 30
0.0
 10
-14.17736
 20
-15.62406
 30
0.0
  0
SPLINE
  5
AC
330
1F
100
AcDbEntity
  8
Layer 1
 62
   250
370
     9
100
AcDbSpline
210
0.0
220
0.0
230
1.0
 70
    27
 71
     3
 72
     8
 73
     4
 74
     0
 42
0.0000000001
 43
0.0000000001
 40
0.0
 40
0.0
 40
0.0
 40
0.0
 40
1.0
 40
1.0
 40
1.0
 40
1.0
 10
-10.79615
 20
-15.62407
 30
0.0
 10
-10.79615
 20
-15.62407
 30
0.0
 10
-10.79615
 20
-15.62407
 30
0.0
 10
-10.79615
 20
-15.62407
 30
0.0
  0
SPLINE
  5
AD
330
1F
100
AcDbEntity
  8
Layer 1
 62
   250
370
     9
100
AcDbSpline
210
0.0
220
0.0
230
1.0
 70
    11
 71
     3
 72
    41
 73
    37
 74
     0
 42
0.0000000001
 43
0.0000000001
 40
0.0
 40
0.0
 40
0.0
 40
0.0
 40
0.0833333333333333
 40
0.0833333333333333
 40
0.0833333333333333
 40
0.1666666666666667
 40
0.1666666666666667
 40
0.1666666666666667
 40
0.25
 40
0.25
 40
0.25
 40
0.3333333333333333
 40
0.3333333333333333
 40
0.3333333333333333
 40
0.4166666666666666
 40
0.4166666666666666
 40
0.4166666666666666
 40
0.5
 40
0.5
 40
0.5
 40
0.5833333333333333
 40
0.5833333333333333
 40
0.5833333333333333
 40
0.6666666666666666
 40
0.6666666666666666
 40
0.6666666666666666
 40
0.75
 40
0.75
 40
0.75
 40
0.8333333333333333
 40
0.8333333333333333
 40
0.8333333333333333
 40
0.9166666666666666
 40
0.9166666666666666
 40
0.9166666666666666
 40
1.0
 40
1.0
 40
1.0
 40
1.0
 10
-12.74912
 20
-19.824
 30
0.0
 10
-12.74912
 20
-19.824
 30
0.0
 10
-12.8913
 20
-19.82407
 30
0.0
 10
-12.8913
 20
-19.82407
 30
0.0
 10
-14.01754
 20
-18.78226
 30
0.0
 10
-15.03565
 20
-17.96794
 30
0.0
 10
-15.03565
 20
-16.82885
 30
0.0
 10
-15.03565
 20
-16.27107
 30
0.0
 10
-14.67671
 20
-15.79669
 30
0.0
 10
-14.17736
 20
-15.62406
 30
0.0
 10
-14.17736
 20
-15.62406
 30
0.0
 10
-14.17736
 20
-15.32407
 30
0.0
 10
-14.17736
 20
-15.32407
 30
0.0
 10
-14.17736
 20
-15.32407
 30
0.0
 10
-10.79617
 20
-15.32407
 30
0.0
 10
-10.79617
 20
-15.32407
 30
0.0
 10
-10.79617
 20
-15.32407
 30
0.0
 10
-10.79615
 20
-15.62407
 30
0.0
 10
-10.79615
 20
-15.62407
 30
0.0
 10
-10.29681
 20
-15.79669
 30
0.0
 10
-9.93787
 20
-16.27107
 30
0.0
 10
-9.93787
 20
-16.82885
 30
0.0
 10
-9.93787
 20
-17.96874
 30
0.0
 10
-10.95508
 20
-18.78096
 30
0.0
 10
-12.08222
 20
-19.82407
 30
0.0
 10
-12.08222
 20
-19.82407
 30
0.0
 10
-12.22434
 20
-19.82407
 30
0.0
 10
-12.22434
 20
-19.82407
 30
0.0
 10
-12.22434
 20
-19.82407
 30
0.0
 10
-12.22434
 20
-20.12407
 30
0.0
 10
-12.22434
 20
-20.12407
 30
0.0
 10
-12.22434
 20
-20.12407
 30
0.0
 10
-12.74919
 20
-20.12407
 30
0.0
 10
-12.74919
 20
-20.12407
 30
0.0
 10
-12.74919
 20
-20.12407
 30
0.0
 10
-12.74912
 20
-19.824
 30
0.0
 10
-12.74912
 20
-19.824
 30
0.0
  0
SPLINE
  5
AE
330
1F
100
AcDbEntity
  8
Layer 1
 62
   250
370
     9
100
AcDbSpline
210
0.0
220
0.0
230
1.0
 70
    11
 71
     3
 72
    23
 73
    19
 74
     0
 42
0.0000000001
 43
0.0000000001
 40
0.0
 40
0.0
 40
0.0
 40
0.0
 40
0.1666666666666667
 40
0.1666666666666667
 40
0.1666666666666667
 40
0.3333333333333333
 40
0.3333333333333333
 40
0.3333333333333333
 40
0.5
 40
0.5
 40
0.5
 40
0.6666666666666666
 40
0.6666666666666666
 40
0.6666666666666666
 40
0.8333333333333333
 40
0.8333333333333333
 40
0.8333333333333333
 40
1.0
 40
1.0
 40
1.0
 40
1.0
 10
-13.2354
 20
-16.68811
 30
0.0
 10
-13.64866
 20
-16.68811
 30
0.0
 10
-13.98404
 20
-17.02349
 30
0.0
 10
-13.98404
 20
-17.43674
 30
0.0
 10
-13.98404
 20
-18.18538
 30
0.0
 10
-13.2354
 20
-18.59728
 30
0.0
 10
-12.48676
 20
-19.34592
 30
0.0
 10
-11.73812
 20
-18.59728
 30
0.0
 10
-10.98948
 20
-18.18538
 30
0.0
 10
-10.98948
 20
-17.43674
 30
0.0
 10
-10.98948
 20
-17.02349
 30
0.0
 10
-11.32486
 20
-16.68811
 30
0.0
 10
-11.73812
 20
-16.68811
 30
0.0
 10
-12.11244
 20
-16.68811
 30
0.0
 10
-12.2996
 20
-16.87526
 30
0.0
 10
-12.48676
 20
-17.24958
 30
0.0
 10
-12.67392
 20
-16.87526
 30
0.0
 10
-12.86109
 20
-16.68811
 30
0.0
 10
-13.2354
 20
-16.68811
 30
0.0
  0
SPLINE
  5
AF
330
1F
100
AcDbEntity
  8
Layer 1
 62
   250
370
     9
100
AcDbSpline
210
0.0
220
0.0
230
1.0
 70
    11
 71
     3
 72
    14
 73
    10
 74
     0
 42
0.0000000001
 43
0.0000000001
 40
0.0
 40
0.0
 40
0.0
 40
0.0
 40
0.3333333333333333
 40
0.3333333333333333
 40
0.3333333333333333
 40
0.6666666666666666
 40
0.6666666666666666
 40
0.6666666666666666
 40
1.0
 40
1.0
 40
1.0
 40
1.0
 10
-13.30869
 20
-15.62407
 30
0.0
 10
-12.95204
 20
-15.74963
 30
0.0
 10
-12.71939
 20
-16.04498
 30
0.0
 10
-12.48676
 20
-16.51023
 30
0.0
 10
-12.25414
 20
-16.04498
 30
0.0
 10
-12.02148
 20
-15.74963
 30
0.0
 10
-11.66483
 20
-15.62407
 30
0.0
 10
-11.66483
 20
-15.62407
 30
0.0
 10
-13.30869
 20
-15.62407
 30
0.0
 10
-13.30869
 20
-15.62407
 30
0.0
  0
SPLINE
  5
B0
330
1F
100
AcDbEntity
  8
Layer 1
 62
   250
370
     9
100
AcDbSpline
210
0.0
220
0.0
230
1.0
 70
    11
 71
     3
 72
    83
 73
    79
 74
     0
 42
0.0000000001
 43
0.0000000001
 40
0.0
 40
0.0
 40
0.0
 40
0.0
 40
0.0384615384615385
 40
0.0384615384615385
 40
0.0384615384615385
 40
0.0769230769230769
 40
0.0769230769230769
 40
0.0769230769230769
 40
0.1153846153846154
 40
0.1153846153846154
 40
0.1153846153846154
 40
0.1538461538461539
 40
0.1538461538461539
 40
0.1538461538461539
 40
0.1923076923076923
 40
0.1923076923076923
 40
0.1923076923076923
 40
0.2307692307692308
 40
0.2307692307692308
 40
0.2307692307692308
 40
0.2692307692307693
 40
0.2692307692307693
 40
0.2692307692307693
 40
0.3076923076923077
 40
0.3076923076923077
 40
0.3076923076923077
 40
0.3461538461538461
 40
0.3461538461538461
 40
0.3461538461538461
 40
0.3846153846153846
 40
0.3846153846153846
 40
0.3846153846153846
 40
0.4230769230769231
 40
0.4230769230769231
 40
0.4230769230769231
 40
0.4615384615384616
 40
0.4615384615384616
 40
0.4615384615384616
 40
0.5
 40
0.5
 40
0.5
 40
0.5384615384615385
 40
0.5384615384615385
 40
0.5384615384615385
 40
0.576923076923077
 40
0.576923076923077
 40
0.576923076923077
 40
0.6153846153846154
 40
0.6153846153846154
 40
0.6153846153846154
 40
0.6538461538461539
 40
0.6538461538461539
 40
0.6538461538461539
 40
0.6923076923076923
 40
0.6923076923076923
 40
0.6923076923076923
 40
0.7307692307692308
 40
0.7307692307692308
 40
0.7307692307692308
 40
0.7692307692307693
 40
0.7692307692307693
 40
0.7692307692307693
 40
0.8076923076923077
 40
0.8076923076923077
 40
0.8076923076923077
 40
0.8461538461538463
 40
0.8461538461538463
 40
0.8461538461538463
 40
0.8846153846153847
 40
0.8846153846153847
 40
0.8846153846153847
 40
0.9230769230769231
 40
0.9230769230769231
 40
0.9230769230769231
 40
0.9615384615384616
 40
0.9615384615384616
 40
0.9615384615384616
 40
1.0
 40
1.0
 40
1.0
 40
1.0
 10
17.08176
 20
7.04999
 30
0.0
 10
16.70835
 20
6.60808
 30
0.0
 10
16.28389
 20
6.24504
 30
0.0
 10
15.83602
 20
5.92545
 30
0.0
 10
15.77736
 20
6.08066
 30
0.0
 10
15.72033
 20
6.2382
 30
0.0
 10
15.70431
 20
6.40747
 30
0.0
 10
15.67695
 20
6.69675
 30
0.0
 10
15.77266
 20
6.98638
 30
0.0
 10
15.75343
 20
7.27667
 30
0.0
 10
15.73002
 20
7.63112
 30
0.0
 10
15.53516
 20
7.94036
 30
0.0
 10
15.29721
 20
8.13895
 30
0.0
 10
15.11786
 20
8.28861
 30
0.0
 10
14.91479
 20
8.38522
 30
0.0
 10
14.70808
 20
8.46769
 30
0.0
 10
15.11099
 20
8.32874
 30
0.0
 10
15.53389
 20
8.27984
 30
0.0
 10
15.95015
 20
8.32716
 30
0.0
 10
16.19839
 20
8.35554
 30
0.0
 10
16.47584
 20
8.44421
 30
0.0
 10
16.59527
 20
8.71554
 30
0.0
 10
16.71939
 20
8.99733
 30
0.0
 10
16.61838
 20
9.34114
 30
0.0
 10
16.57104
 20
9.65676
 30
0.0
 10
16.46772
 20
10.3443
 30
0.0
 10
16.63657
 20
11.04645
 30
0.0
 10
16.82062
 20
11.70756
 30
0.0
 10
16.87109
 20
11.88829
 30
0.0
 10
16.92319
 20
12.07153
 30
0.0
 10
16.92953
 20
12.26262
 30
0.0
 10
16.93579
 20
12.45343
 30
0.0
 10
16.88928
 20
12.65701
 30
0.0
 10
16.77172
 20
12.7806
 30
0.0
 10
16.61391
 20
12.9459
 30
0.0
 10
16.37931
 20
12.92538
 30
0.0
 10
16.18027
 20
12.85789
 30
0.0
 10
15.76528
 20
12.71728
 30
0.0
 10
15.39658
 20
12.41691
 30
0.0
 10
15.06709
 20
12.07384
 30
0.0
 10
14.742
 20
11.73492
 30
0.0
 10
14.44851
 20
11.34978
 30
0.0
 10
14.19267
 20
10.92941
 30
0.0
 10
14.20132
 20
10.95678
 30
0.0
 10
14.20922
 20
10.98451
 30
0.0
 10
14.21817
 20
11.01188
 30
0.0
 10
14.41728
 20
11.61621
 30
0.0
 10
14.71598
 20
12.17655
 30
0.0
 10
15.11651
 20
12.60024
 30
0.0
 10
15.01185
 20
12.73947
 30
0.0
 10
14.99873
 20
12.98797
 30
0.0
 10
14.85538
 20
13.05546
 30
0.0
 10
14.74968
 20
13.10538
 30
0.0
 10
14.63525
 20
13.02227
 30
0.0
 10
14.54766
 20
12.93389
 30
0.0
 10
14.20348
 20
12.58684
 30
0.0
 10
13.95994
 20
12.10286
 30
0.0
 10
13.8069
 20
11.58654
 30
0.0
 10
13.67957
 20
11.15702
 30
0.0
 10
13.61203
 20
10.70402
 30
0.0
 10
13.57283
 20
10.24806
 30
0.0
 10
13.531
 20
10.61565
 30
0.0
 10
13.4508
 20
10.97638
 30
0.0
 10
13.33115
 20
11.31687
 30
0.0
 10
13.24781
 20
11.55493
 30
0.0
 10
13.1439
 20
11.7865
 30
0.0
 10
12.9945
 20
11.96844
 30
0.0
 10
12.85622
 20
12.13679
 30
0.0
 10
12.67426
 20
12.25846
 30
0.0
 10
12.48201
 20
12.2764
 30
0.0
 10
13.36216
 20
13.23194
 30
0.0
 10
14.55004
 20
13.78017
 30
0.0
 10
15.70057
 20
13.55413
 30
0.0
 10
16.99081
 20
13.30072
 30
0.0
 10
18.14708
 20
11.95513
 30
0.0
 10
18.24622
 20
10.33978
 30
0.0
 10
18.32174
 20
9.10568
 30
0.0
 10
17.80418
 20
7.90412
 30
0.0
 10
17.08176
 20
7.04999
 30
0.0
  0
SPLINE
  5
B1
330
1F
100
AcDbEntity
  8
Layer 1
 62
   250
370
     9
100
AcDbSpline
210
0.0
220
0.0
230
1.0
 70
    11
 71
     3
 72
    92
 73
    88
 74
     0
 42
0.0000000001
 43
0.0000000001
 40
0.0
 40
0.0
 40
0.0
 40
0.0
 40
0.0344827586206897
 40
0.0344827586206897
 40
0.0344827586206897
 40
0.0689655172413793
 40
0.0689655172413793
 40
0.0689655172413793
 40
0.103448275862069
 40
0.103448275862069
 40
0.103448275862069
 40
0.1379310344827586
 40
0.1379310344827586
 40
0.1379310344827586
 40
0.1724137931034483
 40
0.1724137931034483
 40
0.1724137931034483
 40
0.2068965517241379
 40
0.2068965517241379
 40
0.2068965517241379
 40
0.2413793103448276
 40
0.2413793103448276
 40
0.2413793103448276
 40
0.2758620689655172
 40
0.2758620689655172
 40
0.2758620689655172
 40
0.3103448275862069
 40
0.3103448275862069
 40
0.3103448275862069
 40
0.3448275862068966
 40
0.3448275862068966
 40
0.3448275862068966
 40
0.3793103448275862
 40
0.3793103448275862
 40
0.3793103448275862
 40
0.4137931034482759
 40
0.4137931034482759
 40
0.4137931034482759
 40
0.4482758620689655
 40
0.4482758620689655
 40
0.4482758620689655
 40
0.4827586206896551
 40
0.4827586206896551
 40
0.4827586206896551
 40
0.5172413793103449
 40
0.5172413793103449
 40
0.5172413793103449
 40
0.5517241379310345
 40
0.5517241379310345
 40
0.5517241379310345
 40
0.5862068965517241
 40
0.5862068965517241
 40
0.5862068965517241
 40
0.6206896551724138
 40
0.6206896551724138
 40
0.6206896551724138
 40
0.6551724137931034
 40
0.6551724137931034
 40
0.6551724137931034
 40
0.6896551724137931
 40
0.6896551724137931
 40
0.6896551724137931
 40
0.7241379310344828
 40
0.7241379310344828
 40
0.7241379310344828
 40
0.7586206896551724
 40
0.7586206896551724
 40
0.7586206896551724
 40
0.7931034482758621
 40
0.7931034482758621
 40
0.7931034482758621
 40
0.8275862068965517
 40
0.8275862068965517
 40
0.8275862068965517
 40
0.8620689655172413
 40
0.8620689655172413
 40
0.8620689655172413
 40
0.896551724137931
 40
0.896551724137931
 40
0.896551724137931
 40
0.9310344827586207
 40
0.9310344827586207
 40
0.9310344827586207
 40
0.9655172413793103
 40
0.9655172413793103
 40
0.9655172413793103
 40
1.0
 40
1.0
 40
1.0
 40
1.0
 10
14.54162
 20
5.11661
 30
0.0
 10
13.90731
 20
4.75394
 30
0.0
 10
13.26279
 20
4.4017
 30
0.0
 10
12.6621
 20
3.96377
 30
0.0
 10
12.6621
 20
3.96377
 30
0.0
 10
12.29922
 20
3.68291
 30
0.0
 10
12.29922
 20
3.68291
 30
0.0
 10
12.29922
 20
3.68291
 30
0.0
 10
11.93603
 20
3.96377
 30
0.0
 10
11.93603
 20
3.96377
 30
0.0
 10
11.92582
 20
3.97126
 30
0.0
 10
11.91553
 20
3.97838
 30
0.0
 10
11.90525
 20
3.98559
 30
0.0
 10
11.90763
 20
4.00223
 30
0.0
 10
11.91076
 20
4.01851
 30
0.0
 10
11.91292
 20
4.03515
 30
0.0
 10
11.91292
 20
4.03515
 30
0.0
 10
11.92157
 20
4.00223
 30
0.0
 10
11.92157
 20
4.00223
 30
0.0
 10
11.94446
 20
4.72361
 30
0.0
 10
12.38628
 20
5.30253
 30
0.0
 10
12.79494
 20
5.81654
 30
0.0
 10
13.2033
 20
6.33056
 30
0.0
 10
13.63276
 20
6.93387
 30
0.0
 10
13.61986
 20
7.65534
 30
0.0
 10
13.1187
 20
7.45048
 30
0.0
 10
12.60478
 20
7.2372
 30
0.0
 10
12.19747
 20
6.821
 30
0.0
 10
11.98545
 20
6.60447
 30
0.0
 10
11.80774
 20
6.31845
 30
0.0
 10
11.70248
 20
6.0044
 30
0.0
 10
11.72193
 20
6.67622
 30
0.0
 10
11.90182
 20
7.33963
 30
0.0
 10
12.21453
 20
7.88878
 30
0.0
 10
12.25188
 20
7.87417
 30
0.0
 10
12.29132
 20
7.86594
 30
0.0
 10
12.33053
 20
7.86114
 30
0.0
 10
12.69528
 20
7.81574
 30
0.0
 10
13.07397
 20
8.02643
 30
0.0
 10
13.28881
 20
8.39493
 30
0.0
 10
13.15575
 20
8.4015
 30
0.0
 10
13.02291
 20
8.40806
 30
0.0
 10
12.88984
 20
8.41453
 30
0.0
 10
12.96088
 20
8.56264
 30
0.0
 10
13.01217
 20
8.72507
 30
0.0
 10
13.04214
 20
8.89295
 30
0.0
 10
13.11206
 20
8.94131
 30
0.0
 10
13.18758
 20
8.97652
 30
0.0
 10
13.26592
 20
8.99446
 30
0.0
 10
13.32698
 20
9.0088
 30
0.0
 10
13.38899
 20
9.01175
 30
0.0
 10
13.4508
 20
9.00686
 30
0.0
 10
13.48658
 20
8.75669
 30
0.0
 10
13.48054
 20
8.49773
 30
0.0
 10
13.4282
 20
8.2521
 30
0.0
 10
13.41583
 20
8.19404
 30
0.0
 10
13.40107
 20
8.13505
 30
0.0
 10
13.40607
 20
8.07534
 30
0.0
 10
13.41136
 20
8.01571
 30
0.0
 10
13.4429
 20
7.95432
 30
0.0
 10
13.49053
 20
7.94461
 30
0.0
 10
13.55076
 20
7.93186
 30
0.0
 10
13.60093
 20
8.00166
 30
0.0
 10
13.62776
 20
8.06952
 30
0.0
 10
13.6338
 20
8.08449
 30
0.0
 10
13.6391
 20
8.09984
 30
0.0
 10
13.64409
 20
8.11546
 30
0.0
 10
13.6722
 20
8.08551
 30
0.0
 10
13.70328
 20
8.05805
 30
0.0
 10
13.73243
 20
8.03068
 30
0.0
 10
14.02092
 20
7.76166
 30
0.0
 10
14.21504
 20
7.34222
 30
0.0
 10
14.25686
 20
6.89763
 30
0.0
 10
14.27184
 20
6.73687
 30
0.0
 10
14.26788
 20
6.57314
 30
0.0
 10
14.29391
 20
6.41469
 30
0.0
 10
14.31969
 20
6.25585
 30
0.0
 10
14.3815
 20
6.09638
 30
0.0
 10
14.49376
 20
6.01383
 30
0.0
 10
14.63659
 20
5.90917
 30
0.0
 10
14.81751
 20
5.95383
 30
0.0
 10
14.9798
 20
5.91305
 30
0.0
 10
15.13284
 20
5.8746
 30
0.0
 10
15.26538
 20
5.75848
 30
0.0
 10
15.3687
 20
5.61103
 30
0.0
 10
15.09623
 20
5.43759
 30
0.0
 10
14.81885
 20
5.27516
 30
0.0
 10
14.54162
 20
5.11661
 30
0.0
  0
SPLINE
  5
B2
330
1F
100
AcDbEntity
  8
Layer 1
 62
   250
370
     9
100
AcDbSpline
210
0.0
220
0.0
230
1.0
 70
    11
 71
     3
 72
   152
 73
   148
 74
     0
 42
0.0000000001
 43
0.0000000001
 40
0.0
 40
0.0
 40
0.0
 40
0.0
 40
0.0204081632653061
 40
0.0204081632653061
 40
0.0204081632653061
 40
0.0408163265306122
 40
0.0408163265306122
 40
0.0408163265306122
 40
0.0612244897959184
 40
0.0612244897959184
 40
0.0612244897959184
 40
0.0816326530612245
 40
0.0816326530612245
 40
0.0816326530612245
 40
0.1020408163265306
 40
0.1020408163265306
 40
0.1020408163265306
 40
0.1224489795918367
 40
0.1224489795918367
 40
0.1224489795918367
 40
0.1428571428571428
 40
0.1428571428571428
 40
0.1428571428571428
 40
0.163265306122449
 40
0.163265306122449
 40
0.163265306122449
 40
0.1836734693877551
 40
0.1836734693877551
 40
0.1836734693877551
 40
0.2040816326530612
 40
0.2040816326530612
 40
0.2040816326530612
 40
0.2244897959183673
 40
0.2244897959183673
 40
0.2244897959183673
 40
0.2448979591836735
 40
0.2448979591836735
 40
0.2448979591836735
 40
0.2653061224489796
 40
0.2653061224489796
 40
0.2653061224489796
 40
0.2857142857142857
 40
0.2857142857142857
 40
0.2857142857142857
 40
0.3061224489795918
 40
0.3061224489795918
 40
0.3061224489795918
 40
0.3265306122448979
 40
0.3265306122448979
 40
0.3265306122448979
 40
0.3469387755102041
 40
0.3469387755102041
 40
0.3469387755102041
 40
0.3673469387755102
 40
0.3673469387755102
 40
0.3673469387755102
 40
0.3877551020408163
 40
0.3877551020408163
 40
0.3877551020408163
 40
0.4081632653061224
 40
0.4081632653061224
 40
0.4081632653061224
 40
0.4285714285714285
 40
0.4285714285714285
 40
0.4285714285714285
 40
0.4489795918367346
 40
0.4489795918367346
 40
0.4489795918367346
 40
0.4693877551020408
 40
0.4693877551020408
 40
0.4693877551020408
 40
0.4897959183673469
 40
0.4897959183673469
 40
0.4897959183673469
 40
0.5102040816326531
 40
0.5102040816326531
 40
0.5102040816326531
 40
0.5306122448979591
 40
0.5306122448979591
 40
0.5306122448979591
 40
0.5510204081632653
 40
0.5510204081632653
 40
0.5510204081632653
 40
0.5714285714285714
 40
0.5714285714285714
 40
0.5714285714285714
 40
0.5918367346938775
 40
0.5918367346938775
 40
0.5918367346938775
 40
0.6122448979591836
 40
0.6122448979591836
 40
0.6122448979591836
 40
0.6326530612244897
 40
0.6326530612244897
 40
0.6326530612244897
 40
0.6530612244897959
 40
0.6530612244897959
 40
0.6530612244897959
 40
0.673469387755102
 40
0.673469387755102
 40
0.673469387755102
 40
0.6938775510204082
 40
0.6938775510204082
 40
0.6938775510204082
 40
0.7142857142857142
 40
0.7142857142857142
 40
0.7142857142857142
 40
0.7346938775510203
 40
0.7346938775510203
 40
0.7346938775510203
 40
0.7551020408163265
 40
0.7551020408163265
 40
0.7551020408163265
 40
0.7755102040816326
 40
0.7755102040816326
 40
0.7755102040816326
 40
0.7959183673469387
 40
0.7959183673469387
 40
0.7959183673469387
 40
0.8163265306122448
 40
0.8163265306122448
 40
0.8163265306122448
 40
0.836734693877551
 40
0.836734693877551
 40
0.836734693877551
 40
0.8571428571428571
 40
0.8571428571428571
 40
0.8571428571428571
 40
0.8775510204081632
 40
0.8775510204081632
 40
0.8775510204081632
 40
0.8979591836734693
 40
0.8979591836734693
 40
0.8979591836734693
 40
0.9183673469387754
 40
0.9183673469387754
 40
0.9183673469387754
 40
0.9387755102040816
 40
0.9387755102040816
 40
0.9387755102040816
 40
0.9591836734693877
 40
0.9591836734693877
 40
0.9591836734693877
 40
0.9795918367346939
 40
0.9795918367346939
 40
0.9795918367346939
 40
1.0
 40
1.0
 40
1.0
 40
1.0
 10
10.05652
 20
5.11661
 30
0.0
 10
9.15005
 20
5.63487
 30
0.0
 10
8.2388
 20
6.19548
 30
0.0
 10
7.51639
 20
7.04999
 30
0.0
 10
6.79396
 20
7.90412
 30
0.0
 10
6.27647
 20
9.10568
 30
0.0
 10
6.35221
 20
10.33978
 30
0.0
 10
6.45105
 20
11.95513
 30
0.0
 10
7.6074
 20
13.30072
 30
0.0
 10
8.89756
 20
13.55413
 30
0.0
 10
9.58524
 20
13.68919
 30
0.0
 10
10.28635
 20
13.54765
 30
0.0
 10
10.92728
 20
13.20782
 30
0.0
 10
10.68635
 20
13.15725
 30
0.0
 10
10.47993
 20
12.94295
 30
0.0
 10
10.34345
 20
12.68863
 30
0.0
 10
10.1538
 20
12.3351
 30
0.0
 10
10.07307
 20
11.90586
 30
0.0
 10
10.05808
 20
11.48189
 30
0.0
 10
10.05704
 20
11.45286
 30
0.0
 10
10.05704
 20
11.42383
 30
0.0
 10
10.05652
 20
11.39517
 30
0.0
 10
10.03706
 20
11.48679
 30
0.0
 10
10.01574
 20
11.57776
 30
0.0
 10
9.99264
 20
11.66808
 30
0.0
 10
9.89475
 20
12.0523
 30
0.0
 10
9.75223
 20
12.45047
 30
0.0
 10
9.47484
 20
12.65959
 30
0.0
 10
9.38725
 20
12.72578
 30
0.0
 10
9.28885
 20
12.77016
 30
0.0
 10
9.1871
 20
12.78902
 30
0.0
 10
9.15318
 20
12.79522
 30
0.0
 10
9.11136
 20
12.79494
 30
0.0
 10
9.09242
 20
12.75907
 30
0.0
 10
9.08169
 20
12.73817
 30
0.0
 10
9.08221
 20
12.71173
 30
0.0
 10
9.08296
 20
12.68696
 30
0.0
 10
9.08899
 20
12.51315
 30
0.0
 10
9.09481
 20
12.33898
 30
0.0
 10
9.10085
 20
12.1648
 30
0.0
 10
9.42139
 20
11.82266
 30
0.0
 10
9.65495
 20
11.36189
 30
0.0
 10
9.77616
 20
10.85989
 30
0.0
 10
9.56288
 20
11.25428
 30
0.0
 10
9.30547
 20
11.61206
 30
0.0
 10
9.01221
 20
11.9176
 30
0.0
 10
8.77396
 20
12.16583
 30
0.0
 10
8.50702
 20
12.38335
 30
0.0
 10
8.20675
 20
12.48505
 30
0.0
 10
8.06258
 20
12.53404
 30
0.0
 10
7.89276
 20
12.54866
 30
0.0
 10
7.77886
 20
12.42903
 30
0.0
 10
7.69365
 20
12.33962
 30
0.0
 10
7.65996
 20
12.19254
 30
0.0
 10
7.66443
 20
12.05424
 30
0.0
 10
7.6692
 20
11.91593
 30
0.0
 10
7.70678
 20
11.78328
 30
0.0
 10
7.74308
 20
11.65245
 30
0.0
 10
7.87643
 20
11.17404
 30
0.0
 10
7.99869
 20
10.66621
 30
0.0
 10
7.924
 20
10.16857
 30
0.0
 10
7.88956
 20
9.93993
 30
0.0
 10
7.81673
 20
9.69135
 30
0.0
 10
7.9064
 20
9.48722
 30
0.0
 10
7.99296
 20
9.29086
 30
0.0
 10
8.19355
 20
9.22661
 30
0.0
 10
8.37321
 20
9.20645
 30
0.0
 10
8.6746
 20
9.17215
 30
0.0
 10
8.98068
 20
9.20737
 30
0.0
 10
9.27207
 20
9.30787
 30
0.0
 10
9.12239
 20
9.24814
 30
0.0
 10
8.97568
 20
9.17834
 30
0.0
 10
8.84576
 20
9.07008
 30
0.0
 10
8.67348
 20
8.92624
 30
0.0
 10
8.53259
 20
8.70251
 30
0.0
 10
8.51574
 20
8.44615
 30
0.0
 10
8.5018
 20
8.23583
 30
0.0
 10
8.57097
 20
8.02643
 30
0.0
 10
8.55122
 20
7.81704
 30
0.0
 10
8.53729
 20
7.66967
 30
0.0
 10
8.48025
 20
7.53461
 30
0.0
 10
8.43001
 20
7.39963
 30
0.0
 10
8.37977
 20
7.26456
 30
0.0
 10
8.33452
 20
7.11914
 30
0.0
 10
8.3469
 20
6.97141
 30
0.0
 10
8.35927
 20
6.82368
 30
0.0
 10
8.44656
 20
6.6753
 30
0.0
 10
8.56598
 20
6.66319
 30
0.0
 10
8.61198
 20
6.83144
 30
0.0
 10
8.6585
 20
7.00238
 30
0.0
 10
8.73818
 20
7.15048
 30
0.0
 10
8.81765
 20
7.29849
 30
0.0
 10
8.93491
 20
7.42376
 30
0.0
 10
9.07535
 20
7.45926
 30
0.0
 10
9.19291
 20
7.48894
 30
0.0
 10
9.32389
 20
7.4564
 30
0.0
 10
9.42721
 20
7.53239
 30
0.0
 10
9.50846
 20
7.59174
 30
0.0
 10
9.55319
 20
7.70748
 30
0.0
 10
9.57182
 20
7.8223
 30
0.0
 10
9.59054
 20
7.93713
 30
0.0
 10
9.58793
 20
8.05546
 30
0.0
 10
9.59866
 20
8.17158
 30
0.0
 10
9.62892
 20
8.49348
 30
0.0
 10
9.76937
 20
8.79708
 30
0.0
 10
9.97817
 20
8.99178
 30
0.0
 10
9.99367
 20
9.0062
 30
0.0
 10
10.0097
 20
9.02118
 30
0.0
 10
10.02551
 20
9.03652
 30
0.0
 10
10.03445
 20
8.99927
 30
0.0
 10
10.04623
 20
8.96312
 30
0.0
 10
10.06464
 20
8.93215
 30
0.0
 10
10.09044
 20
8.88907
 30
0.0
 10
10.13091
 20
8.85681
 30
0.0
 10
10.17408
 20
8.85976
 30
0.0
 10
10.1541
 20
9.0345
 30
0.0
 10
10.15328
 20
9.21227
 30
0.0
 10
10.16908
 20
9.38774
 30
0.0
 10
10.25138
 20
9.39227
 30
0.0
 10
10.3342
 20
9.37924
 30
0.0
 10
10.41285
 20
9.34863
 30
0.0
 10
10.45049
 20
8.97846
 30
0.0
 10
10.62456
 20
8.62883
 30
0.0
 10
10.88225
 20
8.43441
 30
0.0
 10
10.92669
 20
8.40085
 30
0.0
 10
10.97514
 20
8.37284
 30
0.0
 10
11.02509
 20
8.35841
 30
0.0
 10
11.26095
 20
7.64712
 30
0.0
 10
11.37039
 20
6.86574
 30
0.0
 10
11.34168
 20
6.09767
 30
0.0
 10
11.31224
 20
6.1316
 30
0.0
 10
11.28279
 20
6.16581
 30
0.0
 10
11.25148
 20
6.19742
 30
0.0
 10
10.86414
 20
6.5908
 30
0.0
 10
10.33815
 20
6.80796
 30
0.0
 10
10.0841
 20
7.34287
 30
0.0
 10
9.96215
 20
6.83014
 30
0.0
 10
10.17616
 20
6.27998
 30
0.0
 10
10.46547
 20
5.88375
 30
0.0
 10
10.75472
 20
5.48715
 30
0.0
 10
11.12051
 20
5.18419
 30
0.0
 10
11.40087
 20
4.77779
 30
0.0
 10
11.53185
 20
4.58826
 30
0.0
 10
11.64232
 20
4.36232
 30
0.0
 10
11.70777
 20
4.12519
 30
0.0
 10
11.17366
 20
4.49045
 30
0.0
 10
10.61114
 20
4.79961
 30
0.0
 10
10.05652
 20
5.11661
 30
0.0
  0
SPLINE
  5
B3
330
1F
100
AcDbEntity
  8
Layer 1
 62
   250
370
     9
100
AcDbSpline
210
0.0
220
0.0
230
1.0
 70
    11
 71
     3
 72
    17
 73
    13
 74
     0
 42
0.0000000001
 43
0.0000000001
 40
0.0
 40
0.0
 40
0.0
 40
0.0
 40
0.25
 40
0.25
 40
0.25
 40
0.5
 40
0.5
 40
0.5
 40
0.75
 40
0.75
 40
0.75
 40
1.0
 40
1.0
 40
1.0
 40
1.0
 10
9.83907
 20
3.49802
 30
0.0
 10
9.56451
 20
3.49802
 30
0.0
 10
9.34178
 20
3.77426
 30
0.0
 10
9.34178
 20
4.11475
 30
0.0
 10
9.34178
 20
4.45524
 30
0.0
 10
9.56451
 20
4.73146
 30
0.0
 10
9.83907
 20
4.73146
 30
0.0
 10
10.11362
 20
4.73146
 30
0.0
 10
10.33636
 20
4.45524
 30
0.0
 10
10.33636
 20
4.11475
 30
0.0
 10
10.33636
 20
3.77426
 30
0.0
 10
10.11362
 20
3.49802
 30
0.0
 10
9.83907
 20
3.49802
 30
0.0
  0
SPLINE
  5
B4
330
1F
100
AcDbEntity
  8
Layer 1
 62
   250
370
     9
100
AcDbSpline
210
0.0
220
0.0
230
1.0
 70
    11
 71
     3
 72
    17
 73
    13
 74
     0
 42
0.0000000001
 43
0.0000000001
 40
0.0
 40
0.0
 40
0.0
 40
0.0
 40
0.25
 40
0.25
 40
0.25
 40
0.5
 40
0.5
 40
0.5
 40
0.75
 40
0.75
 40
0.75
 40
1.0
 40
1.0
 40
1.0
 40
1.0
 10
7.50983
 20
4.50414
 30
0.0
 10
7.33628
 20
4.50414
 30
0.0
 10
7.19554
 20
4.67859
 30
0.0
 10
7.19554
 20
4.8939
 30
0.0
 10
7.19554
 20
5.10885
 30
0.0
 10
7.33628
 20
5.2833
 30
0.0
 10
7.50983
 20
5.2833
 30
0.0
 10
7.68314
 20
5.2833
 30
0.0
 10
7.82381
 20
5.10885
 30
0.0
 10
7.82381
 20
4.8939
 30
0.0
 10
7.82381
 20
4.67859
 30
0.0
 10
7.68314
 20
4.50414
 30
0.0
 10
7.50983
 20
4.50414
 30
0.0
  0
SPLINE
  5
B5
330
1F
100
AcDbEntity
  8
Layer 1
 62
   250
370
     9
100
AcDbSpline
210
0.0
220
0.0
230
1.0
 70
    11
 71
     3
 72
    17
 73
    13
 74
     0
 42
0.0000000001
 43
0.0000000001
 40
0.0
 40
0.0
 40
0.0
 40
0.0
 40
0.25
 40
0.25
 40
0.25
 40
0.5
 40
0.5
 40
0.5
 40
0.75
 40
0.75
 40
0.75
 40
1.0
 40
1.0
 40
1.0
 40
1.0
 10
6.60678
 20
16.28627
 30
0.0
 10
6.7874
 20
16.28627
 30
0.0
 10
6.93389
 20
16.1046
 30
0.0
 10
6.93389
 20
15.8805
 30
0.0
 10
6.93389
 20
15.65641
 30
0.0
 10
6.7874
 20
15.47484
 30
0.0
 10
6.60678
 20
15.47484
 30
0.0
 10
6.42609
 20
15.47484
 30
0.0
 10
6.2796
 20
15.65641
 30
0.0
 10
6.2796
 20
15.8805
 30
0.0
 10
6.2796
 20
16.1046
 30
0.0
 10
6.42609
 20
16.28627
 30
0.0
 10
6.60678
 20
16.28627
 30
0.0
  0
SPLINE
  5
B6
330
1F
100
AcDbEntity
  8
Layer 1
 62
   250
370
     9
100
AcDbSpline
210
0.0
220
0.0
230
1.0
 70
    11
 71
     3
 72
    53
 73
    49
 74
     0
 42
0.0000000001
 43
0.0000000001
 40
0.0
 40
0.0
 40
0.0
 40
0.0
 40
0.0625
 40
0.0625
 40
0.0625
 40
0.125
 40
0.125
 40
0.125
 40
0.1875
 40
0.1875
 40
0.1875
 40
0.25
 40
0.25
 40
0.25
 40
0.3125
 40
0.3125
 40
0.3125
 40
0.375
 40
0.375
 40
0.375
 40
0.4375
 40
0.4375
 40
0.4375
 40
0.5
 40
0.5
 40
0.5
 40
0.5625
 40
0.5625
 40
0.5625
 40
0.625
 40
0.625
 40
0.625
 40
0.6875
 40
0.6875
 40
0.6875
 40
0.75
 40
0.75
 40
0.75
 40
0.8125
 40
0.8125
 40
0.8125
 40
0.875
 40
0.875
 40
0.875
 40
0.9375
 40
0.9375
 40
0.9375
 40
1.0
 40
1.0
 40
1.0
 40
1.0
 10
6.12521
 20
8.13959
 30
0.0
 10
6.12521
 20
8.13959
 30
0.0
 10
5.66684
 20
8.05481
 30
0.0
 10
5.66684
 20
8.05481
 30
0.0
 10
5.25952
 20
7.97947
 30
0.0
 10
4.93972
 20
7.58259
 30
0.0
 10
4.87897
 20
7.07736
 30
0.0
 10
4.87897
 20
7.07736
 30
0.0
 10
4.8106
 20
6.50926
 30
0.0
 10
4.8106
 20
6.50926
 30
0.0
 10
4.79533
 20
6.38103
 30
0.0
 10
4.64654
 20
6.38103
 30
0.0
 10
4.63125
 20
6.50926
 30
0.0
 10
4.63125
 20
6.50926
 30
0.0
 10
4.56289
 20
7.07736
 30
0.0
 10
4.56289
 20
7.07736
 30
0.0
 10
4.50214
 20
7.58259
 30
0.0
 10
4.18234
 20
7.97947
 30
0.0
 10
3.77502
 20
8.05481
 30
0.0
 10
3.77502
 20
8.05481
 30
0.0
 10
3.31664
 20
8.13959
 30
0.0
 10
3.31664
 20
8.13959
 30
0.0
 10
3.21325
 20
8.15854
 30
0.0
 10
3.21325
 20
8.34316
 30
0.0
 10
3.31664
 20
8.36202
 30
0.0
 10
3.31664
 20
8.36202
 30
0.0
 10
3.77502
 20
8.44679
 30
0.0
 10
3.77502
 20
8.44679
 30
0.0
 10
4.18234
 20
8.52214
 30
0.0
 10
4.50214
 20
8.91875
 30
0.0
 10
4.56289
 20
9.42398
 30
0.0
 10
4.56289
 20
9.42398
 30
0.0
 10
4.63125
 20
9.99245
 30
0.0
 10
4.63125
 20
9.99245
 30
0.0
 10
4.64654
 20
10.12021
 30
0.0
 10
4.79533
 20
10.12021
 30
0.0
 10
4.8106
 20
9.99245
 30
0.0
 10
4.8106
 20
9.99245
 30
0.0
 10
4.87897
 20
9.42398
 30
0.0
 10
4.87897
 20
9.42398
 30
0.0
 10
4.93972
 20
8.91875
 30
0.0
 10
5.25952
 20
8.52214
 30
0.0
 10
5.66684
 20
8.44679
 30
0.0
 10
5.66684
 20
8.44679
 30
0.0
 10
6.12521
 20
8.36202
 30
0.0
 10
6.12521
 20
8.36202
 30
0.0
 10
6.22831
 20
8.34316
 30
0.0
 10
6.22831
 20
8.15854
 30
0.0
 10
6.12521
 20
8.13959
 30
0.0
  0
SPLINE
  5
B7
330
1F
100
AcDbEntity
  8
Layer 1
 62
   250
370
     9
100
AcDbSpline
210
0.0
220
0.0
230
1.0
 70
    11
 71
     3
 72
    53
 73
    49
 74
     0
 42
0.0000000001
 43
0.0000000001
 40
0.0
 40
0.0
 40
0.0
 40
0.0
 40
0.0625
 40
0.0625
 40
0.0625
 40
0.125
 40
0.125
 40
0.125
 40
0.1875
 40
0.1875
 40
0.1875
 40
0.25
 40
0.25
 40
0.25
 40
0.3125
 40
0.3125
 40
0.3125
 40
0.375
 40
0.375
 40
0.375
 40
0.4375
 40
0.4375
 40
0.4375
 40
0.5
 40
0.5
 40
0.5
 40
0.5625
 40
0.5625
 40
0.5625
 40
0.625
 40
0.625
 40
0.625
 40
0.6875
 40
0.6875
 40
0.6875
 40
0.75
 40
0.75
 40
0.75
 40
0.8125
 40
0.8125
 40
0.8125
 40
0.875
 40
0.875
 40
0.875
 40
0.9375
 40
0.9375
 40
0.9375
 40
1.0
 40
1.0
 40
1.0
 40
1.0
 10
2.84775
 20
11.51452
 30
0.0
 10
2.84775
 20
11.51452
 30
0.0
 10
2.51089
 20
11.57684
 30
0.0
 10
2.51089
 20
11.57684
 30
0.0
 10
2.43515
 20
11.5908
 30
0.0
 10
2.43515
 20
11.7265
 30
0.0
 10
2.51089
 20
11.74046
 30
0.0
 10
2.51089
 20
11.74046
 30
0.0
 10
2.84775
 20
11.80278
 30
0.0
 10
2.84775
 20
11.80278
 30
0.0
 10
3.14728
 20
11.85825
 30
0.0
 10
3.38239
 20
12.14983
 30
0.0
 10
3.42705
 20
12.52129
 30
0.0
 10
3.42705
 20
12.52129
 30
0.0
 10
3.47729
 20
12.93907
 30
0.0
 10
3.47729
 20
12.93907
 30
0.0
 10
3.48862
 20
13.033
 30
0.0
 10
3.59776
 20
13.033
 30
0.0
 10
3.60908
 20
12.93907
 30
0.0
 10
3.60908
 20
12.93907
 30
0.0
 10
3.65926
 20
12.52129
 30
0.0
 10
3.65926
 20
12.52129
 30
0.0
 10
3.70398
 20
12.14983
 30
0.0
 10
3.9391
 20
11.85825
 30
0.0
 10
4.23862
 20
11.80278
 30
0.0
 10
4.23862
 20
11.80278
 30
0.0
 10
4.57549
 20
11.74046
 30
0.0
 10
4.57549
 20
11.74046
 30
0.0
 10
4.65123
 20
11.7265
 30
0.0
 10
4.65123
 20
11.5908
 30
0.0
 10
4.57549
 20
11.57684
 30
0.0
 10
4.57549
 20
11.57684
 30
0.0
 10
4.23862
 20
11.51452
 30
0.0
 10
4.23862
 20
11.51452
 30
0.0
 10
3.9391
 20
11.45942
 30
0.0
 10
3.70398
 20
11.16784
 30
0.0
 10
3.65926
 20
10.79638
 30
0.0
 10
3.65926
 20
10.79638
 30
0.0
 10
3.60908
 20
10.37852
 30
0.0
 10
3.60908
 20
10.37852
 30
0.0
 10
3.59776
 20
10.28459
 30
0.0
 10
3.48862
 20
10.28459
 30
0.0
 10
3.47729
 20
10.37852
 30
0.0
 10
3.47729
 20
10.37852
 30
0.0
 10
3.42705
 20
10.79638
 30
0.0
 10
3.42705
 20
10.79638
 30
0.0
 10
3.38239
 20
11.16784
 30
0.0
 10
3.14728
 20
11.45942
 30
0.0
 10
2.84775
 20
11.51452
 30
0.0
  0
SPLINE
  5
B8
330
1F
100
AcDbEntity
  8
Layer 1
 62
   250
370
     9
100
AcDbSpline
210
0.0
220
0.0
230
1.0
 70
    11
 71
     3
 72
    17
 73
    13
 74
     0
 42
0.0000000001
 43
0.0000000001
 40
0.0
 40
0.0
 40
0.0
 40
0.0
 40
0.25
 40
0.25
 40
0.25
 40
0.5
 40
0.5
 40
0.5
 40
0.75
 40
0.75
 40
0.75
 40
1.0
 40
1.0
 40
1.0
 40
1.0
 10
5.11513
 20
14.89066
 30
0.0
 10
5.44014
 20
14.89066
 30
0.0
 10
5.70396
 20
14.56358
 30
0.0
 10
5.70396
 20
14.16012
 30
0.0
 10
5.70396
 20
13.75705
 30
0.0
 10
5.44014
 20
13.42988
 30
0.0
 10
5.11513
 20
13.42988
 30
0.0
 10
4.78981
 20
13.42988
 30
0.0
 10
4.52607
 20
13.75705
 30
0.0
 10
4.52607
 20
14.16012
 30
0.0
 10
4.52607
 20
14.56358
 30
0.0
 10
4.78981
 20
14.89066
 30
0.0
 10
5.11513
 20
14.89066
 30
0.0
  0
SPLINE
  5
B9
330
1F
100
AcDbEntity
  8
Layer 1
 62
   250
370
     9
100
AcDbSpline
210
0.0
220
0.0
230
1.0
 70
    11
 71
     3
 72
    17
 73
    13
 74
     0
 42
0.0000000001
 43
0.0000000001
 40
0.0
 40
0.0
 40
0.0
 40
0.0
 40
0.25
 40
0.25
 40
0.25
 40
0.5
 40
0.5
 40
0.5
 40
0.75
 40
0.75
 40
0.75
 40
1.0
 40
1.0
 40
1.0
 40
1.0
 10
5.86096
 20
11.96947
 30
0.0
 10
5.86096
 20
11.71837
 30
0.0
 10
5.69688
 20
11.51517
 30
0.0
 10
5.49464
 20
11.51517
 30
0.0
 10
5.2921
 20
11.51517
 30
0.0
 10
5.12802
 20
11.71837
 30
0.0
 10
5.12802
 20
11.96947
 30
0.0
 10
5.12802
 20
12.22028
 30
0.0
 10
5.2921
 20
12.42375
 30
0.0
 10
5.49464
 20
12.42375
 30
0.0
 10
5.69688
 20
12.42375
 30
0.0
 10
5.86096
 20
12.22028
 30
0.0
 10
5.86096
 20
11.96947
 30
0.0
  0
SPLINE
  5
BA
330
1F
100
AcDbEntity
  8
Layer 1
 62
   250
370
     9
100
AcDbSpline
210
0.0
220
0.0
230
1.0
 70
    11
 71
     3
 72
    17
 73
    13
 74
     0
 42
0.0000000001
 43
0.0000000001
 40
0.0
 40
0.0
 40
0.0
 40
0.0
 40
0.25
 40
0.25
 40
0.25
 40
0.5
 40
0.5
 40
0.5
 40
0.75
 40
0.75
 40
0.75
 40
1.0
 40
1.0
 40
1.0
 40
1.0
 10
8.26877
 20
15.18262
 30
0.0
 10
8.3987
 20
15.18262
 30
0.0
 10
8.50418
 20
15.05179
 30
0.0
 10
8.50418
 20
14.89066
 30
0.0
 10
8.50418
 20
14.72924
 30
0.0
 10
8.3987
 20
14.59843
 30
0.0
 10
8.26877
 20
14.59843
 30
0.0
 10
8.13862
 20
14.59843
 30
0.0
 10
8.03314
 20
14.72924
 30
0.0
 10
8.03314
 20
14.89066
 30
0.0
 10
8.03314
 20
15.05179
 30
0.0
 10
8.13862
 20
15.18262
 30
0.0
 10
8.26877
 20
15.18262
 30
0.0
  0
SPLINE
  5
BB
330
1F
100
AcDbEntity
  8
Layer 1
 62
   250
370
     9
100
AcDbSpline
210
0.0
220
0.0
230
1.0
 70
    11
 71
     3
 72
   155
 73
   151
 74
     0
 42
0.0000000001
 43
0.0000000001
 40
0.0
 40
0.0
 40
0.0
 40
0.0
 40
0.02
 40
0.02
 40
0.02
 40
0.04
 40
0.04
 40
0.04
 40
0.06
 40
0.06
 40
0.06
 40
0.08
 40
0.08
 40
0.08
 40
0.1
 40
0.1
 40
0.1
 40
0.12
 40
0.12
 40
0.12
 40
0.14
 40
0.14
 40
0.14
 40
0.16
 40
0.16
 40
0.16
 40
0.18
 40
0.18
 40
0.18
 40
0.2
 40
0.2
 40
0.2
 40
0.22
 40
0.22
 40
0.22
 40
0.24
 40
0.24
 40
0.24
 40
0.26
 40
0.26
 40
0.26
 40
0.28
 40
0.28
 40
0.28
 40
0.3
 40
0.3
 40
0.3
 40
0.32
 40
0.32
 40
0.32
 40
0.34
 40
0.34
 40
0.34
 40
0.36
 40
0.36
 40
0.36
 40
0.38
 40
0.38
 40
0.38
 40
0.4
 40
0.4
 40
0.4
 40
0.42
 40
0.42
 40
0.42
 40
0.44
 40
0.44
 40
0.44
 40
0.46
 40
0.46
 40
0.46
 40
0.48
 40
0.48
 40
0.48
 40
0.5
 40
0.5
 40
0.5
 40
0.52
 40
0.52
 40
0.52
 40
0.54
 40
0.54
 40
0.54
 40
0.56
 40
0.56
 40
0.56
 40
0.58
 40
0.58
 40
0.58
 40
0.6
 40
0.6
 40
0.6
 40
0.62
 40
0.62
 40
0.62
 40
0.64
 40
0.64
 40
0.64
 40
0.66
 40
0.66
 40
0.66
 40
0.68
 40
0.68
 40
0.68
 40
0.7000000000000001
 40
0.7000000000000001
 40
0.7000000000000001
 40
0.72
 40
0.72
 40
0.72
 40
0.74
 40
0.74
 40
0.74
 40
0.76
 40
0.76
 40
0.76
 40
0.78
 40
0.78
 40
0.78
 40
0.8
 40
0.8
 40
0.8
 40
0.8200000000000001
 40
0.8200000000000001
 40
0.8200000000000001
 40
0.84
 40
0.84
 40
0.84
 40
0.86
 40
0.86
 40
0.86
 40
0.88
 40
0.88
 40
0.88
 40
0.9
 40
0.9
 40
0.9
 40
0.92
 40
0.92
 40
0.92
 40
0.9400000000000001
 40
0.9400000000000001
 40
0.9400000000000001
 40
0.96
 40
0.96
 40
0.96
 40
0.98
 40
0.98
 40
0.98
 40
1.0
 40
1.0
 40
1.0
 40
1.0
 10
11.15815
 20
12.85725
 30
0.0
 10
11.26989
 20
12.83534
 30
0.0
 10
11.3759
 20
12.73882
 30
0.0
 10
11.40512
 20
12.60347
 30
0.0
 10
11.43427
 20
12.46777
 30
0.0
 10
11.36695
 20
12.30404
 30
0.0
 10
11.25596
 20
12.27704
 30
0.0
 10
11.28913
 20
12.39048
 30
0.0
 10
11.22733
 20
12.52785
 30
0.0
 10
11.13445
 20
12.564
 30
0.0
 10
11.04164
 20
12.60024
 30
0.0
 10
10.93354
 20
12.53987
 30
0.0
 10
10.88494
 20
12.43522
 30
0.0
 10
10.83649
 20
12.33048
 30
0.0
 10
10.84573
 20
12.19254
 30
0.0
 10
10.89859
 20
12.09112
 30
0.0
 10
10.95143
 20
11.98999
 30
0.0
 10
11.0435
 20
11.92481
 30
0.0
 10
11.13974
 20
11.90623
 30
0.0
 10
11.35749
 20
11.86343
 30
0.0
 10
11.58053
 20
12.06468
 30
0.0
 10
11.63785
 20
12.32853
 30
0.0
 10
11.66856
 20
12.46942
 30
0.0
 10
11.6544
 20
12.61883
 30
0.0
 10
11.60893
 20
12.75352
 30
0.0
 10
11.80953
 20
12.59072
 30
0.0
 10
11.99969
 20
12.40841
 30
0.0
 10
12.17667
 20
12.20918
 30
0.0
 10
12.01021
 20
12.11618
 30
0.0
 10
11.87289
 20
11.93913
 30
0.0
 10
11.81639
 20
11.72291
 30
0.0
 10
11.76615
 20
11.53014
 30
0.0
 10
11.77822
 20
11.31031
 30
0.0
 10
11.86111
 20
11.13586
 30
0.0
 10
11.94394
 20
10.96103
 30
0.0
 10
12.09958
 20
10.83872
 30
0.0
 10
12.26291
 20
10.83614
 30
0.0
 10
12.42624
 20
10.83317
 30
0.0
 10
12.5898
 20
10.95808
 30
0.0
 10
12.65033
 20
11.1463
 30
0.0
 10
12.69207
 20
11.27638
 30
0.0
 10
12.68082
 20
11.43788
 30
0.0
 10
12.60426
 20
11.54124
 30
0.0
 10
12.52777
 20
11.6446
 30
0.0
 10
12.38285
 20
11.66716
 30
0.0
 10
12.29974
 20
11.57193
 30
0.0
 10
12.2527
 20
11.51803
 30
0.0
 10
12.23086
 20
11.43982
 30
0.0
 10
12.19769
 20
11.37233
 30
0.0
 10
12.16429
 20
11.30476
 30
0.0
 10
12.10674
 20
11.24217
 30
0.0
 10
12.04383
 20
11.25623
 30
0.0
 10
12.01364
 20
11.42938
 30
0.0
 10
12.05724
 20
11.61955
 30
0.0
 10
12.15639
 20
11.74704
 30
0.0
 10
12.25554
 20
11.87451
 30
0.0
 10
12.40753
 20
11.93525
 30
0.0
 10
12.54798
 20
11.90355
 30
0.0
 10
12.67314
 20
11.87517
 30
0.0
 10
12.78362
 20
11.7793
 30
0.0
 10
12.86695
 20
11.66031
 30
0.0
 10
12.95037
 20
11.54087
 30
0.0
 10
13.00926
 20
11.39869
 30
0.0
 10
13.06263
 20
11.2552
 30
0.0
 10
13.22067
 20
10.83022
 30
0.0
 10
13.33562
 20
10.38054
 30
0.0
 10
13.40398
 20
9.91997
 30
0.0
 10
13.38005
 20
9.94614
 30
0.0
 10
13.35478
 20
9.97091
 30
0.0
 10
13.32802
 20
9.99245
 30
0.0
 10
13.27301
 20
10.03609
 30
0.0
 10
13.19257
 20
10.06511
 30
0.0
 10
13.14889
 20
10.00511
 30
0.0
 10
13.09842
 20
9.93568
 30
0.0
 10
13.14866
 20
9.82872
 30
0.0
 10
13.19384
 20
9.75366
 30
0.0
 10
13.24334
 20
9.67118
 30
0.0
 10
13.28642
 20
9.58308
 30
0.0
 10
13.32325
 20
9.49082
 30
0.0
 10
13.21963
 20
9.45985
 30
0.0
 10
13.121
 20
9.40374
 30
0.0
 10
13.03424
 20
9.32644
 30
0.0
 10
12.98899
 20
9.28595
 30
0.0
 10
12.94665
 20
9.2377
 30
0.0
 10
12.90982
 20
9.18389
 30
0.0
 10
12.75969
 20
9.15061
 30
0.0
 10
12.61268
 20
9.09357
 30
0.0
 10
12.47432
 20
9.01369
 30
0.0
 10
12.46069
 20
9.13887
 30
0.0
 10
12.44704
 20
9.2645
 30
0.0
 10
12.43333
 20
9.38968
 30
0.0
 10
12.15355
 20
9.15588
 30
0.0
 10
11.98285
 20
8.7345
 30
0.0
 10
11.99835
 20
8.31672
 30
0.0
 10
12.00044
 20
8.25377
 30
0.0
 10
12.00834
 20
8.18915
 30
0.0
 10
12.02414
 20
8.12886
 30
0.0
 10
11.82824
 20
7.79652
 30
0.0
 10
11.67833
 20
7.42376
 30
0.0
 10
11.57784
 20
7.03103
 30
0.0
 10
11.52924
 20
7.51768
 30
0.0
 10
11.43032
 20
7.99713
 30
0.0
 10
11.28309
 20
8.4504
 30
0.0
 10
11.33408
 20
8.50753
 30
0.0
 10
11.37671
 20
8.58149
 30
0.0
 10
11.41034
 20
8.65591
 30
0.0
 10
11.58604
 20
9.04273
 30
0.0
 10
11.63807
 20
9.51366
 30
0.0
 10
11.55264
 20
9.94484
 30
0.0
 10
11.4661
 20
9.82669
 30
0.0
 10
11.37933
 20
9.70835
 30
0.0
 10
11.29278
 20
9.58993
 30
0.0
 10
11.24231
 20
9.83325
 30
0.0
 10
11.10947
 20
10.04847
 30
0.0
 10
10.93302
 20
10.17208
 30
0.0
 10
10.84968
 20
9.97378
 30
0.0
 10
10.81338
 20
9.74589
 30
0.0
 10
10.82941
 20
9.52346
 30
0.0
 10
10.73055
 20
9.63199
 30
0.0
 10
10.58929
 20
9.67673
 30
0.0
 10
10.46018
 20
9.6441
 30
0.0
 10
10.38497
 20
9.68941
 30
0.0
 10
10.30848
 20
9.73054
 30
0.0
 10
10.23006
 20
9.76604
 30
0.0
 10
10.25273
 20
9.86061
 30
0.0
 10
10.2806
 20
9.95325
 30
0.0
 10
10.314
 20
10.04265
 30
0.0
 10
10.3342
 20
10.09747
 30
0.0
 10
10.35708
 20
10.15451
 30
0.0
 10
10.35478
 20
10.21488
 30
0.0
 10
10.35239
 20
10.27516
 30
0.0
 10
10.314
 20
10.33848
 30
0.0
 10
10.26532
 20
10.33321
 30
0.0
 10
10.24378
 20
10.3309
 30
0.0
 10
10.22507
 20
10.31658
 30
0.0
 10
10.20851
 20
10.29901
 30
0.0
 10
10.25794
 20
10.37592
 30
0.0
 10
10.28873
 20
10.47282
 30
0.0
 10
10.30267
 20
10.571
 30
0.0
 10
10.32242
 20
10.70994
 30
0.0
 10
10.31348
 20
10.85213
 30
0.0
 10
10.30692
 20
10.99265
 30
0.0
 10
10.29164
 20
11.32537
 30
0.0
 10
10.29268
 20
11.66448
 30
0.0
 10
10.36708
 20
11.98444
 30
0.0
 10
10.44177
 20
12.30478
 30
0.0
 10
10.59824
 20
12.60708
 30
0.0
 10
10.83313
 20
12.76887
 30
0.0
 10
10.93176
 20
12.837
 30
0.0
 10
11.04663
 20
12.87934
 30
0.0
 10
11.15815
 20
12.85725
 30
0.0
  0
SPLINE
  5
BC
330
1F
100
AcDbEntity
  8
Layer 1
 62
   250
370
     9
100
AcDbSpline
210
0.0
220
0.0
230
1.0
 70
    11
 71
     3
 72
    17
 73
    13
 74
     0
 42
0.0000000001
 43
0.0000000001
 40
0.0
 40
0.0
 40
0.0
 40
0.0
 40
0.25
 40
0.25
 40
0.25
 40
0.5
 40
0.5
 40
0.5
 40
0.75
 40
0.75
 40
0.75
 40
1.0
 40
1.0
 40
1.0
 40
1.0
 10
20.74341
 20
9.91306
 30
0.0
 10
20.74341
 20
15.4359
 30
0.0
 10
16.26627
 20
19.91305
 30
0.0
 10
10.74343
 20
19.91306
 30
0.0
 10
5.22059
 20
19.91307
 30
0.0
 10
0.74343
 20
15.43593
 30
0.0
 10
0.74342
 20
9.91309
 30
0.0
 10
0.74341
 20
4.39025
 30
0.0
 10
5.22054
 20
-0.08691
 30
0.0
 10
10.74338
 20
-0.08693
 30
0.0
 10
16.26621
 20
-0.08695
 30
0.0
 10
20.74338
 20
4.39017
 30
0.0
 10
20.74341
 20
9.91306
 30
0.0
  0
ENDSEC
  0
SECTION
  2
OBJECTS
  0
DICTIONARY
  5
C
330
0
100
AcDbDictionary
281
     1
  3
ACAD_DETAILVIEWSTYLE
350
C4
  3
ACAD_GROUP
350
D
  3
ACAD_LAYOUT
350
1A
  3
ACAD_MATERIAL
350
43
  3
ACAD_MLEADERSTYLE
350
5B
  3
ACAD_MLINESTYLE
350
17
  3
ACAD_PLOTSETTINGS
350
19
  3
ACAD_PLOTSTYLENAME
350
E
  3
ACAD_SCALELIST
350
47
  3
ACAD_SECTIONVIEWSTYLE
350
C5
  3
ACAD_TABLESTYLE
350
59
  3
ACAD_VISUALSTYLE
350
2A
  3
ACDB_RECOMPOSE_DATA
350
C1
  3
AcDbVariableDictionary
350
BD
  0
SUN
  5
5D
330
29
100
AcDbSun
 90
        1
290
     0
 63
     7
421
 16777215
 40
1.0
291
     1
 91
  2455826
 92
 54000000
292
     0
 70
     2
 71
   256
280
     1
  0
DICTIONARY
  5
C4
102
{ACAD_REACTORS
330
C
102
}
330
C
100
AcDbDictionary
281
     1
  0
DICTIONARY
  5
D
102
{ACAD_REACTORS
330
C
102
}
330
C
100
AcDbDictionary
281
     1
  0
DICTIONARY
  5
1A
102
{ACAD_REACTORS
330
C
102
}
330
C
100
AcDbDictionary
281
     1
  3
Layout1
350
1E
  3
Layout2
350
26
  3
Model
350
22
  0
DICTIONARY
  5
43
102
{ACAD_REACTORS
330
C
102
}
330
C
100
AcDbDictionary
281
     1
  3
ByBlock
350
45
  3
ByLayer
350
44
  3
Global
350
46
  0
DICTIONARY
  5
5B
102
{ACAD_REACTORS
330
C
102
}
330
C
100
AcDbDictionary
281
     1
  3
Standard
350
5C
  0
DICTIONARY
  5
17
102
{ACAD_REACTORS
330
C
102
}
330
C
100
AcDbDictionary
281
     1
  3
Standard
350
18
  0
DICTIONARY
  5
19
102
{ACAD_REACTORS
330
C
102
}
330
C
100
AcDbDictionary
281
     1
  0
ACDBDICTIONARYWDFLT
  5
E
102
{ACAD_REACTORS
330
C
102
}
330
C
100
AcDbDictionary
281
     1
  3
Normal
350
F
100
AcDbDictionaryWithDefault
340
F
  0
DICTIONARY
  5
47
102
{ACAD_REACTORS
330
C
102
}
330
C
100
AcDbDictionary
281
     1
  3
A0
350
48
  3
A1
350
49
  3
A2
350
4A
  3
A3
350
4B
  3
A4
350
4C
  3
A5
350
4D
  3
A6
350
4E
  3
A7
350
4F
  3
A8
350
50
  3
A9
350
51
  3
B1
350
52
  3
B2
350
53
  3
B3
350
54
  3
B4
350
55
  3
B5
350
56
  3
B6
350
57
  3
B7
350
58
  0
DICTIONARY
  5
C5
102
{ACAD_REACTORS
330
C
102
}
330
C
100
AcDbDictionary
281
     1
  0
DICTIONARY
  5
59
102
{ACAD_REACTORS
330
C
102
}
330
C
100
AcDbDictionary
281
     1
  3
Standard
350
5A
  0
DICTIONARY
  5
2A
102
{ACAD_REACTORS
330
C
102
}
330
C
100
AcDbDictionary
281
     1
  3
2dWireframe
350
2F
  3
Basic
350
32
  3
Brighten
350
36
  3
ColorChange
350
3A
  3
Conceptual
350
34
  3
Dim
350
35
  3
EdgeColorOff
350
3D
  3
Facepattern
350
39
  3
Flat
350
2B
  3
FlatWithEdges
350
2C
  3
Gouraud
350
2D
  3
GouraudWithEdges
350
2E
  3
Hidden
350
31
  3
JitterOff
350
3B
  3
Linepattern
350
38
  3
OverhangOff
350
3C
  3
Realistic
350
33
  3
Shaded
350
42
  3
Shaded with edges
350
41
  3
Shades of Gray
350
3E
  3
Sketchy
350
3F
  3
Thicken
350
37
  3
Wireframe
350
30
  3
X-Ray
350
40
  0
XRECORD
  5
C1
102
{ACAD_REACTORS
330
C
102
}
330
C
100
AcDbXrecord
280
     1
 90
        1
330
5A
  0
DICTIONARY
  5
BD
102
{ACAD_REACTORS
330
C
102
}
330
C
100
AcDbDictionary
281
     1
  3
CANNOSCALE
350
BE
  3
CMLEADERSTYLE
350
C3
  3
CTABLESTYLE
350
C2
  0
LAYOUT
  5
1E
102
{ACAD_REACTORS
330
1A
102
}
330
1A
100
AcDbPlotSettings
  1

  2
none_device
  4

  6

 40
0.0
 41
0.0
 42
0.0
 43
0.0
 44
0.0
 45
0.0
 46
0.0
 47
0.0
 48
0.0
 49
0.0
140
0.0
141
0.0
142
1.0
143
1.0
 70
   688
 72
     0
 73
     0
 74
     5
  7

 75
    16
 76
     0
 77
     2
 78
   300
147
1.0
148
0.0
149
0.0
100
AcDbLayout
  1
Layout1
 70
     1
 71
     1
 10
0.0
 20
0.0
 11
12.0
 21
9.0
 12
0.0
 22
0.0
 32
0.0
 14
1.000000000000000E+20
 24
1.000000000000000E+20
 34
1.000000000000000E+20
 15
-1.000000000000000E+20
 25
-1.000000000000000E+20
 35
-1.000000000000000E+20
146
0.0
 13
0.0
 23
0.0
 33
0.0
 16
1.0
 26
0.0
 36
0.0
 17
0.0
 27
1.0
 37
0.0
 76
     0
330
1B
  0
LAYOUT
  5
26
102
{ACAD_REACTORS
330
1A
102
}
330
1A
100
AcDbPlotSettings
  1

  2
none_device
  4

  6

 40
0.0
 41
0.0
 42
0.0
 43
0.0
 44
0.0
 45
0.0
 46
0.0
 47
0.0
 48
0.0
 49
0.0
140
0.0
141
0.0
142
1.0
143
1.0
 70
   688
 72
     0
 73
     0
 74
     5
  7

 75
    16
 76
     0
 77
     2
 78
   300
147
1.0
148
0.0
149
0.0
100
AcDbLayout
  1
Layout2
 70
     1
 71
     2
 10
0.0
 20
0.0
 11
0.0
 21
0.0
 12
0.0
 22
0.0
 32
0.0
 14
0.0
 24
0.0
 34
0.0
 15
0.0
 25
0.0
 35
0.0
146
0.0
 13
0.0
 23
0.0
 33
0.0
 16
1.0
 26
0.0
 36
0.0
 17
0.0
 27
1.0
 37
0.0
 76
     0
330
23
  0
LAYOUT
  5
22
102
{ACAD_REACTORS
330
1A
102
}
330
1A
100
AcDbPlotSettings
  1

  2
none_device
  4
Letter_(8.50_x_11.00_Inches)
  6

 40
6.35
 41
6.35
 42
6.35000508
 43
6.35000508
 44
215.9
 45
279.4
 46
0.0
 47
0.0
 48
0.0
 49
0.0
140
0.0
141
0.0
142
1.0
143
1.0
 70
  1712
 72
     0
 73
     0
 74
     0
  7

 75
     0
 76
     0
 77
     2
 78
   300
147
1.0
148
0.0
149
0.0
100
AcDbLayout
  1
Model
 70
     1
 71
     0
 10
0.0
 20
0.0
 11
12.0
 21
9.0
 12
0.0
 22
0.0
 32
0.0
 14
-20.74721
 24
-20.12788
 34
0.0
 15
20.74722
 25
20.12788
 35
0.0
146
0.0
 13
0.0
 23
0.0
 33
0.0
 16
1.0
 26
0.0
 36
0.0
 17
0.0
 27
1.0
 37
0.0
 76
     0
330
1F
331
29
  0
MATERIAL
  5
45
102
{ACAD_REACTORS
330
43
102
}
330
43
100
AcDbMaterial
  1
ByBlock
 72
     1
 94
      127
  0
MATERIAL
  5
44
102
{ACAD_REACTORS
330
43
102
}
330
43
100
AcDbMaterial
  1
ByLayer
 72
     1
 94
      127
  0
MATERIAL
  5
46
102
{ACAD_REACTORS
330
43
102
}
330
43
100
AcDbMaterial
  1
Global
 72
     1
 94
      127
  0
MLEADERSTYLE
  5
5C
102
{ACAD_REACTORS
330
5B
102
}
330
5B
100
AcDbMLeaderStyle
179
     2
170
     2
171
     1
172
     0
 90
        2
 40
0.0
 41
0.0
173
     1
 91
-1056964608
340
14
 92
       -2
290
     1
 42
0.09
291
     1
 43
0.36
  3
Standard
341
0
 44
0.18
300

342
11
174
     1
178
     6
175
     1
176
     0
 93
-1056964608
 45
0.18
292
     0
297
     0
 46
0.18
343
0
 94
-1056964608
 47
1.0
 49
1.0
140
1.0
293
     1
141
0.0
294
     1
177
     0
142
1.0
295
     0
296
     0
143
0.125
271
     0
272
     9
273
     9
298
     0
  0
MLINESTYLE
  5
18
102
{ACAD_REACTORS
330
17
102
}
330
17
100
AcDbMlineStyle
  2
Standard
 70
     0
  3

 62
   256
 51
90.0
 52
90.0
 71
     2
 49
0.5
 62
   256
  6
BYLAYER
 49
-0.5
 62
   256
  6
BYLAYER
  0
ACDBPLACEHOLDER
  5
F
102
{ACAD_REACTORS
330
E
102
}
330
E
  0
SCALE
  5
48
102
{ACAD_REACTORS
330
47
102
}
330
47
100
AcDbScale
 70
     0
300
1:1
140
1.0
141
1.0
290
     1
  0
SCALE
  5
49
102
{ACAD_REACTORS
330
47
102
}
330
47
100
AcDbScale
 70
     0
300
1/128" = 1'-0"
140
0.0078125
141
12.0
290
     0
  0
SCALE
  5
4A
102
{ACAD_REACTORS
330
47
102
}
330
47
100
AcDbScale
 70
     0
300
1/64" = 1'-0"
140
0.015625
141
12.0
290
     0
  0
SCALE
  5
4B
102
{ACAD_REACTORS
330
47
102
}
330
47
100
AcDbScale
 70
     0
300
1/32" = 1'-0"
140
0.03125
141
12.0
290
     0
  0
SCALE
  5
4C
102
{ACAD_REACTORS
330
47
102
}
330
47
100
AcDbScale
 70
     0
300
1/16" = 1'-0"
140
0.0625
141
12.0
290
     0
  0
SCALE
  5
4D
102
{ACAD_REACTORS
330
47
102
}
330
47
100
AcDbScale
 70
     0
300
3/32" = 1'-0"
140
0.09375
141
12.0
290
     0
  0
SCALE
  5
4E
102
{ACAD_REACTORS
330
47
102
}
330
47
100
AcDbScale
 70
     0
300
1/8" = 1'-0"
140
0.125
141
12.0
290
     0
  0
SCALE
  5
4F
102
{ACAD_REACTORS
330
47
102
}
330
47
100
AcDbScale
 70
     0
300
3/16" = 1'-0"
140
0.1875
141
12.0
290
     0
  0
SCALE
  5
50
102
{ACAD_REACTORS
330
47
102
}
330
47
100
AcDbScale
 70
     0
300
1/4" = 1'-0"
140
0.25
141
12.0
290
     0
  0
SCALE
  5
51
102
{ACAD_REACTORS
330
47
102
}
330
47
100
AcDbScale
 70
     0
300
3/8" = 1'-0"
140
0.375
141
12.0
290
     0
  0
SCALE
  5
52
102
{ACAD_REACTORS
330
47
102
}
330
47
100
AcDbScale
 70
     0
300
1/2" = 1'-0"
140
0.5
141
12.0
290
     0
  0
SCALE
  5
53
102
{ACAD_REACTORS
330
47
102
}
330
47
100
AcDbScale
 70
     0
300
3/4" = 1'-0"
140
0.75
141
12.0
290
     0
  0
SCALE
  5
54
102
{ACAD_REACTORS
330
47
102
}
330
47
100
AcDbScale
 70
     0
300
1" = 1'-0"
140
1.0
141
12.0
290
     0
  0
SCALE
  5
55
102
{ACAD_REACTORS
330
47
102
}
330
47
100
AcDbScale
 70
     0
300
1-1/2" = 1'-0"
140
1.5
141
12.0
290
     0
  0
SCALE
  5
56
102
{ACAD_REACTORS
330
47
102
}
330
47
100
AcDbScale
 70
     0
300
3" = 1'-0"
140
3.0
141
12.0
290
     0
  0
SCALE
  5
57
102
{ACAD_REACTORS
330
47
102
}
330
47
100
AcDbScale
 70
     0
300
6" = 1'-0"
140
6.0
141
12.0
290
     0
  0
SCALE
  5
58
102
{ACAD_REACTORS
330
47
102
}
330
47
100
AcDbScale
 70
     0
300
1'-0" = 1'-0"
140
12.0
141
12.0
290
     0
  0
TABLESTYLE
  5
5A
102
{ACAD_REACTORS
330
59
102
}
102
{ACAD_XDICTIONARY
360
BF
102
}
330
59
100
AcDbTableStyle
  3
Standard
 70
     0
 71
     0
 40
0.06
 41
0.06
280
     0
281
     0
  7
Standard
140
0.18
170
     2
 62
     0
 63
   257
283
     0
 90
        4
 91
        0
  1

274
    -2
284
     1
 64
     0
275
    -2
285
     1
 65
     0
276
    -2
286
     1
 66
     0
277
    -2
287
     1
 67
     0
278
    -2
288
     1
 68
     0
279
    -2
289
     1
 69
     0
  7
Standard
140
0.25
170
     5
 62
     0
 63
   257
283
     0
 90
        4
 91
        0
  1

274
    -2
284
     1
 64
     0
275
    -2
285
     1
 65
     0
276
    -2
286
     1
 66
     0
277
    -2
287
     1
 67
     0
278
    -2
288
     1
 68
     0
279
    -2
289
     1
 69
     0
  7
Standard
140
0.18
170
     5
 62
     0
 63
   257
283
     0
 90
        4
 91
        0
  1

274
    -2
284
     1
 64
     0
275
    -2
285
     1
 65
     0
276
    -2
286
     1
 66
     0
277
    -2
287
     1
 67
     0
278
    -2
288
     1
 68
     0
279
    -2
289
     1
 69
     0
  0
VISUALSTYLE
  5
2F
102
{ACAD_REACTORS
330
2A
102
}
330
2A
100
AcDbVisualStyle
  2
2dWireframe
 70
     4
177
     3
291
     0
 70
    58
 90
        0
176
     1
 90
        2
176
     1
 90
        0
176
     1
 90
        0
176
     1
 40
0.6
176
     1
 40
30.0
176
     1
 62
     7
420
 16777215
176
     1
 90
        1
176
     1
 90
        4
176
     1
 62
     7
176
     1
 62
   257
176
     1
 90
        1
176
     1
 90
        1
176
     1
 40
1.0
176
     1
 90
        0
176
     1
 62
   257
176
     1
 40
1.0
176
     1
 90
        1
176
     1
 90
        6
176
     1
 90
        2
176
     1
 62
     7
176
     1
 90
        5
176
     1
 90
        0
176
     1
 90
        0
176
     1
290
     0
176
     1
 90
        1
176
     1
 40
0.0
176
     1
 90
        0
176
     1
290
     1
176
     1
290
     1
176
     1
290
     0
176
     1
290
     0
176
     1
290
     0
176
     1
290
     0
176
     1
290
     0
176
     1
290
     0
176
     1
290
     0
176
     1
 90
       50
176
     1
 40
0.0
176
     1
 40
1.0
176
     1
 90
        0
176
     1
 62
    18
420
        0
176
     1
 90
       50
176
     1
 90
        3
176
     1
 62
     5
420
      255
176
     1
290
     0
176
     1
 90
       50
176
     1
 90
       50
176
     1
 90
       50
176
     1
290
     0
176
     1
 90
       50
176
     1
 62
   256
176
     0
 40
1.0
176
     0
 90
        2
176
     1
  1
strokes_ogs.tif
176
     1
290
     0
176
     1
 40
1.0
176
     1
 40
1.0
176
     1
  0
VISUALSTYLE
  5
32
102
{ACAD_REACTORS
330
2A
102
}
330
2A
100
AcDbVisualStyle
  2
Basic
 70
     7
177
     3
291
     1
 70
    58
 90
        1
176
     1
 90
        0
176
     1
 90
        1
176
     1
 90
        0
176
     1
 40
0.6
176
     1
 40
30.0
176
     1
 62
     7
420
 16777215
176
     1
 90
        0
176
     1
 90
        4
176
     1
 62
     7
176
     1
 62
   257
176
     1
 90
        1
176
     1
 90
        1
176
     1
 40
1.0
176
     1
 90
        8
176
     1
 62
     7
176
     1
 40
1.0
176
     1
 90
        1
176
     1
 90
        6
176
     1
 90
        2
176
     1
 62
     7
176
     1
 90
        5
176
     1
 90
        0
176
     1
 90
        0
176
     1
290
     0
176
     1
 90
        1
176
     1
 40
0.0
176
     1
 90
        0
176
     1
290
     0
176
     1
290
     1
176
     1
290
     1
176
     1
290
     0
176
     1
290
     0
176
     1
290
     0
176
     1
290
     0
176
     1
290
     0
176
     1
290
     0
176
     1
 90
       50
176
     1
 40
0.0
176
     1
 40
1.0
176
     1
 90
        0
176
     1
 62
    18
420
        0
176
     1
 90
       50
176
     1
 90
        3
176
     1
 62
     5
420
      255
176
     1
290
     0
176
     1
 90
       50
176
     1
 90
       50
176
     1
 90
       50
176
     1
290
     0
176
     1
 90
       50
176
     1
 62
   256
176
     0
 40
1.0
176
     0
 90
        2
176
     1
  1
strokes_ogs.tif
176
     1
290
     0
176
     1
 40
1.0
176
     1
 40
1.0
176
     1
  0
VISUALSTYLE
  5
36
102
{ACAD_REACTORS
330
2A
102
}
330
2A
100
AcDbVisualStyle
  2
Brighten
 70
    12
177
     3
291
     1
 70
    58
 90
        2
176
     1
 90
        2
176
     1
 90
        0
176
     1
 90
        0
176
     1
 40
0.6
176
     1
 40
30.0
176
     1
 62
     7
420
 16777215
176
     1
 90
        1
176
     1
 90
        4
176
     1
 62
     7
176
     1
 62
   257
176
     1
 90
        1
176
     1
 90
        1
176
     1
 40
1.0
176
     1
 90
        8
176
     1
 62
     7
176
     1
 40
1.0
176
     1
 90
        1
176
     1
 90
        6
176
     1
 90
        2
176
     1
 62
     7
176
     1
 90
        5
176
     1
 90
        0
176
     1
 90
        0
176
     1
290
     0
176
     1
 90
        1
176
     1
 40
50.0
176
     1
 90
        0
176
     1
290
     0
176
     1
290
     1
176
     1
290
     1
176
     1
290
     0
176
     1
290
     0
176
     1
290
     0
176
     1
290
     0
176
     1
290
     0
176
     1
290
     0
176
     1
 90
       50
176
     1
 40
0.0
176
     1
 40
1.0
176
     1
 90
        0
176
     1
 62
    18
420
        0
176
     1
 90
       50
176
     1
 90
        3
176
     1
 62
     5
420
      255
176
     1
290
     0
176
     1
 90
       50
176
     1
 90
       50
176
     1
 90
       50
176
     1
290
     0
176
     1
 90
       50
176
     1
 62
   256
176
     0
 40
1.0
176
     0
 90
        2
176
     1
  1
strokes_ogs.tif
176
     1
290
     0
176
     1
 40
1.0
176
     1
 40
1.0
176
     1
  0
VISUALSTYLE
  5
3A
102
{ACAD_REACTORS
330
2A
102
}
330
2A
100
AcDbVisualStyle
  2
ColorChange
 70
    16
177
     3
291
     1
 70
    58
 90
        2
176
     1
 90
        2
176
     1
 90
        3
176
     1
 90
        0
176
     1
 40
0.6
176
     1
 40
30.0
176
     1
 62
     8
420
  8421504
176
     1
 90
        1
176
     1
 90
        4
176
     1
 62
     7
176
     1
 62
   257
176
     1
 90
        1
176
     1
 90
        1
176
     1
 40
1.0
176
     1
 90
        8
176
     1
 62
     8
420
  8421504
176
     1
 40
1.0
176
     1
 90
        1
176
     1
 90
        6
176
     1
 90
        2
176
     1
 62
     7
176
     1
 90
        5
176
     1
 90
        0
176
     1
 90
        0
176
     1
290
     0
176
     1
 90
        1
176
     1
 40
0.0
176
     1
 90
        0
176
     1
290
     0
176
     1
290
     1
176
     1
290
     1
176
     1
290
     0
176
     1
290
     0
176
     1
290
     0
176
     1
290
     0
176
     1
290
     0
176
     1
290
     0
176
     1
 90
       50
176
     1
 40
0.0
176
     1
 40
1.0
176
     1
 90
        0
176
     1
 62
    18
420
        0
176
     1
 90
       50
176
     1
 90
        3
176
     1
 62
     5
420
      255
176
     1
290
     0
176
     1
 90
       50
176
     1
 90
       50
176
     1
 90
       50
176
     1
290
     0
176
     1
 90
       50
176
     1
 62
   256
176
     0
 40
1.0
176
     0
 90
        2
176
     1
  1
strokes_ogs.tif
176
     1
290
     0
176
     1
 40
1.0
176
     1
 40
1.0
176
     1
  0
VISUALSTYLE
  5
34
102
{ACAD_REACTORS
330
2A
102
}
330
2A
100
AcDbVisualStyle
  2
Conceptual
 70
     9
177
     3
291
     0
 70
    58
 90
        3
176
     1
 90
        2
176
     1
 90
        0
176
     1
 90
        0
176
     1
 40
0.6
176
     1
 40
30.0
176
     1
 62
     7
420
 16777215
176
     1
 90
        2
176
     1
 90
        2
176
     1
 62
     7
176
     1
 62
   257
176
     1
 90
        1
176
     1
 90
        1
176
     1
 40
179.0
176
     1
 90
        8
176
     1
 62
     7
176
     1
 40
1.0
176
     1
 90
        1
176
     1
 90
        6
176
     1
 90
        2
176
     1
 62
     7
176
     1
 90
        3
176
     1
 90
        0
176
     1
 90
        0
176
     1
290
     0
176
     1
 90
        1
176
     1
 40
0.0
176
     1
 90
        0
176
     1
290
     0
176
     1
290
     1
176
     1
290
     1
176
     1
290
     0
176
     1
290
     0
176
     1
290
     0
176
     1
290
     0
176
     1
290
     0
176
     1
290
     0
176
     1
 90
       50
176
     1
 40
0.0
176
     1
 40
1.0
176
     1
 90
        0
176
     1
 62
    18
420
        0
176
     1
 90
       50
176
     1
 90
        3
176
     1
 62
     5
420
      255
176
     1
290
     0
176
     1
 90
       50
176
     1
 90
       50
176
     1
 90
       50
176
     1
290
     0
176
     1
 90
       50
176
     1
 62
   256
176
     0
 40
1.0
176
     0
 90
        2
176
     1
  1
strokes_ogs.tif
176
     1
290
     0
176
     1
 40
1.0
176
     1
 40
1.0
176
     1
  0
VISUALSTYLE
  5
35
102
{ACAD_REACTORS
330
2A
102
}
330
2A
100
AcDbVisualStyle
  2
Dim
 70
    11
177
     3
291
     1
 70
    58
 90
        2
176
     1
 90
        2
176
     1
 90
        0
176
     1
 90
        0
176
     1
 40
0.6
176
     1
 40
30.0
176
     1
 62
     7
420
 16777215
176
     1
 90
        1
176
     1
 90
        4
176
     1
 62
     7
176
     1
 62
   257
176
     1
 90
        1
176
     1
 90
        1
176
     1
 40
1.0
176
     1
 90
        8
176
     1
 62
     7
176
     1
 40
1.0
176
     1
 90
        1
176
     1
 90
        6
176
     1
 90
        2
176
     1
 62
     7
176
     1
 90
        5
176
     1
 90
        0
176
     1
 90
        0
176
     1
290
     0
176
     1
 90
        1
176
     1
 40
-50.0
176
     1
 90
        0
176
     1
290
     0
176
     1
290
     1
176
     1
290
     1
176
     1
290
     0
176
     1
290
     0
176
     1
290
     0
176
     1
290
     0
176
     1
290
     0
176
     1
290
     0
176
     1
 90
       50
176
     1
 40
0.0
176
     1
 40
1.0
176
     1
 90
        0
176
     1
 62
    18
420
        0
176
     1
 90
       50
176
     1
 90
        3
176
     1
 62
     5
420
      255
176
     1
290
     0
176
     1
 90
       50
176
     1
 90
       50
176
     1
 90
       50
176
     1
290
     0
176
     1
 90
       50
176
     1
 62
   256
176
     0
 40
1.0
176
     0
 90
        2
176
     1
  1
strokes_ogs.tif
176
     1
290
     0
176
     1
 40
1.0
176
     1
 40
1.0
176
     1
  0
VISUALSTYLE
  5
3D
102
{ACAD_REACTORS
330
2A
102
}
330
2A
100
AcDbVisualStyle
  2
EdgeColorOff
 70
    22
177
     3
291
     1
 70
    58
 90
        2
176
     0
 90
        2
176
     0
 90
        0
176
     0
 90
        0
176
     0
 40
0.6
176
     0
 40
30.0
176
     0
 62
     7
420
 16777215
176
     0
 90
        1
176
     0
 90
        4
176
     0
 62
     7
176
     0
 62
   257
176
     0
 90
        1
176
     0
 90
        1
176
     0
 40
1.0
176
     0
 90
        8
176
     2
 62
     7
176
     0
 40
1.0
176
     0
 90
        1
176
     0
 90
        6
176
     0
 90
        2
176
     0
 62
     7
176
     0
 90
        5
176
     0
 90
        0
176
     0
 90
        0
176
     0
290
     0
176
     0
 90
        1
176
     0
 40
0.0
176
     0
 90
        0
176
     0
290
     0
176
     0
290
     1
176
     0
290
     1
176
     0
290
     0
176
     0
290
     0
176
     0
290
     0
176
     0
290
     0
176
     0
290
     0
176
     0
290
     0
176
     0
 90
       50
176
     0
 40
0.0
176
     0
 40
1.0
176
     0
 90
        0
176
     0
 62
    18
420
        0
176
     0
 90
       50
176
     0
 90
        3
176
     0
 62
     5
420
      255
176
     0
290
     0
176
     0
 90
       50
176
     0
 90
       50
176
     0
 90
       50
176
     0
290
     0
176
     0
 90
       50
176
     0
 62
   256
176
     0
 40
1.0
176
     0
 90
        2
176
     0
  1
strokes_ogs.tif
176
     0
290
     0
176
     0
 40
1.0
176
     0
 40
1.0
176
     0
  0
VISUALSTYLE
  5
39
102
{ACAD_REACTORS
330
2A
102
}
330
2A
100
AcDbVisualStyle
  2
Facepattern
 70
    15
177
     3
291
     1
 70
    58
 90
        2
176
     1
 90
        2
176
     1
 90
        0
176
     1
 90
        0
176
     1
 40
0.6
176
     1
 40
30.0
176
     1
 62
     7
420
 16777215
176
     1
 90
        1
176
     1
 90
        4
176
     1
 62
     7
176
     1
 62
   257
176
     1
 90
        1
176
     1
 90
        1
176
     1
 40
1.0
176
     1
 90
        8
176
     1
 62
     7
176
     1
 40
1.0
176
     1
 90
        1
176
     1
 90
        6
176
     1
 90
        2
176
     1
 62
     7
176
     1
 90
        5
176
     1
 90
        0
176
     1
 90
        0
176
     1
290
     0
176
     1
 90
        1
176
     1
 40
0.0
176
     1
 90
        0
176
     1
290
     0
176
     1
290
     1
176
     1
290
     1
176
     1
290
     0
176
     1
290
     0
176
     1
290
     0
176
     1
290
     0
176
     1
290
     0
176
     1
290
     0
176
     1
 90
       50
176
     1
 40
0.0
176
     1
 40
1.0
176
     1
 90
        0
176
     1
 62
    18
420
        0
176
     1
 90
       50
176
     1
 90
        3
176
     1
 62
     5
420
      255
176
     1
290
     0
176
     1
 90
       50
176
     1
 90
       50
176
     1
 90
       50
176
     1
290
     0
176
     1
 90
       50
176
     1
 62
   256
176
     0
 40
1.0
176
     0
 90
        2
176
     1
  1
strokes_ogs.tif
176
     1
290
     0
176
     1
 40
1.0
176
     1
 40
1.0
176
     1
  0
VISUALSTYLE
  5
2B
102
{ACAD_REACTORS
330
2A
102
}
330
2A
100
AcDbVisualStyle
  2
Flat
 70
     0
177
     3
291
     1
 70
    58
 90
        2
176
     1
 90
        1
176
     1
 90
        1
176
     1
 90
        2
176
     1
 40
0.6
176
     1
 40
30.0
176
     1
 62
     7
420
 16777215
176
     1
 90
        0
176
     1
 90
        0
176
     1
 62
     7
176
     1
 62
   257
176
     1
 90
        1
176
     1
 90
        1
176
     1
 40
1.0
176
     1
 90
        8
176
     1
 62
     7
176
     1
 40
1.0
176
     1
 90
        1
176
     1
 90
        6
176
     1
 90
        2
176
     1
 62
     7
176
     1
 90
        5
176
     1
 90
        0
176
     1
 90
        0
176
     1
290
     0
176
     1
 90
       13
176
     1
 40
0.0
176
     1
 90
        0
176
     1
290
     0
176
     1
290
     1
176
     1
290
     1
176
     1
290
     0
176
     1
290
     0
176
     1
290
     0
176
     1
290
     0
176
     1
290
     0
176
     1
290
     0
176
     1
 90
       50
176
     1
 40
0.0
176
     1
 40
1.0
176
     1
 90
        0
176
     1
 62
    18
420
        0
176
     1
 90
       50
176
     1
 90
        3
176
     1
 62
     5
420
      255
176
     1
290
     0
176
     1
 90
       50
176
     1
 90
       50
176
     1
 90
       50
176
     1
290
     0
176
     1
 90
       50
176
     1
 62
   256
176
     0
 40
1.0
176
     0
 90
        2
176
     1
  1
strokes_ogs.tif
176
     1
290
     0
176
     1
 40
1.0
176
     1
 40
1.0
176
     1
  0
VISUALSTYLE
  5
2C
102
{ACAD_REACTORS
330
2A
102
}
330
2A
100
AcDbVisualStyle
  2
FlatWithEdges
 70
     1
177
     3
291
     1
 70
    58
 90
        2
176
     1
 90
        1
176
     1
 90
        1
176
     1
 90
        2
176
     1
 40
0.6
176
     1
 40
30.0
176
     1
 62
     7
420
 16777215
176
     1
 90
        1
176
     1
 90
        0
176
     1
 62
     7
176
     1
 62
   257
176
     1
 90
        1
176
     1
 90
        1
176
     1
 40
1.0
176
     1
 90
        0
176
     1
 62
   257
176
     1
 40
1.0
176
     1
 90
        1
176
     1
 90
        6
176
     1
 90
        2
176
     1
 62
     7
176
     1
 90
        5
176
     1
 90
        0
176
     1
 90
        0
176
     1
290
     0
176
     1
 90
       13
176
     1
 40
0.0
176
     1
 90
        0
176
     1
290
     0
176
     1
290
     1
176
     1
290
     1
176
     1
290
     0
176
     1
290
     0
176
     1
290
     0
176
     1
290
     0
176
     1
290
     0
176
     1
290
     0
176
     1
 90
       50
176
     1
 40
0.0
176
     1
 40
1.0
176
     1
 90
        0
176
     1
 62
    18
420
        0
176
     1
 90
       50
176
     1
 90
        3
176
     1
 62
     5
420
      255
176
     1
290
     0
176
     1
 90
       50
176
     1
 90
       50
176
     1
 90
       50
176
     1
290
     0
176
     1
 90
       50
176
     1
 62
   256
176
     0
 40
1.0
176
     0
 90
        2
176
     1
  1
strokes_ogs.tif
176
     1
290
     0
176
     1
 40
1.0
176
     1
 40
1.0
176
     1
  0
VISUALSTYLE
  5
2D
102
{ACAD_REACTORS
330
2A
102
}
330
2A
100
AcDbVisualStyle
  2
Gouraud
 70
     2
177
     3
291
     1
 70
    58
 90
        2
176
     1
 90
        2
176
     1
 90
        1
176
     1
 90
        2
176
     1
 40
0.6
176
     1
 40
30.0
176
     1
 62
     7
420
 16777215
176
     1
 90
        0
176
     1
 90
        0
176
     1
 62
     7
176
     1
 62
   257
176
     1
 90
        1
176
     1
 90
        1
176
     1
 40
1.0
176
     1
 90
        0
176
     1
 62
     7
176
     1
 40
1.0
176
     1
 90
        1
176
     1
 90
        6
176
     1
 90
        2
176
     1
 62
     7
176
     1
 90
        5
176
     1
 90
        0
176
     1
 90
        0
176
     1
290
     0
176
     1
 90
       13
176
     1
 40
0.0
176
     1
 90
        0
176
     1
290
     0
176
     1
290
     1
176
     1
290
     1
176
     1
290
     0
176
     1
290
     0
176
     1
290
     0
176
     1
290
     0
176
     1
290
     0
176
     1
290
     0
176
     1
 90
       50
176
     1
 40
0.0
176
     1
 40
1.0
176
     1
 90
        0
176
     1
 62
    18
420
        0
176
     1
 90
       50
176
     1
 90
        3
176
     1
 62
     5
420
      255
176
     1
290
     0
176
     1
 90
       50
176
     1
 90
       50
176
     1
 90
       50
176
     1
290
     0
176
     1
 90
       50
176
     1
 62
   256
176
     0
 40
1.0
176
     0
 90
        2
176
     1
  1
strokes_ogs.tif
176
     1
290
     0
176
     1
 40
1.0
176
     1
 40
1.0
176
     1
  0
VISUALSTYLE
  5
2E
102
{ACAD_REACTORS
330
2A
102
}
330
2A
100
AcDbVisualStyle
  2
GouraudWithEdges
 70
     3
177
     3
291
     1
 70
    58
 90
        2
176
     1
 90
        2
176
     1
 90
        1
176
     1
 90
        2
176
     1
 40
0.6
176
     1
 40
30.0
176
     1
 62
     7
420
 16777215
176
     1
 90
        1
176
     1
 90
        0
176
     1
 62
     7
176
     1
 62
   257
176
     1
 90
        1
176
     1
 90
        1
176
     1
 40
1.0
176
     1
 90
        0
176
     1
 62
   257
176
     1
 40
1.0
176
     1
 90
        1
176
     1
 90
        6
176
     1
 90
        2
176
     1
 62
     7
176
     1
 90
        5
176
     1
 90
        0
176
     1
 90
        0
176
     1
290
     0
176
     1
 90
       13
176
     1
 40
0.0
176
     1
 90
        0
176
     1
290
     0
176
     1
290
     1
176
     1
290
     1
176
     1
290
     0
176
     1
290
     0
176
     1
290
     0
176
     1
290
     0
176
     1
290
     0
176
     1
290
     0
176
     1
 90
       50
176
     1
 40
0.0
176
     1
 40
1.0
176
     1
 90
        0
176
     1
 62
    18
420
        0
176
     1
 90
       50
176
     1
 90
        3
176
     1
 62
     5
420
      255
176
     1
290
     0
176
     1
 90
       50
176
     1
 90
       50
176
     1
 90
       50
176
     1
290
     0
176
     1
 90
       50
176
     1
 62
   256
176
     0
 40
1.0
176
     0
 90
        2
176
     1
  1
strokes_ogs.tif
176
     1
290
     0
176
     1
 40
1.0
176
     1
 40
1.0
176
     1
  0
VISUALSTYLE
  5
31
102
{ACAD_REACTORS
330
2A
102
}
330
2A
100
AcDbVisualStyle
  2
Hidden
 70
     6
177
     3
291
     0
 70
    58
 90
        1
176
     1
 90
        2
176
     1
 90
        2
176
     1
 90
        0
176
     1
 40
0.6
176
     1
 40
30.0
176
     1
 62
     7
420
 16777215
176
     1
 90
        2
176
     1
 90
        2
176
     1
 62
     7
176
     1
 62
   257
176
     1
 90
        2
176
     1
 90
        1
176
     1
 40
40.0
176
     1
 90
        0
176
     1
 62
   257
176
     1
 40
1.0
176
     1
 90
        1
176
     1
 90
        6
176
     1
 90
        2
176
     1
 62
     7
176
     1
 90
        3
176
     1
 90
        0
176
     1
 90
        0
176
     1
290
     0
176
     1
 90
        1
176
     1
 40
0.0
176
     1
 90
        0
176
     1
290
     0
176
     1
290
     1
176
     1
290
     1
176
     1
290
     0
176
     1
290
     0
176
     1
290
     0
176
     1
290
     0
176
     1
290
     0
176
     1
290
     0
176
     1
 90
       50
176
     1
 40
0.0
176
     1
 40
1.0
176
     1
 90
        0
176
     1
 62
    18
420
        0
176
     1
 90
       50
176
     1
 90
        3
176
     1
 62
     5
420
      255
176
     1
290
     0
176
     1
 90
       50
176
     1
 90
       50
176
     1
 90
       50
176
     1
290
     0
176
     1
 90
       50
176
     1
 62
   256
176
     0
 40
1.0
176
     0
 90
        2
176
     1
  1
strokes_ogs.tif
176
     1
290
     0
176
     1
 40
1.0
176
     1
 40
1.0
176
     1
  0
VISUALSTYLE
  5
3B
102
{ACAD_REACTORS
330
2A
102
}
330
2A
100
AcDbVisualStyle
  2
JitterOff
 70
    20
177
     3
291
     1
 70
    58
 90
        2
176
     0
 90
        2
176
     0
 90
        0
176
     0
 90
        0
176
     0
 40
0.6
176
     0
 40
30.0
176
     0
 62
     7
420
 16777215
176
     0
 90
        1
176
     0
 90
        4
176
     0
 62
     7
176
     0
 62
   257
176
     0
 90
        1
176
     0
 90
        1
176
     0
 40
1.0
176
     0
 90
       10
176
     2
 62
     7
176
     0
 40
1.0
176
     0
 90
        1
176
     0
 90
        6
176
     0
 90
        2
176
     0
 62
     7
176
     0
 90
        5
176
     0
 90
        0
176
     0
 90
        0
176
     0
290
     0
176
     0
 90
        1
176
     0
 40
0.0
176
     0
 90
        0
176
     0
290
     0
176
     0
290
     1
176
     0
290
     1
176
     0
290
     0
176
     0
290
     0
176
     0
290
     0
176
     0
290
     0
176
     0
290
     0
176
     0
290
     0
176
     0
 90
       50
176
     0
 40
0.0
176
     0
 40
1.0
176
     0
 90
        0
176
     0
 62
    18
420
        0
176
     0
 90
       50
176
     0
 90
        3
176
     0
 62
     5
420
      255
176
     0
290
     0
176
     0
 90
       50
176
     0
 90
       50
176
     0
 90
       50
176
     0
290
     0
176
     0
 90
       50
176
     0
 62
   256
176
     0
 40
1.0
176
     0
 90
        2
176
     0
  1
strokes_ogs.tif
176
     0
290
     0
176
     0
 40
1.0
176
     0
 40
1.0
176
     0
  0
VISUALSTYLE
  5
38
102
{ACAD_REACTORS
330
2A
102
}
330
2A
100
AcDbVisualStyle
  2
Linepattern
 70
    14
177
     3
291
     1
 70
    58
 90
        2
176
     1
 90
        2
176
     1
 90
        0
176
     1
 90
        0
176
     1
 40
0.6
176
     1
 40
30.0
176
     1
 62
     7
420
 16777215
176
     1
 90
        1
176
     1
 90
        4
176
     1
 62
     7
176
     1
 62
   257
176
     1
 90
        7
176
     1
 90
        7
176
     1
 40
1.0
176
     1
 90
        8
176
     1
 62
     7
176
     1
 40
1.0
176
     1
 90
        1
176
     1
 90
        6
176
     1
 90
        2
176
     1
 62
     7
176
     1
 90
        5
176
     1
 90
        0
176
     1
 90
        0
176
     1
290
     0
176
     1
 90
        1
176
     1
 40
0.0
176
     1
 90
        0
176
     1
290
     0
176
     1
290
     1
176
     1
290
     1
176
     1
290
     0
176
     1
290
     0
176
     1
290
     0
176
     1
290
     0
176
     1
290
     0
176
     1
290
     0
176
     1
 90
       50
176
     1
 40
0.0
176
     1
 40
1.0
176
     1
 90
        0
176
     1
 62
    18
420
        0
176
     1
 90
       50
176
     1
 90
        3
176
     1
 62
     5
420
      255
176
     1
290
     0
176
     1
 90
       50
176
     1
 90
       50
176
     1
 90
       50
176
     1
290
     0
176
     1
 90
       50
176
     1
 62
   256
176
     0
 40
1.0
176
     0
 90
        2
176
     1
  1
strokes_ogs.tif
176
     1
290
     0
176
     1
 40
1.0
176
     1
 40
1.0
176
     1
  0
VISUALSTYLE
  5
3C
102
{ACAD_REACTORS
330
2A
102
}
330
2A
100
AcDbVisualStyle
  2
OverhangOff
 70
    21
177
     3
291
     1
 70
    58
 90
        2
176
     0
 90
        2
176
     0
 90
        0
176
     0
 90
        0
176
     0
 40
0.6
176
     0
 40
30.0
176
     0
 62
     7
420
 16777215
176
     0
 90
        1
176
     0
 90
        4
176
     0
 62
     7
176
     0
 62
   257
176
     0
 90
        1
176
     0
 90
        1
176
     0
 40
1.0
176
     0
 90
        9
176
     2
 62
     7
176
     0
 40
1.0
176
     0
 90
        1
176
     0
 90
        6
176
     0
 90
        2
176
     0
 62
     7
176
     0
 90
        5
176
     0
 90
        0
176
     0
 90
        0
176
     0
290
     0
176
     0
 90
        1
176
     0
 40
0.0
176
     0
 90
        0
176
     0
290
     0
176
     0
290
     1
176
     0
290
     1
176
     0
290
     0
176
     0
290
     0
176
     0
290
     0
176
     0
290
     0
176
     0
290
     0
176
     0
290
     0
176
     0
 90
       50
176
     0
 40
0.0
176
     0
 40
1.0
176
     0
 90
        0
176
     0
 62
    18
420
        0
176
     0
 90
       50
176
     0
 90
        3
176
     0
 62
     5
420
      255
176
     0
290
     0
176
     0
 90
       50
176
     0
 90
       50
176
     0
 90
       50
176
     0
290
     0
176
     0
 90
       50
176
     0
 62
   256
176
     0
 40
1.0
176
     0
 90
        2
176
     0
  1
strokes_ogs.tif
176
     0
290
     0
176
     0
 40
1.0
176
     0
 40
1.0
176
     0
  0
VISUALSTYLE
  5
33
102
{ACAD_REACTORS
330
2A
102
}
330
2A
100
AcDbVisualStyle
  2
Realistic
 70
     8
177
     3
291
     0
 70
    58
 90
        2
176
     1
 90
        3
176
     1
 90
        0
176
     1
 90
        2
176
     1
 40
0.6
176
     1
 40
30.0
176
     1
 62
     7
420
 16777215
176
     1
 90
        0
176
     1
 90
        0
176
     1
 62
     7
176
     1
 62
   257
176
     1
 90
        1
176
     1
 90
        1
176
     1
 40
1.0
176
     1
 90
        8
176
     1
 62
   257
176
     1
 40
1.0
176
     1
 90
        1
176
     1
 90
        6
176
     1
 90
        2
176
     1
 62
     7
176
     1
 90
        3
176
     1
 90
        0
176
     1
 90
        0
176
     1
290
     0
176
     1
 90
       13
176
     1
 40
0.0
176
     1
 90
        0
176
     1
290
     0
176
     1
290
     1
176
     1
290
     1
176
     1
290
     0
176
     1
290
     0
176
     1
290
     0
176
     1
290
     0
176
     1
290
     0
176
     1
290
     0
176
     1
 90
       50
176
     1
 40
0.0
176
     1
 40
1.0
176
     1
 90
        0
176
     1
 62
    18
420
        0
176
     1
 90
       50
176
     1
 90
        3
176
     1
 62
     5
420
      255
176
     1
290
     0
176
     1
 90
       50
176
     1
 90
       50
176
     1
 90
       50
176
     1
290
     0
176
     1
 90
       50
176
     1
 62
   256
176
     0
 40
1.0
176
     0
 90
        2
176
     1
  1
strokes_ogs.tif
176
     1
290
     0
176
     1
 40
1.0
176
     1
 40
1.0
176
     1
  0
VISUALSTYLE
  5
42
102
{ACAD_REACTORS
330
2A
102
}
330
2A
100
AcDbVisualStyle
  2
Shaded
 70
    27
177
     3
291
     0
 70
    58
 90
        2
176
     1
 90
        2
176
     1
 90
        1
176
     1
 90
        2
176
     1
 40
0.6
176
     1
 40
30.0
176
     1
 62
     7
420
 16777215
176
     1
 90
        0
176
     1
 90
        4
176
     1
 62
     7
176
     1
 62
   257
176
     1
 90
        1
176
     1
 90
        1
176
     1
 40
1.0
176
     1
 90
        8
176
     1
 62
   257
176
     1
 40
1.0
176
     1
 90
        1
176
     1
 90
        6
176
     1
 90
        2
176
     1
 62
     8
420
  7895160
176
     1
 90
        3
176
     1
 90
        0
176
     1
 90
        0
176
     1
290
     0
176
     1
 90
        5
176
     1
 40
0.0
176
     1
 90
        0
176
     1
290
     0
176
     1
290
     1
176
     1
290
     1
176
     1
290
     0
176
     1
290
     0
176
     1
290
     0
176
     1
290
     0
176
     1
290
     0
176
     1
290
     0
176
     1
 90
       50
176
     1
 40
0.0
176
     1
 40
1.0
176
     1
 90
        0
176
     1
 62
    18
420
        0
176
     1
 90
       50
176
     1
 90
        3
176
     1
 62
     5
420
      255
176
     1
290
     0
176
     1
 90
       50
176
     1
 90
       50
176
     1
 90
       50
176
     1
290
     0
176
     1
 90
       50
176
     1
 62
   256
176
     0
 40
1.0
176
     0
 90
        2
176
     1
  1
strokes_ogs.tif
176
     1
290
     0
176
     1
 40
1.0
176
     1
 40
1.0
176
     1
  0
VISUALSTYLE
  5
41
102
{ACAD_REACTORS
330
2A
102
}
330
2A
100
AcDbVisualStyle
  2
Shaded with edges
 70
    26
177
     3
291
     0
 70
    58
 90
        2
176
     1
 90
        2
176
     1
 90
        1
176
     1
 90
        2
176
     1
 40
0.6
176
     1
 40
30.0
176
     1
 62
     7
420
 16777215
176
     1
 90
        1
176
     1
 90
       10
176
     1
 62
     7
176
     1
 62
   257
176
     1
 90
        2
176
     1
 90
        1
176
     1
 40
1.0
176
     1
 90
        8
176
     1
 62
   257
176
     1
 40
1.0
176
     1
 90
        1
176
     1
 90
        6
176
     1
 90
        2
176
     1
 62
     7
176
     1
 90
        3
176
     1
 90
        0
176
     1
 90
        0
176
     1
290
     0
176
     1
 90
        5
176
     1
 40
0.0
176
     1
 90
        0
176
     1
290
     0
176
     1
290
     1
176
     1
290
     1
176
     1
290
     0
176
     1
290
     0
176
     1
290
     0
176
     1
290
     0
176
     1
290
     0
176
     1
290
     0
176
     1
 90
       50
176
     1
 40
0.0
176
     1
 40
1.0
176
     1
 90
        0
176
     1
 62
    18
420
        0
176
     1
 90
       50
176
     1
 90
        3
176
     1
 62
     5
420
      255
176
     1
290
     0
176
     1
 90
       50
176
     1
 90
       50
176
     1
 90
       50
176
     1
290
     0
176
     1
 90
       50
176
     1
 62
   256
176
     0
 40
1.0
176
     0
 90
        2
176
     1
  1
strokes_ogs.tif
176
     1
290
     0
176
     1
 40
1.0
176
     1
 40
1.0
176
     1
  0
VISUALSTYLE
  5
3E
102
{ACAD_REACTORS
330
2A
102
}
330
2A
100
AcDbVisualStyle
  2
Shades of Gray
 70
    23
177
     3
291
     0
 70
    58
 90
        2
176
     1
 90
        2
176
     1
 90
        3
176
     1
 90
        0
176
     1
 40
0.6
176
     1
 40
30.0
176
     1
 62
     7
420
 16777215
176
     1
 90
        2
176
     1
 90
        2
176
     1
 62
     7
176
     1
 62
     7
176
     1
 90
        1
176
     1
 90
        1
176
     1
 40
40.0
176
     1
 90
        8
176
     1
 62
     7
176
     1
 40
1.0
176
     1
 90
        1
176
     1
 90
        6
176
     1
 90
        2
176
     1
 62
     7
176
     1
 90
        3
176
     1
 90
        0
176
     1
 90
        0
176
     1
290
     0
176
     1
 90
        1
176
     1
 40
0.0
176
     1
 90
        0
176
     1
290
     0
176
     1
290
     1
176
     1
290
     1
176
     1
290
     0
176
     1
290
     0
176
     1
290
     0
176
     1
290
     0
176
     1
290
     0
176
     1
290
     0
176
     1
 90
       50
176
     1
 40
0.0
176
     1
 40
1.0
176
     1
 90
        0
176
     1
 62
    18
420
        0
176
     1
 90
       50
176
     1
 90
        3
176
     1
 62
     5
420
      255
176
     1
290
     0
176
     1
 90
       50
176
     1
 90
       50
176
     1
 90
       50
176
     1
290
     0
176
     1
 90
       50
176
     1
 62
   256
176
     0
 40
1.0
176
     0
 90
        2
176
     1
  1
strokes_ogs.tif
176
     1
290
     0
176
     1
 40
1.0
176
     1
 40
1.0
176
     1
  0
VISUALSTYLE
  5
3F
102
{ACAD_REACTORS
330
2A
102
}
330
2A
100
AcDbVisualStyle
  2
Sketchy
 70
    24
177
     3
291
     0
 70
    58
 90
        1
176
     1
 90
        2
176
     1
 90
        2
176
     1
 90
        0
176
     1
 40
0.6
176
     1
 40
30.0
176
     1
 62
     7
420
 16777215
176
     1
 90
        2
176
     1
 90
        2
176
     1
 62
     7
176
     1
 62
     7
176
     1
 90
        1
176
     1
 90
        1
176
     1
 40
40.0
176
     1
 90
       11
176
     1
 62
     7
176
     1
 40
1.0
176
     1
 90
        1
176
     1
 90
        6
176
     1
 90
        2
176
     1
 62
     7
176
     1
 90
        6
176
     1
 90
        0
176
     1
 90
        0
176
     1
290
     0
176
     1
 90
        1
176
     1
 40
0.0
176
     1
 90
        0
176
     1
290
     0
176
     1
290
     1
176
     1
290
     1
176
     1
290
     0
176
     1
290
     0
176
     1
290
     0
176
     1
290
     0
176
     1
290
     0
176
     1
290
     0
176
     1
 90
       50
176
     1
 40
0.0
176
     1
 40
1.0
176
     1
 90
        0
176
     1
 62
    18
420
        0
176
     1
 90
       50
176
     1
 90
        3
176
     1
 62
     5
420
      255
176
     1
290
     0
176
     1
 90
       50
176
     1
 90
       50
176
     1
 90
       50
176
     1
290
     0
176
     1
 90
       50
176
     1
 62
   256
176
     0
 40
1.0
176
     0
 90
        2
176
     1
  1
strokes_ogs.tif
176
     1
290
     0
176
     1
 40
1.0
176
     1
 40
1.0
176
     1
  0
VISUALSTYLE
  5
37
102
{ACAD_REACTORS
330
2A
102
}
330
2A
100
AcDbVisualStyle
  2
Thicken
 70
    13
177
     3
291
     1
 70
    58
 90
        2
176
     1
 90
        2
176
     1
 90
        0
176
     1
 90
        0
176
     1
 40
0.6
176
     1
 40
30.0
176
     1
 62
     7
420
 16777215
176
     1
 90
        1
176
     1
 90
        4
176
     1
 62
     7
176
     1
 62
   257
176
     1
 90
        1
176
     1
 90
        1
176
     1
 40
1.0
176
     1
 90
       12
176
     1
 62
     7
176
     1
 40
1.0
176
     1
 90
        1
176
     1
 90
        6
176
     1
 90
        2
176
     1
 62
     7
176
     1
 90
        5
176
     1
 90
        0
176
     1
 90
        0
176
     1
290
     0
176
     1
 90
        1
176
     1
 40
0.0
176
     1
 90
        0
176
     1
290
     0
176
     1
290
     1
176
     1
290
     1
176
     1
290
     0
176
     1
290
     0
176
     1
290
     0
176
     1
290
     0
176
     1
290
     0
176
     1
290
     0
176
     1
 90
       50
176
     1
 40
0.0
176
     1
 40
1.0
176
     1
 90
        0
176
     1
 62
    18
420
        0
176
     1
 90
       50
176
     1
 90
        3
176
     1
 62
     5
420
      255
176
     1
290
     0
176
     1
 90
       50
176
     1
 90
       50
176
     1
 90
       50
176
     1
290
     0
176
     1
 90
       50
176
     1
 62
   256
176
     0
 40
1.0
176
     0
 90
        2
176
     1
  1
strokes_ogs.tif
176
     1
290
     0
176
     1
 40
1.0
176
     1
 40
1.0
176
     1
  0
VISUALSTYLE
  5
30
102
{ACAD_REACTORS
330
2A
102
}
330
2A
100
AcDbVisualStyle
  2
Wireframe
 70
     5
177
     3
291
     0
 70
    58
 90
        0
176
     1
 90
        2
176
     1
 90
        0
176
     1
 90
        0
176
     1
 40
0.6
176
     1
 40
30.0
176
     1
 62
     7
420
 16777215
176
     1
 90
        1
176
     1
 90
        4
176
     1
 62
     7
176
     1
 62
   257
176
     1
 90
        1
176
     1
 90
        1
176
     1
 40
1.0
176
     1
 90
        0
176
     1
 62
   257
176
     1
 40
1.0
176
     1
 90
        1
176
     1
 90
        6
176
     1
 90
        2
176
     1
 62
     7
176
     1
 90
        3
176
     1
 90
        0
176
     1
 90
        0
176
     1
290
     0
176
     1
 90
        1
176
     1
 40
0.0
176
     1
 90
        0
176
     1
290
     0
176
     1
290
     1
176
     1
290
     1
176
     1
290
     0
176
     1
290
     0
176
     1
290
     0
176
     1
290
     0
176
     1
290
     0
176
     1
290
     0
176
     1
 90
       50
176
     1
 40
0.0
176
     1
 40
1.0
176
     1
 90
        0
176
     1
 62
    18
420
        0
176
     1
 90
       50
176
     1
 90
        3
176
     1
 62
     5
420
      255
176
     1
290
     0
176
     1
 90
       50
176
     1
 90
       50
176
     1
 90
       50
176
     1
290
     0
176
     1
 90
       50
176
     1
 62
   256
176
     0
 40
1.0
176
     0
 90
        2
176
     1
  1
strokes_ogs.tif
176
     1
290
     0
176
     1
 40
1.0
176
     1
 40
1.0
176
     1
  0
VISUALSTYLE
  5
40
102
{ACAD_REACTORS
330
2A
102
}
330
2A
100
AcDbVisualStyle
  2
X-Ray
 70
    25
177
     3
291
     0
 70
    58
 90
        2
176
     1
 90
        2
176
     1
 90
        1
176
     1
 90
        1
176
     1
 40
0.5
176
     1
 40
30.0
176
     1
 62
     7
420
 16777215
176
     1
 90
        1
176
     1
 90
        0
176
     1
 62
     7
176
     1
 62
   257
176
     1
 90
        1
176
     1
 90
        1
176
     1
 40
1.0
176
     1
 90
        8
176
     1
 62
     7
176
     1
 40
1.0
176
     1
 90
        1
176
     1
 90
        6
176
     1
 90
        2
176
     1
 62
     7
176
     1
 90
        3
176
     1
 90
        0
176
     1
 90
        0
176
     1
290
     0
176
     1
 90
       13
176
     1
 40
0.0
176
     1
 90
        0
176
     1
290
     0
176
     1
290
     1
176
     1
290
     1
176
     1
290
     0
176
     1
290
     0
176
     1
290
     0
176
     1
290
     0
176
     1
290
     0
176
     1
290
     0
176
     1
 90
       50
176
     1
 40
0.0
176
     1
 40
1.0
176
     1
 90
        0
176
     1
 62
    18
420
        0
176
     1
 90
       50
176
     1
 90
        3
176
     1
 62
     5
420
      255
176
     1
290
     0
176
     1
 90
       50
176
     1
 90
       50
176
     1
 90
       50
176
     1
290
     0
176
     1
 90
       50
176
     1
 62
   256
176
     0
 40
1.0
176
     0
 90
        2
176
     1
  1
strokes_ogs.tif
176
     1
290
     0
176
     1
 40
1.0
176
     1
 40
1.0
176
     1
  0
DICTIONARYVAR
  5
BE
102
{ACAD_REACTORS
330
BD
102
}
330
BD
100
DictionaryVariables
280
     0
  1
1:1
  0
DICTIONARYVAR
  5
C3
102
{ACAD_REACTORS
330
BD
102
}
330
BD
100
DictionaryVariables
280
     0
  1
Standard
  0
DICTIONARYVAR
  5
C2
102
{ACAD_REACTORS
330
BD
102
}
330
BD
100
DictionaryVariables
280
     0
  1
Standard
  0
DICTIONARY
  5
BF
330
5A
100
AcDbDictionary
280
     1
281
     1
  3
ACAD_ROUNDTRIP_2008_TABLESTYLE_CELLSTYLEMAP
360
C0
  0
CELLSTYLEMAP
  5
C0
102
{ACAD_REACTORS
330
BF
102
}
330
BF
100
AcDbCellStyleMap
 90
        3
300
CELLSTYLE
  1
TABLEFORMAT_BEGIN
 90
        5
170
     1
 91
        0
 92
    32768
 62
   257
 93
        1
300
CONTENTFORMAT
  1
CONTENTFORMAT_BEGIN
 90
        0
 91
        0
 92
        4
 93
        0
300

 40
0.0
140
1.0
 94
        5
 62
     0
340
11
144
0.25
309
CONTENTFORMAT_END
171
     1
301
MARGIN
  1
CELLMARGIN_BEGIN
 40
0.06
 40
0.06
 40
0.06
 40
0.06
 40
0.06
 40
0.06
309
CELLMARGIN_END
 94
        6
 95
        1
302
GRIDFORMAT
  1
GRIDFORMAT_BEGIN
 90
        0
 91
        1
 62
     0
 92
       -2
340
14
 93
        0
 40
0.045
309
GRIDFORMAT_END
 95
        2
302
GRIDFORMAT
  1
GRIDFORMAT_BEGIN
 90
        0
 91
        1
 62
     0
 92
       -2
340
14
 93
        0
 40
0.045
309
GRIDFORMAT_END
 95
        4
302
GRIDFORMAT
  1
GRIDFORMAT_BEGIN
 90
        0
 91
        1
 62
     0
 92
       -2
340
14
 93
        0
 40
0.045
309
GRIDFORMAT_END
 95
        8
302
GRIDFORMAT
  1
GRIDFORMAT_BEGIN
 90
        0
 91
        1
 62
     0
 92
       -2
340
14
 93
        0
 40
0.045
309
GRIDFORMAT_END
 95
       16
302
GRIDFORMAT
  1
GRIDFORMAT_BEGIN
 90
        0
 91
        1
 62
     0
 92
       -2
340
14
 93
        0
 40
0.045
309
GRIDFORMAT_END
 95
       32
302
GRIDFORMAT
  1
GRIDFORMAT_BEGIN
 90
        0
 91
        1
 62
     0
 92
       -2
340
14
 93
        0
 40
0.045
309
GRIDFORMAT_END
309
TABLEFORMAT_END
  1
CELLSTYLE_BEGIN
 90
        1
 91
        1
300
_TITLE
309
CELLSTYLE_END
300
CELLSTYLE
  1
TABLEFORMAT_BEGIN
 90
        5
170
     1
 91
        0
 92
        0
 62
   257
 93
        1
300
CONTENTFORMAT
  1
CONTENTFORMAT_BEGIN
 90
        0
 91
        0
 92
        4
 93
        0
300

 40
0.0
140
1.0
 94
        5
 62
     0
340
11
144
0.18
309
CONTENTFORMAT_END
171
     1
301
MARGIN
  1
CELLMARGIN_BEGIN
 40
0.06
 40
0.06
 40
0.06
 40
0.06
 40
0.06
 40
0.06
309
CELLMARGIN_END
 94
        6
 95
        1
302
GRIDFORMAT
  1
GRIDFORMAT_BEGIN
 90
        0
 91
        1
 62
     0
 92
       -2
340
14
 93
        0
 40
0.045
309
GRIDFORMAT_END
 95
        2
302
GRIDFORMAT
  1
GRIDFORMAT_BEGIN
 90
        0
 91
        1
 62
     0
 92
       -2
340
14
 93
        0
 40
0.045
309
GRIDFORMAT_END
 95
        4
302
GRIDFORMAT
  1
GRIDFORMAT_BEGIN
 90
        0
 91
        1
 62
     0
 92
       -2
340
14
 93
        0
 40
0.045
309
GRIDFORMAT_END
 95
        8
302
GRIDFORMAT
  1
GRIDFORMAT_BEGIN
 90
        0
 91
        1
 62
     0
 92
       -2
340
14
 93
        0
 40
0.045
309
GRIDFORMAT_END
 95
       16
302
GRIDFORMAT
  1
GRIDFORMAT_BEGIN
 90
        0
 91
        1
 62
     0
 92
       -2
340
14
 93
        0
 40
0.045
309
GRIDFORMAT_END
 95
       32
302
GRIDFORMAT
  1
GRIDFORMAT_BEGIN
 90
        0
 91
        1
 62
     0
 92
       -2
340
14
 93
        0
 40
0.045
309
GRIDFORMAT_END
309
TABLEFORMAT_END
  1
CELLSTYLE_BEGIN
 90
        2
 91
        1
300
_HEADER
309
CELLSTYLE_END
300
CELLSTYLE
  1
TABLEFORMAT_BEGIN
 90
        5
170
     1
 91
        0
 92
        0
 62
   257
 93
        1
300
CONTENTFORMAT
  1
CONTENTFORMAT_BEGIN
 90
        0
 91
        0
 92
        4
 93
        0
300

 40
0.0
140
1.0
 94
        2
 62
     0
340
11
144
0.18
309
CONTENTFORMAT_END
171
     1
301
MARGIN
  1
CELLMARGIN_BEGIN
 40
0.06
 40
0.06
 40
0.06
 40
0.06
 40
0.06
 40
0.06
309
CELLMARGIN_END
 94
        6
 95
        1
302
GRIDFORMAT
  1
GRIDFORMAT_BEGIN
 90
        0
 91
        1
 62
     0
 92
       -2
340
14
 93
        0
 40
0.045
309
GRIDFORMAT_END
 95
        2
302
GRIDFORMAT
  1
GRIDFORMAT_BEGIN
 90
        0
 91
        1
 62
     0
 92
       -2
340
14
 93
        0
 40
0.045
309
GRIDFORMAT_END
 95
        4
302
GRIDFORMAT
  1
GRIDFORMAT_BEGIN
 90
        0
 91
        1
 62
     0
 92
       -2
340
14
 93
        0
 40
0.045
309
GRIDFORMAT_END
 95
        8
302
GRIDFORMAT
  1
GRIDFORMAT_BEGIN
 90
        0
 91
        1
 62
     0
 92
       -2
340
14
 93
        0
 40
0.045
309
GRIDFORMAT_END
 95
       16
302
GRIDFORMAT
  1
GRIDFORMAT_BEGIN
 90
        0
 91
        1
 62
     0
 92
       -2
340
14
 93
        0
 40
0.045
309
GRIDFORMAT_END
 95
       32
302
GRIDFORMAT
  1
GRIDFORMAT_BEGIN
 90
        0
 91
        1
 62
     0
 92
       -2
340
14
 93
        0
 40
0.045
309
GRIDFORMAT_END
309
TABLEFORMAT_END
  1
CELLSTYLE_BEGIN
 90
        3
 91
        2
300
_DATA
309
CELLSTYLE_END
  0
ENDSEC
  0
EOF
