  0
SECTION
  2
HEADER
  9
$ACADVER
  1
AC1032
  9
$ACADMAINTVER
 90
       55
  9
$DWGCODEPAGE
  3
ANSI_1251
  9
$LASTSAVEDBY
  1
torde
  9
$REQUIREDVERSIONS
160
                 0
  9
$INSBASE
 10
0.0
 20
0.0
 30
0.0
  9
$EXTMIN
 10
-82.56693
 20
-19.96439
 30
0.0
  9
$EXTMAX
 10
41.47301
 20
19.94774
 30
0.0
  9
$LIMMIN
 10
0.0
 20
0.0
  9
$LIMMAX
 10
12.0
 20
9.0
  9
$ORTHOMODE
 70
     0
  9
$REGENMODE
 70
     1
  9
$FILLMODE
 70
     1
  9
$QTEXTMODE
 70
     0
  9
$MIRRTEXT
 70
     1
  9
$LTSCALE
 40
1.0
  9
$ATTMODE
 70
     1
  9
$TEXTSIZE
 40
0.2
  9
$TRACEWID
 40
0.05
  9
$TEXTSTYLE
  7
Standard
  9
$CLAYER
  8
0
  9
$CELTYPE
  6
ByLayer
  9
$CECOLOR
 62
   256
  9
$CELTSCALE
 40
1.0
  9
$DISPSILH
 70
     0
  9
$DIMSCALE
 40
1.0
  9
$DIMASZ
 40
0.18
  9
$DIMEXO
 40
0.0625
  9
$DIMDLI
 40
0.38
  9
$DIMRND
 40
0.0
  9
$DIMDLE
 40
0.0
  9
$DIMEXE
 40
0.18
  9
$DIMTP
 40
0.0
  9
$DIMTM
 40
0.0
  9
$DIMTXT
 40
0.18
  9
$DIMCEN
 40
0.09
  9
$DIMTSZ
 40
0.0
  9
$DIMTOL
 70
     0
  9
$DIMLIM
 70
     0
  9
$DIMTIH
 70
     1
  9
$DIMTOH
 70
     1
  9
$DIMSE1
 70
     0
  9
$DIMSE2
 70
     0
  9
$DIMTAD
 70
     0
  9
$DIMZIN
 70
     0
  9
$DIMBLK
  1

  9
$DIMASO
 70
     1
  9
$DIMSHO
 70
     1
  9
$DIMPOST
  1

  9
$DIMAPOST
  1

  9
$DIMALT
 70
     0
  9
$DIMALTD
 70
     2
  9
$DIMALTF
 40
25.4
  9
$DIMLFAC
 40
1.0
  9
$DIMTOFL
 70
     0
  9
$DIMTVP
 40
0.0
  9
$DIMTIX
 70
     0
  9
$DIMSOXD
 70
     0
  9
$DIMSAH
 70
     0
  9
$DIMBLK1
  1

  9
$DIMBLK2
  1

  9
$DIMSTYLE
  2
Standard
  9
$DIMCLRD
 70
     0
  9
$DIMCLRE
 70
     0
  9
$DIMCLRT
 70
     0
  9
$DIMTFAC
 40
1.0
  9
$DIMGAP
 40
0.09
  9
$DIMJUST
 70
     0
  9
$DIMSD1
 70
     0
  9
$DIMSD2
 70
     0
  9
$DIMTOLJ
 70
     1
  9
$DIMTZIN
 70
     0
  9
$DIMALTZ
 70
     0
  9
$DIMALTTZ
 70
     0
  9
$DIMUPT
 70
     0
  9
$DIMDEC
 70
     4
  9
$DIMTDEC
 70
     4
  9
$DIMALTU
 70
     2
  9
$DIMALTTD
 70
     2
  9
$DIMTXSTY
  7
Standard
  9
$DIMAUNIT
 70
     0
  9
$DIMADEC
 70
     0
  9
$DIMALTRND
 40
0.0
  9
$DIMAZIN
 70
     0
  9
$DIMDSEP
 70
    46
  9
$DIMATFIT
 70
     3
  9
$DIMFRAC
 70
     0
  9
$DIMLDRBLK
  1

  9
$DIMLUNIT
 70
     2
  9
$DIMLWD
 70
    -2
  9
$DIMLWE
 70
    -2
  9
$DIMTMOVE
 70
     0
  9
$DIMFXL
 40
1.0
  9
$DIMFXLON
 70
     0
  9
$DIMJOGANG
 40
0.7853981633974483
  9
$DIMTFILL
 70
     0
  9
$DIMTFILLCLR
 70
     0
  9
$DIMARCSYM
 70
     0
  9
$DIMLTYPE
  6

  9
$DIMLTEX1
  6

  9
$DIMLTEX2
  6

  9
$DIMTXTDIRECTION
 70
     0
  9
$LUNITS
 70
     2
  9
$LUPREC
 70
     4
  9
$SKETCHINC
 40
0.1
  9
$FILLETRAD
 40
0.0
  9
$AUNITS
 70
     0
  9
$AUPREC
 70
     0
  9
$MENU
  1
.
  9
$ELEVATION
 40
0.0
  9
$PELEVATION
 40
0.0
  9
$THICKNESS
 40
0.0
  9
$LIMCHECK
 70
     0
  9
$CHAMFERA
 40
0.0
  9
$CHAMFERB
 40
0.0
  9
$CHAMFERC
 40
0.0
  9
$CHAMFERD
 40
0.0
  9
$SKPOLY
 70
     0
  9
$TDCREATE
 40
2461096.634231539
  9
$TDUCREATE
 40
2461096.509231539
  9
$TDUPDATE
 40
2461096.634231539
  9
$TDUUPDATE
 40
2461096.509231539
  9
$TDINDWG
 40
0.0000000116
  9
$TDUSRTIMER
 40
0.0000000116
  9
$USRTIMER
 70
     1
  9
$ANGBASE
 50
0.0
  9
$ANGDIR
 70
     0
  9
$PDMODE
 70
     0
  9
$PDSIZE
 40
0.0
  9
$PLINEWID
 40
0.0
  9
$SPLFRAME
 70
     0
  9
$SPLINETYPE
 70
     6
  9
$SPLINESEGS
 70
     8
  9
$HANDSEED
  5
9B
  9
$SURFTAB1
 70
     6
  9
$SURFTAB2
 70
     6
  9
$SURFTYPE
 70
     6
  9
$SURFU
 70
     6
  9
$SURFV
 70
     6
  9
$UCSBASE
  2

  9
$UCSNAME
  2

  9
$UCSORG
 10
0.0
 20
0.0
 30
0.0
  9
$UCSXDIR
 10
1.0
 20
0.0
 30
0.0
  9
$UCSYDIR
 10
0.0
 20
1.0
 30
0.0
  9
$UCSORTHOREF
  2

  9
$UCSORTHOVIEW
 70
     0
  9
$UCSORGTOP
 10
0.0
 20
0.0
 30
0.0
  9
$UCSORGBOTTOM
 10
0.0
 20
0.0
 30
0.0
  9
$UCSORGLEFT
 10
0.0
 20
0.0
 30
0.0
  9
$UCSORGRIGHT
 10
0.0
 20
0.0
 30
0.0
  9
$UCSORGFRONT
 10
0.0
 20
0.0
 30
0.0
  9
$UCSORGBACK
 10
0.0
 20
0.0
 30
0.0
  9
$PUCSBASE
  2

  9
$PUCSNAME
  2

  9
$PUCSORG
 10
0.0
 20
0.0
 30
0.0
  9
$PUCSXDIR
 10
1.0
 20
0.0
 30
0.0
  9
$PUCSYDIR
 10
0.0
 20
1.0
 30
0.0
  9
$PUCSORTHOREF
  2

  9
$PUCSORTHOVIEW
 70
     0
  9
$PUCSORGTOP
 10
0.0
 20
0.0
 30
0.0
  9
$PUCSORGBOTTOM
 10
0.0
 20
0.0
 30
0.0
  9
$PUCSORGLEFT
 10
0.0
 20
0.0
 30
0.0
  9
$PUCSORGRIGHT
 10
0.0
 20
0.0
 30
0.0
  9
$PUCSORGFRONT
 10
0.0
 20
0.0
 30
0.0
  9
$PUCSORGBACK
 10
0.0
 20
0.0
 30
0.0
  9
$USERI1
 70
     0
  9
$USERI2
 70
     0
  9
$USERI3
 70
     0
  9
$USERI4
 70
     0
  9
$USERI5
 70
     0
  9
$USERR1
 40
0.0
  9
$USERR2
 40
0.0
  9
$USERR3
 40
0.0
  9
$USERR4
 40
0.0
  9
$USERR5
 40
0.0
  9
$WORLDVIEW
 70
     1
  9
$SHADEDGE
 70
     3
  9
$SHADEDIF
 70
    70
  9
$TILEMODE
 70
     1
  9
$MAXACTVP
 70
    64
  9
$PINSBASE
 10
0.0
 20
0.0
 30
0.0
  9
$PLIMCHECK
 70
     0
  9
$PEXTMIN
 10
1.000000000000000E+20
 20
1.000000000000000E+20
 30
1.000000000000000E+20
  9
$PEXTMAX
 10
-1.000000000000000E+20
 20
-1.000000000000000E+20
 30
-1.000000000000000E+20
  9
$PLIMMIN
 10
0.0
 20
0.0
  9
$PLIMMAX
 10
12.0
 20
9.0
  9
$UNITMODE
 70
     0
  9
$VISRETAIN
 70
     1
  9
$PLINEGEN
 70
     0
  9
$PSLTSCALE
 70
     1
  9
$TREEDEPTH
 70
  3020
  9
$CMLSTYLE
  2
Standard
  9
$CMLJUST
 70
     0
  9
$CMLSCALE
 40
1.0
  9
$PROXYGRAPHICS
 70
     1
  9
$MEASUREMENT
 70
     0
  9
$CELWEIGHT
370
    -1
  9
$ENDCAPS
280
     0
  9
$JOINSTYLE
280
     0
  9
$LWDISPLAY
290
     0
  9
$INSUNITS
 70
     5
  9
$HYPERLINKBASE
  1

  9
$STYLESHEET
  1

  9
$XEDIT
290
     1
  9
$CEPSNTYPE
380
     0
  9
$PSTYLEMODE
290
     1
  9
$FINGERPRINTGUID
  2
{1e078404-5cad-45d3-9709-4e9ee961205c}
  9
$VERSIONGUID
  2
{FAEB1C32-E019-11D5-929B-00C0DF256EC4}
  9
$EXTNAMES
290
     1
  9
$PSVPSCALE
 40
0.0
  9
$OLESTARTUP
290
     0
  9
$SORTENTS
280
   127
  9
$INDEXCTL
280
     0
  9
$HIDETEXT
280
     1
  9
$XCLIPFRAME
280
     2
  9
$HALOGAP
280
     0
  9
$OBSCOLOR
 70
   257
  9
$OBSLTYPE
280
     0
  9
$INTERSECTIONDISPLAY
280
     0
  9
$INTERSECTIONCOLOR
 70
   257
  9
$DIMASSOC
280
     2
  9
$PROJECTNAME
  1

  9
$CAMERADISPLAY
290
     0
  9
$LENSLENGTH
 40
50.0
  9
$CAMERAHEIGHT
 40
0.0
  9
$STEPSPERSEC
 40
2.0
  9
$STEPSIZE
 40
6.0
  9
$3DDWFPREC
 40
2.0
  9
$PSOLWIDTH
 40
0.25
  9
$PSOLHEIGHT
 40
4.0
  9
$LOFTANG1
 40
1.570796326794897
  9
$LOFTANG2
 40
1.570796326794897
  9
$LOFTMAG1
 40
0.0
  9
$LOFTMAG2
 40
0.0
  9
$LOFTPARAM
 70
     7
  9
$LOFTNORMALS
280
     1
  9
$LATITUDE
 40
37.795
  9
$LONGITUDE
 40
-122.394
  9
$NORTHDIRECTION
 40
0.0
  9
$TIMEZONE
 70
 -8000
  9
$LIGHTGLYPHDISPLAY
280
     1
  9
$TILEMODELIGHTSYNCH
280
     1
  9
$CMATERIAL
347
44
  9
$SOLIDHIST
280
     0
  9
$SHOWHIST
280
     1
  9
$DWFFRAME
280
     2
  9
$DGNFRAME
280
     2
  9
$REALWORLDSCALE
290
     1
  9
$INTERFERECOLOR
 62
   256
  9
$CSHADOW
280
     0
  9
$SHADOWPLANELOCATION
 40
0.0
  0
ENDSEC
  0
SECTION
  2
CLASSES
  0
CLASS
  1
ACDBDICTIONARYWDFLT
  2
AcDbDictionaryWithDefault
  3
ObjectDBX Classes
 90
        0
 91
        3
280
     0
281
     0
  0
CLASS
  1
VISUALSTYLE
  2
AcDbVisualStyle
  3
ObjectDBX Classes
 90
     4095
 91
        3
280
     0
281
     0
  0
CLASS
  1
MATERIAL
  2
AcDbMaterial
  3
ObjectDBX Classes
 90
     1153
 91
        3
280
     0
281
     0
  0
CLASS
  1
SCALE
  2
AcDbScale
  3
ObjectDBX Classes
 90
     1153
 91
        3
280
     0
281
     0
  0
CLASS
  1
TABLESTYLE
  2
AcDbTableStyle
  3
ObjectDBX Classes
 90
     4095
 91
        3
280
     0
281
     0
  0
CLASS
  1
MLEADERSTYLE
  2
AcDbMLeaderStyle
  3
ACDB_MLEADERSTYLE_CLASS
 90
     4095
 91
        3
280
     0
281
     0
  0
CLASS
  1
SUN
  2
AcDbSun
  3
SCENEOE
 90
     1153
 91
        3
280
     0
281
     0
  0
CLASS
  1
DICTIONARYVAR
  2
AcDbDictionaryVar
  3
ObjectDBX Classes
 90
        0
 91
        3
280
     0
281
     0
  0
CLASS
  1
CELLSTYLEMAP
  2
AcDbCellStyleMap
  3
ObjectDBX Classes
 90
     1152
 91
        3
280
     0
281
     0
  0
ENDSEC
  0
SECTION
  2
TABLES
  0
TABLE
  2
VPORT
  5
8
330
0
100
AcDbSymbolTable
 70
     1
  0
VPORT
  5
29
330
8
100
AcDbSymbolTableRecord
100
AcDbViewportTableRecord
  2
*Active
 70
     0
 10
0.0
 20
0.0
 11
1.0
 21
1.0
 12
10.42990654205607
 22
4.5
 13
0.0
 23
0.0
 14
0.5
 24
0.5
 15
0.5
 25
0.5
 16
0.0
 26
0.0
 36
1.0
 17
0.0
 27
0.0
 37
0.0
 40
9.0
 41
1.972972972850329
 42
50.0
 43
0.0
 44
0.0
 50
0.0
 51
0.0
 71
     0
 72
   100
 73
     1
 74
     3
 75
     0
 76
     0
 77
     0
 78
     0
281
     0
 65
     1
110
0.0
120
0.0
130
0.0
111
1.0
121
0.0
131
0.0
112
0.0
122
1.0
132
0.0
 79
     0
146
0.0
348
2F
 60
     3
 61
     5
292
     1
282
     1
141
0.0
142
0.0
 63
   250
361
5D
  0
ENDTAB
  0
TABLE
  2
LTYPE
  5
5
330
0
100
AcDbSymbolTable
 70
     1
  0
LTYPE
  5
14
330
5
100
AcDbSymbolTableRecord
100
AcDbLinetypeTableRecord
  2
ByBlock
 70
     0
  3

 72
    65
 73
     0
 40
0.0
  0
LTYPE
  5
15
330
5
100
AcDbSymbolTableRecord
100
AcDbLinetypeTableRecord
  2
ByLayer
 70
     0
  3

 72
    65
 73
     0
 40
0.0
  0
LTYPE
  5
16
330
5
100
AcDbSymbolTableRecord
100
AcDbLinetypeTableRecord
  2
Continuous
 70
     0
  3
Solid line
 72
    65
 73
     0
 40
0.0
  0
ENDTAB
  0
TABLE
  2
LAYER
  5
2
330
0
100
AcDbSymbolTable
 70
     2
  0
LAYER
  5
10
330
2
100
AcDbSymbolTableRecord
100
AcDbLayerTableRecord
  2
0
 70
     0
 62
     7
  6
Continuous
370
    -3
390
F
347
46
348
0
  0
LAYER
  5
5F
330
2
100
AcDbSymbolTableRecord
100
AcDbLayerTableRecord
  2
Layer 1
 70
     0
 62
     7
  6
Continuous
370
    -3
390
F
347
46
348
0
  0
ENDTAB
  0
TABLE
  2
STYLE
  5
3
330
0
100
AcDbSymbolTable
 70
     1
  0
STYLE
  5
11
330
3
100
AcDbSymbolTableRecord
100
AcDbTextStyleTableRecord
  2
Standard
 70
     0
 40
0.0
 41
1.0
 50
0.0
 71
     0
 42
0.2
  3
txt
  4

  0
ENDTAB
  0
TABLE
  2
VIEW
  5
6
330
0
100
AcDbSymbolTable
 70
     0
  0
ENDTAB
  0
TABLE
  2
UCS
  5
7
330
0
100
AcDbSymbolTable
 70
     0
  0
ENDTAB
  0
TABLE
  2
APPID
  5
9
330
0
100
AcDbSymbolTable
 70
     2
  0
APPID
  5
12
330
9
100
AcDbSymbolTableRecord
100
AcDbRegAppTableRecord
  2
ACAD
 70
     0
  0
APPID
  5
5E
330
9
100
AcDbSymbolTableRecord
100
AcDbRegAppTableRecord
  2
ODA
 70
     0
  0
ENDTAB
  0
TABLE
  2
DIMSTYLE
  5
A
330
0
100
AcDbSymbolTable
 70
     1
100
AcDbDimStyleTable
  0
DIMSTYLE
105
27
330
A
100
AcDbSymbolTableRecord
100
AcDbDimStyleTableRecord
  2
Standard
 70
     0
178
     0
340
11
  0
ENDTAB
  0
TABLE
  2
BLOCK_RECORD
  5
1
330
0
100
AcDbSymbolTable
 70
     1
  0
BLOCK_RECORD
  5
1F
330
1
100
AcDbSymbolTableRecord
100
AcDbBlockTableRecord
  2
*Model_Space
340
22
 70
     0
280
     1
281
     0
  0
BLOCK_RECORD
  5
1B
330
1
100
AcDbSymbolTableRecord
100
AcDbBlockTableRecord
  2
*Paper_Space
340
1E
 70
     0
280
     1
281
     0
  0
BLOCK_RECORD
  5
23
330
1
100
AcDbSymbolTableRecord
100
AcDbBlockTableRecord
  2
*Paper_Space0
340
26
 70
     0
280
     1
281
     0
  0
ENDTAB
  0
ENDSEC
  0
SECTION
  2
BLOCKS
  0
BLOCK
  5
20
330
1F
100
AcDbEntity
  8
0
100
AcDbBlockBegin
  2
*Model_Space
 70
     0
 10
0.0
 20
0.0
 30
0.0
  3
*Model_Space
  1

  0
ENDBLK
  5
21
330
1F
100
AcDbEntity
  8
0
100
AcDbBlockEnd
  0
BLOCK
  5
1C
330
1B
100
AcDbEntity
 67
     1
  8
0
100
AcDbBlockBegin
  2
*Paper_Space
 70
     0
 10
0.0
 20
0.0
 30
0.0
  3
*Paper_Space
  1

  0
ENDBLK
  5
1D
330
1B
100
AcDbEntity
 67
     1
  8
0
100
AcDbBlockEnd
  0
BLOCK
  5
24
330
23
100
AcDbEntity
  8
0
100
AcDbBlockBegin
  2
*Paper_Space0
 70
     0
 10
0.0
 20
0.0
 30
0.0
  3
*Paper_Space0
  1

  0
ENDBLK
  5
25
330
23
100
AcDbEntity
  8
0
100
AcDbBlockEnd
  0
ENDSEC
  0
SECTION
  2
ENTITIES
  0
SPLINE
  5
60
330
1F
100
AcDbEntity
  8
Layer 1
370
    30
100
AcDbSpline
210
0.0
220
0.0
230
1.0
 70
    11
 71
     3
 72
    65
 73
    61
 74
     0
 42
0.0000000001
 43
0.0000000001
 40
0.0
 40
0.0
 40
0.0
 40
0.0
 40
0.05
 40
0.05
 40
0.05
 40
0.1
 40
0.1
 40
0.1
 40
0.15
 40
0.15
 40
0.15
 40
0.2
 40
0.2
 40
0.2
 40
0.25
 40
0.25
 40
0.25
 40
0.3
 40
0.3
 40
0.3
 40
0.35
 40
0.35
 40
0.35
 40
0.4
 40
0.4
 40
0.4
 40
0.45
 40
0.45
 40
0.45
 40
0.5
 40
0.5
 40
0.5
 40
0.55
 40
0.55
 40
0.55
 40
0.6000000000000001
 40
0.6000000000000001
 40
0.6000000000000001
 40
0.65
 40
0.65
 40
0.65
 40
0.7000000000000001
 40
0.7000000000000001
 40
0.7000000000000001
 40
0.75
 40
0.75
 40
0.75
 40
0.8
 40
0.8
 40
0.8
 40
0.8500000000000001
 40
0.8500000000000001
 40
0.8500000000000001
 40
0.9
 40
0.9
 40
0.9
 40
0.9500000000000001
 40
0.9500000000000001
 40
0.9500000000000001
 40
1.0
 40
1.0
 40
1.0
 40
1.0
 10
-54.24953
 20
18.2048
 30
0.0
 10
-55.40396
 20
18.09829
 30
0.0
 10
-56.46858
 20
17.59147
 30
0.0
 10
-57.26355
 20
16.7699
 30
0.0
 10
-57.95175
 20
16.05867
 30
0.0
 10
-58.35336
 20
15.06097
 30
0.0
 10
-58.53034
 20
13.62295
 30
0.0
 10
-58.6032
 20
13.03079
 30
0.0
 10
-58.65235
 20
11.87123
 30
0.0
 10
-58.63266
 20
11.20887
 30
0.0
 10
-58.62288
 20
10.88025
 30
0.0
 10
-58.542
 20
8.84252
 30
0.0
 10
-58.45292
 20
6.68057
 30
0.0
 10
-58.45292
 20
6.68057
 30
0.0
 10
-58.2909
 20
2.74976
 30
0.0
 10
-58.2909
 20
2.74976
 30
0.0
 10
-58.2909
 20
2.74976
 30
0.0
 10
-58.23524
 20
2.67114
 30
0.0
 10
-58.23524
 20
2.67114
 30
0.0
 10
-58.23524
 20
2.67114
 30
0.0
 10
-58.17961
 20
2.59253
 30
0.0
 10
-58.17961
 20
2.59253
 30
0.0
 10
-58.17961
 20
2.59253
 30
0.0
 10
-54.12641
 20
2.59118
 30
0.0
 10
-54.12641
 20
2.59118
 30
0.0
 10
-49.47475
 20
2.5896
 30
0.0
 10
-48.91041
 20
2.60146
 30
0.0
 10
-47.87199
 20
2.72259
 30
0.0
 10
-46.10083
 20
2.92919
 30
0.0
 10
-45.05196
 20
3.36473
 30
0.0
 10
-44.24517
 20
4.22863
 30
0.0
 10
-43.1107
 20
5.44341
 30
0.0
 10
-42.71347
 20
7.15177
 30
0.0
 10
-43.20533
 20
8.7006
 30
0.0
 10
-43.25894
 20
8.86947
 30
0.0
 10
-43.3869
 20
9.17117
 30
0.0
 10
-43.48967
 20
9.37104
 30
0.0
 10
-44.04064
 20
10.44255
 30
0.0
 10
-44.99693
 20
11.2472
 30
0.0
 10
-46.15532
 20
11.61403
 30
0.0
 10
-46.71576
 20
11.79148
 30
0.0
 10
-46.98359
 20
11.83277
 30
0.0
 10
-47.57324
 20
11.83258
 30
0.0
 10
-48.1296
 20
11.83239
 30
0.0
 10
-48.45544
 20
11.78909
 30
0.0
 10
-48.92482
 20
11.65305
 30
0.0
 10
-49.07151
 20
11.61054
 30
0.0
 10
-49.20088
 20
11.58154
 30
0.0
 10
-49.21236
 20
11.58865
 30
0.0
 10
-49.22384
 20
11.59572
 30
0.0
 10
-49.19909
 20
11.71129
 30
0.0
 10
-49.15743
 20
11.84544
 30
0.0
 10
-48.96004
 20
12.48072
 30
0.0
 10
-48.89761
 20
13.38758
 30
0.0
 10
-49.00541
 20
14.05478
 30
0.0
 10
-49.24415
 20
15.53286
 30
0.0
 10
-50.16535
 20
16.85575
 30
0.0
 10
-51.46771
 20
17.59069
 30
0.0
 10
-52.30591
 20
18.06373
 30
0.0
 10
-53.32937
 20
18.28968
 30
0.0
 10
-54.24953
 20
18.2048
 30
0.0
  0
SPLINE
  5
61
330
1F
100
AcDbEntity
  8
Layer 1
370
    30
100
AcDbSpline
210
0.0
220
0.0
230
1.0
 70
    11
 71
     3
 72
    80
 73
    76
 74
     0
 42
0.0000000001
 43
0.0000000001
 40
0.0
 40
0.0
 40
0.0
 40
0.0
 40
0.04
 40
0.04
 40
0.04
 40
0.08
 40
0.08
 40
0.08
 40
0.12
 40
0.12
 40
0.12
 40
0.16
 40
0.16
 40
0.16
 40
0.2
 40
0.2
 40
0.2
 40
0.24
 40
0.24
 40
0.24
 40
0.28
 40
0.28
 40
0.28
 40
0.32
 40
0.32
 40
0.32
 40
0.36
 40
0.36
 40
0.36
 40
0.4
 40
0.4
 40
0.4
 40
0.44
 40
0.44
 40
0.44
 40
0.48
 40
0.48
 40
0.48
 40
0.52
 40
0.52
 40
0.52
 40
0.56
 40
0.56
 40
0.56
 40
0.6
 40
0.6
 40
0.6
 40
0.64
 40
0.64
 40
0.64
 40
0.68
 40
0.68
 40
0.68
 40
0.72
 40
0.72
 40
0.72
 40
0.76
 40
0.76
 40
0.76
 40
0.8
 40
0.8
 40
0.8
 40
0.84
 40
0.84
 40
0.84
 40
0.88
 40
0.88
 40
0.88
 40
0.92
 40
0.92
 40
0.92
 40
0.96
 40
0.96
 40
0.96
 40
1.0
 40
1.0
 40
1.0
 40
1.0
 10
-52.96987
 20
16.74688
 30
0.0
 10
-52.96016
 20
16.72349
 30
0.0
 10
-52.94541
 20
16.72628
 30
0.0
 10
-52.92506
 20
16.75534
 30
0.0
 10
-52.88786
 20
16.80848
 30
0.0
 10
-52.81406
 20
16.76968
 30
0.0
 10
-52.83726
 20
16.70921
 30
0.0
 10
-52.85519
 20
16.66248
 30
0.0
 10
-52.77909
 20
16.66185
 30
0.0
 10
-52.70497
 20
16.70811
 30
0.0
 10
-52.68226
 20
16.72226
 30
0.0
 10
-52.62214
 20
16.74037
 30
0.0
 10
-52.57132
 20
16.74839
 30
0.0
 10
-52.43874
 20
16.76927
 30
0.0
 10
-52.45402
 20
16.70006
 30
0.0
 10
-52.60695
 20
16.58691
 30
0.0
 10
-52.60695
 20
16.58691
 30
0.0
 10
-52.73352
 20
16.49327
 30
0.0
 10
-52.73352
 20
16.49327
 30
0.0
 10
-52.73352
 20
16.49327
 30
0.0
 10
-52.68167
 20
16.45534
 30
0.0
 10
-52.68167
 20
16.45534
 30
0.0
 10
-52.62906
 20
16.41688
 30
0.0
 10
-52.64742
 20
16.33421
 30
0.0
 10
-52.70119
 20
16.36745
 30
0.0
 10
-52.74667
 20
16.39553
 30
0.0
 10
-52.73619
 20
16.33748
 30
0.0
 10
-52.66648
 20
16.17484
 30
0.0
 10
-52.58632
 20
15.98783
 30
0.0
 10
-52.62742
 20
15.92371
 30
0.0
 10
-52.74311
 20
16.05531
 30
0.0
 10
-52.78695
 20
16.10518
 30
0.0
 10
-52.82349
 20
16.15305
 30
0.0
 10
-52.82431
 20
16.16169
 30
0.0
 10
-52.83066
 20
16.22937
 30
0.0
 10
-52.88475
 20
16.25984
 30
0.0
 10
-52.94311
 20
16.22858
 30
0.0
 10
-52.94311
 20
16.22858
 30
0.0
 10
-53.00654
 20
16.19465
 30
0.0
 10
-53.00654
 20
16.19465
 30
0.0
 10
-53.00654
 20
16.19465
 30
0.0
 10
-53.02214
 20
16.2543
 30
0.0
 10
-53.02214
 20
16.2543
 30
0.0
 10
-53.02214
 20
16.2543
 30
0.0
 10
-53.03777
 20
16.31399
 30
0.0
 10
-53.03777
 20
16.31399
 30
0.0
 10
-53.03777
 20
16.31399
 30
0.0
 10
-53.14355
 20
16.27688
 30
0.0
 10
-53.14355
 20
16.27688
 30
0.0
 10
-53.20173
 20
16.2565
 30
0.0
 10
-53.26827
 20
16.2277
 30
0.0
 10
-53.29138
 20
16.21292
 30
0.0
 10
-53.31604
 20
16.19716
 30
0.0
 10
-53.3472
 20
16.19981
 30
0.0
 10
-53.36673
 20
16.21933
 30
0.0
 10
-53.39984
 20
16.25245
 30
0.0
 10
-53.3888
 20
16.26537
 30
0.0
 10
-53.17377
 20
16.44462
 30
0.0
 10
-53.10538
 20
16.50163
 30
0.0
 10
-53.11852
 20
16.52578
 30
0.0
 10
-53.21003
 20
16.51132
 30
0.0
 10
-53.22302
 20
16.50927
 30
0.0
 10
-53.23361
 20
16.53754
 30
0.0
 10
-53.23361
 20
16.57418
 30
0.0
 10
-53.23361
 20
16.6261
 30
0.0
 10
-53.21924
 20
16.63698
 30
0.0
 10
-53.16824
 20
16.62364
 30
0.0
 10
-53.11623
 20
16.61003
 30
0.0
 10
-53.10745
 20
16.61729
 30
0.0
 10
-53.12531
 20
16.65927
 30
0.0
 10
-53.19717
 20
16.82817
 30
0.0
 10
-53.23223
 20
16.95613
 30
0.0
 10
-53.21446
 20
16.98484
 30
0.0
 10
-53.19566
 20
17.01531
 30
0.0
 10
-53.0038
 20
16.82867
 30
0.0
 10
-52.96987
 20
16.74688
 30
0.0
  0
SPLINE
  5
62
330
1F
100
AcDbEntity
  8
Layer 1
370
    30
100
AcDbSpline
210
0.0
220
0.0
230
1.0
 70
    11
 71
     3
 72
    53
 73
    49
 74
     0
 42
0.0000000001
 43
0.0000000001
 40
0.0
 40
0.0
 40
0.0
 40
0.0
 40
0.0625
 40
0.0625
 40
0.0625
 40
0.125
 40
0.125
 40
0.125
 40
0.1875
 40
0.1875
 40
0.1875
 40
0.25
 40
0.25
 40
0.25
 40
0.3125
 40
0.3125
 40
0.3125
 40
0.375
 40
0.375
 40
0.375
 40
0.4375
 40
0.4375
 40
0.4375
 40
0.5
 40
0.5
 40
0.5
 40
0.5625
 40
0.5625
 40
0.5625
 40
0.625
 40
0.625
 40
0.625
 40
0.6875
 40
0.6875
 40
0.6875
 40
0.75
 40
0.75
 40
0.75
 40
0.8125
 40
0.8125
 40
0.8125
 40
0.875
 40
0.875
 40
0.875
 40
0.9375
 40
0.9375
 40
0.9375
 40
1.0
 40
1.0
 40
1.0
 40
1.0
 10
-55.53018
 20
15.98088
 30
0.0
 10
-55.54383
 20
15.77361
 30
0.0
 10
-55.52717
 20
15.71333
 30
0.0
 10
-55.43154
 20
15.62399
 30
0.0
 10
-55.37783
 20
15.57383
 30
0.0
 10
-55.30707
 20
15.53276
 30
0.0
 10
-55.2743
 20
15.53276
 30
0.0
 10
-55.24154
 20
15.53276
 30
0.0
 10
-55.21264
 20
15.51861
 30
0.0
 10
-55.21003
 20
15.50132
 30
0.0
 10
-55.19474
 20
15.3994
 30
0.0
 10
-55.20261
 20
15.3943
 30
0.0
 10
-55.36185
 20
15.40276
 30
0.0
 10
-55.55937
 20
15.41324
 30
0.0
 10
-55.66811
 20
15.3521
 30
0.0
 10
-55.72327
 20
15.19959
 30
0.0
 10
-55.74735
 20
15.13292
 30
0.0
 10
-55.78289
 20
15.09251
 30
0.0
 10
-55.81739
 20
15.09251
 30
0.0
 10
-55.81739
 20
15.09251
 30
0.0
 10
-55.87283
 20
15.09251
 30
0.0
 10
-55.87283
 20
15.09251
 30
0.0
 10
-55.87283
 20
15.09251
 30
0.0
 10
-55.87009
 20
15.22811
 30
0.0
 10
-55.87009
 20
15.22811
 30
0.0
 10
-55.86704
 20
15.38091
 30
0.0
 10
-55.94738
 20
15.56421
 30
0.0
 10
-56.01745
 20
15.56421
 30
0.0
 10
-56.04295
 20
15.56421
 30
0.0
 10
-56.0638
 20
15.57739
 30
0.0
 10
-56.0638
 20
15.59346
 30
0.0
 10
-56.0638
 20
15.60956
 30
0.0
 10
-56.09562
 20
15.62726
 30
0.0
 10
-56.13455
 20
15.63276
 30
0.0
 10
-56.181
 20
15.63937
 30
0.0
 10
-56.20531
 20
15.66443
 30
0.0
 10
-56.20531
 20
15.70572
 30
0.0
 10
-56.20531
 20
15.74556
 30
0.0
 10
-56.18801
 20
15.76459
 30
0.0
 10
-56.15814
 20
15.75761
 30
0.0
 10
-56.04691
 20
15.73169
 30
0.0
 10
-55.87314
 20
15.75273
 30
0.0
 10
-55.7994
 20
15.80106
 30
0.0
 10
-55.75562
 20
15.82974
 30
0.0
 10
-55.70239
 20
15.90138
 30
0.0
 10
-55.68106
 20
15.96028
 30
0.0
 10
-55.63141
 20
16.09767
 30
0.0
 10
-55.52147
 20
16.11267
 30
0.0
 10
-55.53018
 20
15.98088
 30
0.0
  0
SPLINE
  5
63
330
1F
100
AcDbEntity
  8
Layer 1
370
    30
100
AcDbSpline
210
0.0
220
0.0
230
1.0
 70
    11
 71
     3
 72
    68
 73
    64
 74
     0
 42
0.0000000001
 43
0.0000000001
 40
0.0
 40
0.0
 40
0.0
 40
0.0
 40
0.0476190476190476
 40
0.0476190476190476
 40
0.0476190476190476
 40
0.0952380952380952
 40
0.0952380952380952
 40
0.0952380952380952
 40
0.1428571428571428
 40
0.1428571428571428
 40
0.1428571428571428
 40
0.1904761904761905
 40
0.1904761904761905
 40
0.1904761904761905
 40
0.2380952380952381
 40
0.2380952380952381
 40
0.2380952380952381
 40
0.2857142857142857
 40
0.2857142857142857
 40
0.2857142857142857
 40
0.3333333333333333
 40
0.3333333333333333
 40
0.3333333333333333
 40
0.3809523809523809
 40
0.3809523809523809
 40
0.3809523809523809
 40
0.4285714285714285
 40
0.4285714285714285
 40
0.4285714285714285
 40
0.4761904761904762
 40
0.4761904761904762
 40
0.4761904761904762
 40
0.5238095238095237
 40
0.5238095238095237
 40
0.5238095238095237
 40
0.5714285714285714
 40
0.5714285714285714
 40
0.5714285714285714
 40
0.6190476190476191
 40
0.6190476190476191
 40
0.6190476190476191
 40
0.6666666666666666
 40
0.6666666666666666
 40
0.6666666666666666
 40
0.7142857142857142
 40
0.7142857142857142
 40
0.7142857142857142
 40
0.7619047619047619
 40
0.7619047619047619
 40
0.7619047619047619
 40
0.8095238095238095
 40
0.8095238095238095
 40
0.8095238095238095
 40
0.8571428571428571
 40
0.8571428571428571
 40
0.8571428571428571
 40
0.9047619047619047
 40
0.9047619047619047
 40
0.9047619047619047
 40
0.9523809523809523
 40
0.9523809523809523
 40
0.9523809523809523
 40
1.0
 40
1.0
 40
1.0
 40
1.0
 10
-53.16701
 20
15.7927
 30
0.0
 10
-52.91512
 20
15.66855
 30
0.0
 10
-52.66607
 20
15.41537
 30
0.0
 10
-52.54796
 20
15.16336
 30
0.0
 10
-52.54796
 20
15.16336
 30
0.0
 10
-52.46318
 20
14.98245
 30
0.0
 10
-52.46318
 20
14.98245
 30
0.0
 10
-52.46318
 20
14.98245
 30
0.0
 10
-52.46318
 20
14.62081
 30
0.0
 10
-52.46318
 20
14.62081
 30
0.0
 10
-52.46318
 20
14.62081
 30
0.0
 10
-52.46318
 20
14.25918
 30
0.0
 10
-52.46318
 20
14.25918
 30
0.0
 10
-52.46318
 20
14.25918
 30
0.0
 10
-52.54796
 20
14.07827
 30
0.0
 10
-52.54796
 20
14.07827
 30
0.0
 10
-52.66616
 20
13.82604
 30
0.0
 10
-52.91512
 20
13.57305
 30
0.0
 10
-53.16726
 20
13.44893
 30
0.0
 10
-53.16726
 20
13.44893
 30
0.0
 10
-53.3738
 20
13.34723
 30
0.0
 10
-53.3738
 20
13.34723
 30
0.0
 10
-53.3738
 20
13.34723
 30
0.0
 10
-53.7361
 20
13.34723
 30
0.0
 10
-53.7361
 20
13.34723
 30
0.0
 10
-53.7361
 20
13.34723
 30
0.0
 10
-54.09839
 20
13.34723
 30
0.0
 10
-54.09839
 20
13.34723
 30
0.0
 10
-54.09839
 20
13.34723
 30
0.0
 10
-54.27931
 20
13.43201
 30
0.0
 10
-54.27931
 20
13.43201
 30
0.0
 10
-54.53154
 20
13.55022
 30
0.0
 10
-54.78452
 20
13.79918
 30
0.0
 10
-54.90864
 20
14.05132
 30
0.0
 10
-54.90864
 20
14.05132
 30
0.0
 10
-55.01034
 20
14.25786
 30
0.0
 10
-55.01034
 20
14.25786
 30
0.0
 10
-55.01034
 20
14.25786
 30
0.0
 10
-55.01034
 20
14.62015
 30
0.0
 10
-55.01034
 20
14.62015
 30
0.0
 10
-55.01034
 20
14.62015
 30
0.0
 10
-55.01034
 20
14.98245
 30
0.0
 10
-55.01034
 20
14.98245
 30
0.0
 10
-55.01034
 20
14.98245
 30
0.0
 10
-54.92669
 20
15.16091
 30
0.0
 10
-54.92669
 20
15.16091
 30
0.0
 10
-54.84041
 20
15.34493
 30
0.0
 10
-54.64405
 20
15.58135
 30
0.0
 10
-54.4811
 20
15.69739
 30
0.0
 10
-54.43
 20
15.73377
 30
0.0
 10
-54.30883
 20
15.79682
 30
0.0
 10
-54.21185
 20
15.83748
 30
0.0
 10
-54.21185
 20
15.83748
 30
0.0
 10
-54.0355
 20
15.91141
 30
0.0
 10
-54.0355
 20
15.91141
 30
0.0
 10
-54.0355
 20
15.91141
 30
0.0
 10
-53.70443
 20
15.90289
 30
0.0
 10
-53.70443
 20
15.90289
 30
0.0
 10
-53.70443
 20
15.90289
 30
0.0
 10
-53.37336
 20
15.8944
 30
0.0
 10
-53.37336
 20
15.8944
 30
0.0
 10
-53.37336
 20
15.8944
 30
0.0
 10
-53.16701
 20
15.7927
 30
0.0
 10
-53.16701
 20
15.7927
 30
0.0
  0
SPLINE
  5
64
330
1F
100
AcDbEntity
  8
Layer 1
370
    30
100
AcDbSpline
210
0.0
220
0.0
230
1.0
 70
    11
 71
     3
 72
    32
 73
    28
 74
     0
 42
0.0000000001
 43
0.0000000001
 40
0.0
 40
0.0
 40
0.0
 40
0.0
 40
0.1111111111111111
 40
0.1111111111111111
 40
0.1111111111111111
 40
0.2222222222222222
 40
0.2222222222222222
 40
0.2222222222222222
 40
0.3333333333333333
 40
0.3333333333333333
 40
0.3333333333333333
 40
0.4444444444444444
 40
0.4444444444444444
 40
0.4444444444444444
 40
0.5555555555555556
 40
0.5555555555555556
 40
0.5555555555555556
 40
0.6666666666666666
 40
0.6666666666666666
 40
0.6666666666666666
 40
0.7777777777777777
 40
0.7777777777777777
 40
0.7777777777777777
 40
0.8888888888888888
 40
0.8888888888888888
 40
0.8888888888888888
 40
1.0
 40
1.0
 40
1.0
 40
1.0
 10
-51.2694
 20
14.66327
 30
0.0
 10
-51.24019
 20
14.50754
 30
0.0
 10
-51.10242
 20
14.37616
 30
0.0
 10
-50.94135
 20
14.35041
 30
0.0
 10
-50.77488
 20
14.32377
 30
0.0
 10
-50.77528
 20
14.25742
 30
0.0
 10
-50.94208
 20
14.23072
 30
0.0
 10
-51.09928
 20
14.2056
 30
0.0
 10
-51.24138
 20
14.06736
 30
0.0
 10
-51.27069
 20
13.911
 30
0.0
 10
-51.2973
 20
13.76931
 30
0.0
 10
-51.36566
 20
13.77324
 30
0.0
 10
-51.3928
 20
13.91799
 30
0.0
 10
-51.42198
 20
14.07349
 30
0.0
 10
-51.55421
 20
14.19902
 30
0.0
 10
-51.71796
 20
14.22666
 30
0.0
 10
-51.88805
 20
14.25541
 30
0.0
 10
-51.88965
 20
14.32343
 30
0.0
 10
-51.72085
 20
14.35041
 30
0.0
 10
-51.55978
 20
14.37616
 30
0.0
 10
-51.42201
 20
14.50754
 30
0.0
 10
-51.3928
 20
14.66327
 30
0.0
 10
-51.38098
 20
14.72638
 30
0.0
 10
-51.35321
 20
14.77805
 30
0.0
 10
-51.3311
 20
14.77805
 30
0.0
 10
-51.30899
 20
14.77805
 30
0.0
 10
-51.28123
 20
14.72638
 30
0.0
 10
-51.2694
 20
14.66327
 30
0.0
  0
SPLINE
  5
65
330
1F
100
AcDbEntity
  8
Layer 1
370
    30
100
AcDbSpline
210
0.0
220
0.0
230
1.0
 70
    11
 71
     3
 72
    68
 73
    64
 74
     0
 42
0.0000000001
 43
0.0000000001
 40
0.0
 40
0.0
 40
0.0
 40
0.0
 40
0.0476190476190476
 40
0.0476190476190476
 40
0.0476190476190476
 40
0.0952380952380952
 40
0.0952380952380952
 40
0.0952380952380952
 40
0.1428571428571428
 40
0.1428571428571428
 40
0.1428571428571428
 40
0.1904761904761905
 40
0.1904761904761905
 40
0.1904761904761905
 40
0.2380952380952381
 40
0.2380952380952381
 40
0.2380952380952381
 40
0.2857142857142857
 40
0.2857142857142857
 40
0.2857142857142857
 40
0.3333333333333333
 40
0.3333333333333333
 40
0.3333333333333333
 40
0.3809523809523809
 40
0.3809523809523809
 40
0.3809523809523809
 40
0.4285714285714285
 40
0.4285714285714285
 40
0.4285714285714285
 40
0.4761904761904762
 40
0.4761904761904762
 40
0.4761904761904762
 40
0.5238095238095237
 40
0.5238095238095237
 40
0.5238095238095237
 40
0.5714285714285714
 40
0.5714285714285714
 40
0.5714285714285714
 40
0.6190476190476191
 40
0.6190476190476191
 40
0.6190476190476191
 40
0.6666666666666666
 40
0.6666666666666666
 40
0.6666666666666666
 40
0.7142857142857142
 40
0.7142857142857142
 40
0.7142857142857142
 40
0.7619047619047619
 40
0.7619047619047619
 40
0.7619047619047619
 40
0.8095238095238095
 40
0.8095238095238095
 40
0.8095238095238095
 40
0.8571428571428571
 40
0.8571428571428571
 40
0.8571428571428571
 40
0.9047619047619047
 40
0.9047619047619047
 40
0.9047619047619047
 40
0.9523809523809523
 40
0.9523809523809523
 40
0.9523809523809523
 40
1.0
 40
1.0
 40
1.0
 40
1.0
 10
-56.10871
 20
14.18267
 30
0.0
 10
-56.10871
 20
14.18267
 30
0.0
 10
-56.0876
 20
13.99613
 30
0.0
 10
-56.0876
 20
13.99613
 30
0.0
 10
-56.0876
 20
13.99613
 30
0.0
 10
-56.02996
 20
14.03214
 30
0.0
 10
-56.02996
 20
14.03214
 30
0.0
 10
-55.95676
 20
14.07783
 30
0.0
 10
-55.91622
 20
14.04031
 30
0.0
 10
-55.96946
 20
13.97616
 30
0.0
 10
-56.02172
 20
13.91321
 30
0.0
 10
-56.00622
 20
13.90053
 30
0.0
 10
-55.84264
 20
13.87261
 30
0.0
 10
-55.67584
 20
13.84415
 30
0.0
 10
-55.64735
 20
13.78468
 30
0.0
 10
-55.78698
 20
13.75654
 30
0.0
 10
-55.98352
 20
13.71695
 30
0.0
 10
-55.99528
 20
13.70981
 30
0.0
 10
-55.97735
 20
13.64129
 30
0.0
 10
-55.97735
 20
13.64129
 30
0.0
 10
-55.96025
 20
13.57591
 30
0.0
 10
-55.96025
 20
13.57591
 30
0.0
 10
-55.96025
 20
13.57591
 30
0.0
 10
-56.02361
 20
13.59604
 30
0.0
 10
-56.02361
 20
13.59604
 30
0.0
 10
-56.02361
 20
13.59604
 30
0.0
 10
-56.08694
 20
13.61613
 30
0.0
 10
-56.08694
 20
13.61613
 30
0.0
 10
-56.08694
 20
13.61613
 30
0.0
 10
-56.10861
 20
13.42462
 30
0.0
 10
-56.10861
 20
13.42462
 30
0.0
 10
-56.13235
 20
13.21478
 30
0.0
 10
-56.19896
 20
13.17726
 30
0.0
 10
-56.2138
 20
13.36538
 30
0.0
 10
-56.22952
 20
13.56459
 30
0.0
 10
-56.24927
 20
13.61377
 30
0.0
 10
-56.30503
 20
13.59239
 30
0.0
 10
-56.34591
 20
13.5767
 30
0.0
 10
-56.3532
 20
13.58673
 30
0.0
 10
-56.33937
 20
13.63959
 30
0.0
 10
-56.32056
 20
13.71148
 30
0.0
 10
-56.33484
 20
13.71953
 30
0.0
 10
-56.54336
 20
13.75472
 30
0.0
 10
-56.7394
 20
13.7878
 30
0.0
 10
-56.69745
 20
13.83594
 30
0.0
 10
-56.43386
 20
13.88041
 30
0.0
 10
-56.43386
 20
13.88041
 30
0.0
 10
-56.31647
 20
13.90019
 30
0.0
 10
-56.31647
 20
13.90019
 30
0.0
 10
-56.31647
 20
13.90019
 30
0.0
 10
-56.35405
 20
13.96034
 30
0.0
 10
-56.35405
 20
13.96034
 30
0.0
 10
-56.39946
 20
14.03308
 30
0.0
 10
-56.36569
 20
14.07814
 30
0.0
 10
-56.30408
 20
14.02701
 30
0.0
 10
-56.24833
 20
13.98072
 30
0.0
 10
-56.22103
 20
14.04066
 30
0.0
 10
-56.22103
 20
14.20934
 30
0.0
 10
-56.22103
 20
14.3256
 30
0.0
 10
-56.20286
 20
14.36924
 30
0.0
 10
-56.15446
 20
14.36924
 30
0.0
 10
-56.14091
 20
14.36924
 30
0.0
 10
-56.12031
 20
14.28528
 30
0.0
 10
-56.10871
 20
14.18267
 30
0.0
  0
SPLINE
  5
66
330
1F
100
AcDbEntity
  8
Layer 1
370
    30
100
AcDbSpline
210
0.0
220
0.0
230
1.0
 70
    11
 71
     3
 72
    23
 73
    19
 74
     0
 42
0.0000000001
 43
0.0000000001
 40
0.0
 40
0.0
 40
0.0
 40
0.0
 40
0.1666666666666667
 40
0.1666666666666667
 40
0.1666666666666667
 40
0.3333333333333333
 40
0.3333333333333333
 40
0.3333333333333333
 40
0.5
 40
0.5
 40
0.5
 40
0.6666666666666666
 40
0.6666666666666666
 40
0.6666666666666666
 40
0.8333333333333333
 40
0.8333333333333333
 40
0.8333333333333333
 40
1.0
 40
1.0
 40
1.0
 40
1.0
 10
-55.62113
 20
3.93143
 30
0.0
 10
-55.55308
 20
3.86338
 30
0.0
 10
-55.52921
 20
3.80967
 30
0.0
 10
-55.52921
 20
3.7246
 30
0.0
 10
-55.52921
 20
3.63954
 30
0.0
 10
-55.55308
 20
3.58583
 30
0.0
 10
-55.62113
 20
3.51778
 30
0.0
 10
-55.68918
 20
3.44973
 30
0.0
 10
-55.74289
 20
3.42586
 30
0.0
 10
-55.82795
 20
3.42586
 30
0.0
 10
-55.98773
 20
3.42586
 30
0.0
 10
-56.12669
 20
3.56482
 30
0.0
 10
-56.12669
 20
3.7246
 30
0.0
 10
-56.12669
 20
3.88438
 30
0.0
 10
-55.98773
 20
4.02334
 30
0.0
 10
-55.82795
 20
4.02334
 30
0.0
 10
-55.74289
 20
4.02334
 30
0.0
 10
-55.68918
 20
3.99948
 30
0.0
 10
-55.62113
 20
3.93143
 30
0.0
  0
SPLINE
  5
67
330
1F
100
AcDbEntity
  8
Layer 1
370
    30
100
AcDbSpline
210
0.0
220
0.0
230
1.0
 70
    11
 71
     3
 72
    20
 73
    16
 74
     0
 42
0.0000000001
 43
0.0000000001
 40
0.0
 40
0.0
 40
0.0
 40
0.0
 40
0.2
 40
0.2
 40
0.2
 40
0.4
 40
0.4
 40
0.4
 40
0.6000000000000001
 40
0.6000000000000001
 40
0.6000000000000001
 40
0.8
 40
0.8
 40
0.8
 40
1.0
 40
1.0
 40
1.0
 40
1.0
 10
-49.36327
 20
3.89998
 30
0.0
 10
-49.16821
 20
3.70492
 30
0.0
 10
-49.31507
 20
3.39441
 30
0.0
 10
-49.60239
 20
3.39441
 30
0.0
 10
-49.72875
 20
3.39441
 30
0.0
 10
-49.86884
 20
3.55149
 30
0.0
 10
-49.86884
 20
3.69316
 30
0.0
 10
-49.86884
 20
3.77822
 30
0.0
 10
-49.84497
 20
3.83193
 30
0.0
 10
-49.77692
 20
3.89998
 30
0.0
 10
-49.70887
 20
3.96803
 30
0.0
 10
-49.65516
 20
3.9919
 30
0.0
 10
-49.5701
 20
3.9919
 30
0.0
 10
-49.48503
 20
3.9919
 30
0.0
 10
-49.43132
 20
3.96803
 30
0.0
 10
-49.36327
 20
3.89998
 30
0.0
  0
SPLINE
  5
68
330
1F
100
AcDbEntity
  8
Layer 1
370
    30
100
AcDbSpline
210
0.0
220
0.0
230
1.0
 70
    11
 71
     3
 72
    77
 73
    73
 74
     0
 42
0.0000000001
 43
0.0000000001
 40
0.0
 40
0.0
 40
0.0
 40
0.0
 40
0.0416666666666667
 40
0.0416666666666667
 40
0.0416666666666667
 40
0.0833333333333333
 40
0.0833333333333333
 40
0.0833333333333333
 40
0.125
 40
0.125
 40
0.125
 40
0.1666666666666667
 40
0.1666666666666667
 40
0.1666666666666667
 40
0.2083333333333333
 40
0.2083333333333333
 40
0.2083333333333333
 40
0.25
 40
0.25
 40
0.25
 40
0.2916666666666666
 40
0.2916666666666666
 40
0.2916666666666666
 40
0.3333333333333333
 40
0.3333333333333333
 40
0.3333333333333333
 40
0.375
 40
0.375
 40
0.375
 40
0.4166666666666666
 40
0.4166666666666666
 40
0.4166666666666666
 40
0.4583333333333333
 40
0.4583333333333333
 40
0.4583333333333333
 40
0.5
 40
0.5
 40
0.5
 40
0.5416666666666666
 40
0.5416666666666666
 40
0.5416666666666666
 40
0.5833333333333333
 40
0.5833333333333333
 40
0.5833333333333333
 40
0.625
 40
0.625
 40
0.625
 40
0.6666666666666666
 40
0.6666666666666666
 40
0.6666666666666666
 40
0.7083333333333333
 40
0.7083333333333333
 40
0.7083333333333333
 40
0.75
 40
0.75
 40
0.75
 40
0.7916666666666666
 40
0.7916666666666666
 40
0.7916666666666666
 40
0.8333333333333333
 40
0.8333333333333333
 40
0.8333333333333333
 40
0.875
 40
0.875
 40
0.875
 40
0.9166666666666666
 40
0.9166666666666666
 40
0.9166666666666666
 40
0.9583333333333333
 40
0.9583333333333333
 40
0.9583333333333333
 40
1.0
 40
1.0
 40
1.0
 40
1.0
 10
-34.75282
 20
18.18626
 30
0.0
 10
-35.90725
 20
18.07976
 30
0.0
 10
-36.97188
 20
17.57292
 30
0.0
 10
-37.76684
 20
16.75136
 30
0.0
 10
-38.3265
 20
16.17296
 30
0.0
 10
-38.70421
 20
15.38723
 30
0.0
 10
-38.90801
 20
14.37732
 30
0.0
 10
-39.02921
 20
13.77685
 30
0.0
 10
-39.07836
 20
13.30868
 30
0.0
 10
-39.11886
 20
12.36956
 30
0.0
 10
-39.11886
 20
12.36956
 30
0.0
 10
-39.15619
 20
11.50477
 30
0.0
 10
-39.15619
 20
11.50477
 30
0.0
 10
-39.15619
 20
11.50477
 30
0.0
 10
-39.02247
 20
8.29722
 30
0.0
 10
-39.02247
 20
8.29722
 30
0.0
 10
-38.94893
 20
6.53307
 30
0.0
 10
-38.8765
 20
4.76419
 30
0.0
 10
-38.8615
 20
4.3664
 30
0.0
 10
-38.8465
 20
3.9686
 30
0.0
 10
-38.82424
 20
3.43344
 30
0.0
 10
-38.81204
 20
3.17718
 30
0.0
 10
-38.81204
 20
3.17718
 30
0.0
 10
-38.78984
 20
2.71126
 30
0.0
 10
-38.78984
 20
2.71126
 30
0.0
 10
-38.78984
 20
2.71126
 30
0.0
 10
-38.72804
 20
2.63268
 30
0.0
 10
-38.72804
 20
2.63268
 30
0.0
 10
-38.72804
 20
2.63268
 30
0.0
 10
-38.66625
 20
2.55413
 30
0.0
 10
-38.66625
 20
2.55413
 30
0.0
 10
-38.66625
 20
2.55413
 30
0.0
 10
-34.62137
 20
2.56274
 30
0.0
 10
-34.62137
 20
2.56274
 30
0.0
 10
-29.95268
 20
2.57268
 30
0.0
 10
-29.39143
 20
2.58523
 30
0.0
 10
-28.39098
 20
2.70211
 30
0.0
 10
-27.16117
 20
2.8458
 30
0.0
 10
-26.2663
 20
3.10385
 30
0.0
 10
-25.59315
 20
3.50897
 30
0.0
 10
-25.36299
 20
3.64747
 30
0.0
 10
-24.96645
 20
3.97659
 30
0.0
 10
-24.74843
 20
4.21004
 30
0.0
 10
-23.61396
 20
5.42482
 30
0.0
 10
-23.21673
 20
7.1332
 30
0.0
 10
-23.70859
 20
8.68204
 30
0.0
 10
-23.76221
 20
8.8509
 30
0.0
 10
-23.89016
 20
9.1526
 30
0.0
 10
-23.99293
 20
9.35247
 30
0.0
 10
-24.5439
 20
10.42399
 30
0.0
 10
-25.5002
 20
11.22864
 30
0.0
 10
-26.65859
 20
11.59547
 30
0.0
 10
-27.21903
 20
11.77291
 30
0.0
 10
-27.48686
 20
11.8142
 30
0.0
 10
-28.07652
 20
11.81402
 30
0.0
 10
-28.63287
 20
11.81384
 30
0.0
 10
-28.95872
 20
11.77053
 30
0.0
 10
-29.42809
 20
11.63449
 30
0.0
 10
-29.57479
 20
11.59197
 30
0.0
 10
-29.70416
 20
11.56298
 30
0.0
 10
-29.71564
 20
11.57009
 30
0.0
 10
-29.72712
 20
11.57717
 30
0.0
 10
-29.70236
 20
11.69273
 30
0.0
 10
-29.6607
 20
11.82688
 30
0.0
 10
-29.46331
 20
12.46217
 30
0.0
 10
-29.40089
 20
13.36902
 30
0.0
 10
-29.50869
 20
14.03622
 30
0.0
 10
-29.74743
 20
15.51431
 30
0.0
 10
-30.66863
 20
16.83721
 30
0.0
 10
-31.97099
 20
17.57214
 30
0.0
 10
-32.80919
 20
18.04519
 30
0.0
 10
-33.83266
 20
18.27114
 30
0.0
 10
-34.75282
 20
18.18626
 30
0.0
  0
SPLINE
  5
69
330
1F
100
AcDbEntity
  8
Layer 1
370
    30
100
AcDbSpline
210
0.0
220
0.0
230
1.0
 70
    11
 71
     3
 72
   269
 73
   265
 74
     0
 42
0.0000000001
 43
0.0000000001
 40
0.0
 40
0.0
 40
0.0
 40
0.0
 40
0.0113636363636364
 40
0.0113636363636364
 40
0.0113636363636364
 40
0.0227272727272727
 40
0.0227272727272727
 40
0.0227272727272727
 40
0.0340909090909091
 40
0.0340909090909091
 40
0.0340909090909091
 40
0.0454545454545455
 40
0.0454545454545455
 40
0.0454545454545455
 40
0.0568181818181818
 40
0.0568181818181818
 40
0.0568181818181818
 40
0.0681818181818182
 40
0.0681818181818182
 40
0.0681818181818182
 40
0.0795454545454545
 40
0.0795454545454545
 40
0.0795454545454545
 40
0.0909090909090909
 40
0.0909090909090909
 40
0.0909090909090909
 40
0.1022727272727273
 40
0.1022727272727273
 40
0.1022727272727273
 40
0.1136363636363636
 40
0.1136363636363636
 40
0.1136363636363636
 40
0.125
 40
0.125
 40
0.125
 40
0.1363636363636364
 40
0.1363636363636364
 40
0.1363636363636364
 40
0.1477272727272727
 40
0.1477272727272727
 40
0.1477272727272727
 40
0.1590909090909091
 40
0.1590909090909091
 40
0.1590909090909091
 40
0.1704545454545455
 40
0.1704545454545455
 40
0.1704545454545455
 40
0.1818181818181818
 40
0.1818181818181818
 40
0.1818181818181818
 40
0.1931818181818182
 40
0.1931818181818182
 40
0.1931818181818182
 40
0.2045454545454546
 40
0.2045454545454546
 40
0.2045454545454546
 40
0.2159090909090909
 40
0.2159090909090909
 40
0.2159090909090909
 40
0.2272727272727273
 40
0.2272727272727273
 40
0.2272727272727273
 40
0.2386363636363636
 40
0.2386363636363636
 40
0.2386363636363636
 40
0.25
 40
0.25
 40
0.25
 40
0.2613636363636364
 40
0.2613636363636364
 40
0.2613636363636364
 40
0.2727272727272727
 40
0.2727272727272727
 40
0.2727272727272727
 40
0.2840909090909091
 40
0.2840909090909091
 40
0.2840909090909091
 40
0.2954545454545455
 40
0.2954545454545455
 40
0.2954545454545455
 40
0.3068181818181818
 40
0.3068181818181818
 40
0.3068181818181818
 40
0.3181818181818182
 40
0.3181818181818182
 40
0.3181818181818182
 40
0.3295454545454545
 40
0.3295454545454545
 40
0.3295454545454545
 40
0.3409090909090909
 40
0.3409090909090909
 40
0.3409090909090909
 40
0.3522727272727273
 40
0.3522727272727273
 40
0.3522727272727273
 40
0.3636363636363636
 40
0.3636363636363636
 40
0.3636363636363636
 40
0.375
 40
0.375
 40
0.375
 40
0.3863636363636364
 40
0.3863636363636364
 40
0.3863636363636364
 40
0.3977272727272728
 40
0.3977272727272728
 40
0.3977272727272728
 40
0.4090909090909091
 40
0.4090909090909091
 40
0.4090909090909091
 40
0.4204545454545455
 40
0.4204545454545455
 40
0.4204545454545455
 40
0.4318181818181818
 40
0.4318181818181818
 40
0.4318181818181818
 40
0.4431818181818182
 40
0.4431818181818182
 40
0.4431818181818182
 40
0.4545454545454546
 40
0.4545454545454546
 40
0.4545454545454546
 40
0.4659090909090909
 40
0.4659090909090909
 40
0.4659090909090909
 40
0.4772727272727273
 40
0.4772727272727273
 40
0.4772727272727273
 40
0.4886363636363636
 40
0.4886363636363636
 40
0.4886363636363636
 40
0.5
 40
0.5
 40
0.5
 40
0.5113636363636364
 40
0.5113636363636364
 40
0.5113636363636364
 40
0.5227272727272727
 40
0.5227272727272727
 40
0.5227272727272727
 40
0.5340909090909091
 40
0.5340909090909091
 40
0.5340909090909091
 40
0.5454545454545454
 40
0.5454545454545454
 40
0.5454545454545454
 40
0.5568181818181819
 40
0.5568181818181819
 40
0.5568181818181819
 40
0.5681818181818182
 40
0.5681818181818182
 40
0.5681818181818182
 40
0.5795454545454546
 40
0.5795454545454546
 40
0.5795454545454546
 40
0.5909090909090909
 40
0.5909090909090909
 40
0.5909090909090909
 40
0.6022727272727273
 40
0.6022727272727273
 40
0.6022727272727273
 40
0.6136363636363636
 40
0.6136363636363636
 40
0.6136363636363636
 40
0.625
 40
0.625
 40
0.625
 40
0.6363636363636364
 40
0.6363636363636364
 40
0.6363636363636364
 40
0.6477272727272727
 40
0.6477272727272727
 40
0.6477272727272727
 40
0.6590909090909091
 40
0.6590909090909091
 40
0.6590909090909091
 40
0.6704545454545455
 40
0.6704545454545455
 40
0.6704545454545455
 40
0.6818181818181819
 40
0.6818181818181819
 40
0.6818181818181819
 40
0.6931818181818182
 40
0.6931818181818182
 40
0.6931818181818182
 40
0.7045454545454546
 40
0.7045454545454546
 40
0.7045454545454546
 40
0.7159090909090909
 40
0.7159090909090909
 40
0.7159090909090909
 40
0.7272727272727273
 40
0.7272727272727273
 40
0.7272727272727273
 40
0.7386363636363636
 40
0.7386363636363636
 40
0.7386363636363636
 40
0.75
 40
0.75
 40
0.75
 40
0.7613636363636364
 40
0.7613636363636364
 40
0.7613636363636364
 40
0.7727272727272727
 40
0.7727272727272727
 40
0.7727272727272727
 40
0.7840909090909091
 40
0.7840909090909091
 40
0.7840909090909091
 40
0.7954545454545455
 40
0.7954545454545455
 40
0.7954545454545455
 40
0.8068181818181819
 40
0.8068181818181819
 40
0.8068181818181819
 40
0.8181818181818182
 40
0.8181818181818182
 40
0.8181818181818182
 40
0.8295454545454546
 40
0.8295454545454546
 40
0.8295454545454546
 40
0.8409090909090909
 40
0.8409090909090909
 40
0.8409090909090909
 40
0.8522727272727273
 40
0.8522727272727273
 40
0.8522727272727273
 40
0.8636363636363636
 40
0.8636363636363636
 40
0.8636363636363636
 40
0.875
 40
0.875
 40
0.875
 40
0.8863636363636364
 40
0.8863636363636364
 40
0.8863636363636364
 40
0.8977272727272727
 40
0.8977272727272727
 40
0.8977272727272727
 40
0.9090909090909092
 40
0.9090909090909092
 40
0.9090909090909092
 40
0.9204545454545455
 40
0.9204545454545455
 40
0.9204545454545455
 40
0.9318181818181819
 40
0.9318181818181819
 40
0.9318181818181819
 40
0.9431818181818182
 40
0.9431818181818182
 40
0.9431818181818182
 40
0.9545454545454546
 40
0.9545454545454546
 40
0.9545454545454546
 40
0.9659090909090909
 40
0.9659090909090909
 40
0.9659090909090909
 40
0.9772727272727273
 40
0.9772727272727273
 40
0.9772727272727273
 40
0.9886363636363636
 40
0.9886363636363636
 40
0.9886363636363636
 40
1.0
 40
1.0
 40
1.0
 40
1.0
 10
-33.51678
 20
17.21588
 30
0.0
 10
-31.94873
 20
16.86164
 30
0.0
 10
-30.76596
 20
15.6984
 30
0.0
 10
-30.40334
 20
14.1539
 30
0.0
 10
-30.20885
 20
13.32537
 30
0.0
 10
-30.28828
 20
12.45704
 30
0.0
 10
-30.6348
 20
11.62424
 30
0.0
 10
-30.80432
 20
11.21685
 30
0.0
 10
-30.82636
 20
11.12024
 30
0.0
 10
-30.78448
 20
10.96851
 30
0.0
 10
-30.73211
 20
10.77886
 30
0.0
 10
-30.62043
 20
10.64446
 30
0.0
 10
-30.44215
 20
10.55646
 30
0.0
 10
-30.44215
 20
10.55646
 30
0.0
 10
-30.2763
 20
10.47465
 30
0.0
 10
-30.2763
 20
10.47465
 30
0.0
 10
-30.2763
 20
10.47465
 30
0.0
 10
-30.03334
 20
10.5772
 30
0.0
 10
-30.03334
 20
10.5772
 30
0.0
 10
-29.40353
 20
10.84295
 30
0.0
 10
-29.02145
 20
10.93367
 30
0.0
 10
-28.37526
 20
10.97084
 30
0.0
 10
-27.55589
 20
11.01794
 30
0.0
 10
-26.7378
 20
10.82336
 30
0.0
 10
-26.09538
 20
10.42855
 30
0.0
 10
-25.20871
 20
9.88361
 30
0.0
 10
-24.62972
 20
9.06068
 30
0.0
 10
-24.40767
 20
8.02993
 30
0.0
 10
-24.32969
 20
7.66791
 30
0.0
 10
-24.33019
 20
6.95385
 30
0.0
 10
-24.40865
 20
6.58979
 30
0.0
 10
-24.57657
 20
5.81086
 30
0.0
 10
-24.95142
 20
5.13876
 30
0.0
 10
-25.51884
 20
4.59926
 30
0.0
 10
-25.98963
 20
4.15162
 30
0.0
 10
-26.50207
 20
3.86397
 30
0.0
 10
-26.64712
 20
3.96593
 30
0.0
 10
-26.66519
 20
3.97863
 30
0.0
 10
-26.72324
 20
4.07394
 30
0.0
 10
-26.77611
 20
4.17772
 30
0.0
 10
-27.02563
 20
4.66756
 30
0.0
 10
-27.43897
 20
5.26463
 30
0.0
 10
-27.71252
 20
5.53042
 30
0.0
 10
-27.98761
 20
5.79772
 30
0.0
 10
-28.38582
 20
6.01734
 30
0.0
 10
-28.59538
 20
6.01734
 30
0.0
 10
-28.72045
 20
6.01734
 30
0.0
 10
-28.98794
 20
5.91212
 30
0.0
 10
-29.13256
 20
5.80602
 30
0.0
 10
-29.13256
 20
5.80602
 30
0.0
 10
-29.22948
 20
5.73492
 30
0.0
 10
-29.22948
 20
5.73492
 30
0.0
 10
-29.22948
 20
5.73492
 30
0.0
 10
-29.35268
 20
5.79338
 30
0.0
 10
-29.35268
 20
5.79338
 30
0.0
 10
-29.58064
 20
5.90152
 30
0.0
 10
-29.69535
 20
5.94903
 30
0.0
 10
-29.8218
 20
5.98766
 30
0.0
 10
-29.89098
 20
6.00876
 30
0.0
 10
-29.97589
 20
6.03728
 30
0.0
 10
-30.01048
 20
6.05099
 30
0.0
 10
-30.15127
 20
6.10683
 30
0.0
 10
-30.31715
 20
6.12152
 30
0.0
 10
-30.79664
 20
6.12052
 30
0.0
 10
-31.30803
 20
6.11945
 30
0.0
 10
-31.55888
 20
6.0964
 30
0.0
 10
-31.61269
 20
6.04558
 30
0.0
 10
-31.6291
 20
6.03005
 30
0.0
 10
-31.67426
 20
6.01734
 30
0.0
 10
-31.71303
 20
6.01734
 30
0.0
 10
-31.7518
 20
6.01734
 30
0.0
 10
-31.79224
 20
6.00319
 30
0.0
 10
-31.80294
 20
5.9859
 30
0.0
 10
-31.81363
 20
5.9686
 30
0.0
 10
-31.85407
 20
5.95445
 30
0.0
 10
-31.89284
 20
5.95445
 30
0.0
 10
-31.93162
 20
5.95445
 30
0.0
 10
-31.97678
 20
5.94294
 30
0.0
 10
-31.99319
 20
5.92889
 30
0.0
 10
-32.00964
 20
5.91483
 30
0.0
 10
-32.14687
 20
5.84933
 30
0.0
 10
-32.29822
 20
5.78331
 30
0.0
 10
-32.44954
 20
5.71731
 30
0.0
 10
-32.57338
 20
5.65143
 30
0.0
 10
-32.57338
 20
5.6369
 30
0.0
 10
-32.57338
 20
5.62237
 30
0.0
 10
-32.59461
 20
5.61866
 30
0.0
 10
-32.62055
 20
5.6286
 30
0.0
 10
-32.64649
 20
5.63857
 30
0.0
 10
-32.66772
 20
5.66643
 30
0.0
 10
-32.66772
 20
5.69052
 30
0.0
 10
-32.66772
 20
5.7146
 30
0.0
 10
-32.64649
 20
5.73433
 30
0.0
 10
-32.62055
 20
5.73432
 30
0.0
 10
-32.59461
 20
5.73433
 30
0.0
 10
-32.57394
 20
5.73788
 30
0.0
 10
-32.57467
 20
5.74218
 30
0.0
 10
-32.57536
 20
5.74649
 30
0.0
 10
-32.60854
 20
5.88325
 30
0.0
 10
-32.64835
 20
6.04605
 30
0.0
 10
-32.64835
 20
6.04605
 30
0.0
 10
-32.72077
 20
6.34203
 30
0.0
 10
-32.72077
 20
6.34203
 30
0.0
 10
-32.72077
 20
6.34203
 30
0.0
 10
-32.78864
 20
6.06178
 30
0.0
 10
-32.78864
 20
6.06178
 30
0.0
 10
-32.86932
 20
5.72844
 30
0.0
 10
-32.86894
 20
5.73432
 30
0.0
 10
-32.80923
 20
5.73432
 30
0.0
 10
-32.78328
 20
5.73432
 30
0.0
 10
-32.76206
 20
5.71309
 30
0.0
 10
-32.76206
 20
5.68715
 30
0.0
 10
-32.76206
 20
5.65571
 30
0.0
 10
-32.79351
 20
5.63998
 30
0.0
 10
-32.8564
 20
5.63998
 30
0.0
 10
-32.8564
 20
5.63998
 30
0.0
 10
-32.95074
 20
5.63998
 30
0.0
 10
-32.95074
 20
5.63998
 30
0.0
 10
-32.95074
 20
5.63998
 30
0.0
 10
-32.95074
 20
6.06451
 30
0.0
 10
-32.95074
 20
6.06451
 30
0.0
 10
-32.95074
 20
6.06451
 30
0.0
 10
-32.95074
 20
6.48905
 30
0.0
 10
-32.95074
 20
6.48905
 30
0.0
 10
-32.95074
 20
6.48905
 30
0.0
 10
-32.89571
 20
6.48919
 30
0.0
 10
-32.89571
 20
6.48919
 30
0.0
 10
-32.85341
 20
6.48933
 30
0.0
 10
-32.86146
 20
6.50599
 30
0.0
 10
-32.93062
 20
6.56134
 30
0.0
 10
-32.93062
 20
6.56134
 30
0.0
 10
-33.02058
 20
6.63332
 30
0.0
 10
-33.02058
 20
6.63332
 30
0.0
 10
-33.02058
 20
6.63332
 30
0.0
 10
-33.00923
 20
6.79706
 30
0.0
 10
-33.00923
 20
6.79706
 30
0.0
 10
-33.00923
 20
6.79706
 30
0.0
 10
-32.9979
 20
6.96077
 30
0.0
 10
-32.9979
 20
6.96077
 30
0.0
 10
-32.9979
 20
6.96077
 30
0.0
 10
-33.09715
 20
6.96077
 30
0.0
 10
-33.09715
 20
6.96077
 30
0.0
 10
-33.09715
 20
6.96077
 30
0.0
 10
-33.19643
 20
6.96074
 30
0.0
 10
-33.19643
 20
6.96074
 30
0.0
 10
-33.19643
 20
6.96074
 30
0.0
 10
-33.17998
 20
6.89785
 30
0.0
 10
-33.17998
 20
6.89785
 30
0.0
 10
-33.17093
 20
6.86325
 30
0.0
 10
-33.17124
 20
6.83495
 30
0.0
 10
-33.18071
 20
6.83495
 30
0.0
 10
-33.19014
 20
6.83495
 30
0.0
 10
-33.27885
 20
6.91986
 30
0.0
 10
-33.37782
 20
7.02363
 30
0.0
 10
-33.47681
 20
7.12741
 30
0.0
 10
-33.57357
 20
7.21231
 30
0.0
 10
-33.59285
 20
7.21232
 30
0.0
 10
-33.61209
 20
7.21231
 30
0.0
 10
-33.79014
 20
7.04958
 30
0.0
 10
-33.98848
 20
6.85067
 30
0.0
 10
-34.21326
 20
6.62527
 30
0.0
 10
-34.32854
 20
6.48905
 30
0.0
 10
-34.29457
 20
6.48904
 30
0.0
 10
-34.26458
 20
6.48904
 30
0.0
 10
-34.24005
 20
6.47067
 30
0.0
 10
-34.24004
 20
6.44822
 30
0.0
 10
-34.24005
 20
6.42577
 30
0.0
 10
-34.19096
 20
6.35854
 30
0.0
 10
-34.13099
 20
6.29885
 30
0.0
 10
-34.00036
 20
6.16882
 30
0.0
 10
-33.99498
 20
6.14313
 30
0.0
 10
-34.09854
 20
6.14313
 30
0.0
 10
-34.09854
 20
6.14313
 30
0.0
 10
-34.17716
 20
6.14313
 30
0.0
 10
-34.17716
 20
6.14313
 30
0.0
 10
-34.17716
 20
6.14313
 30
0.0
 10
-34.17716
 20
5.89155
 30
0.0
 10
-34.17716
 20
5.89155
 30
0.0
 10
-34.17715
 20
5.74479
 30
0.0
 10
-34.19027
 20
5.63998
 30
0.0
 10
-34.2086
 20
5.63999
 30
0.0
 10
-34.22725
 20
5.63998
 30
0.0
 10
-34.24005
 20
5.75529
 30
0.0
 10
-34.24005
 20
5.92301
 30
0.0
 10
-34.24005
 20
6.12573
 30
0.0
 10
-34.2291
 20
6.20602
 30
0.0
 10
-34.20143
 20
6.20603
 30
0.0
 10
-34.18021
 20
6.20603
 30
0.0
 10
-34.2825
 20
6.3263
 30
0.0
 10
-34.42876
 20
6.47335
 30
0.0
 10
-34.42876
 20
6.47335
 30
0.0
 10
-34.69467
 20
6.74064
 30
0.0
 10
-34.69467
 20
6.74064
 30
0.0
 10
-34.69467
 20
6.74064
 30
0.0
 10
-34.9553
 20
6.48137
 30
0.0
 10
-34.9553
 20
6.48137
 30
0.0
 10
-35.09866
 20
6.33876
 30
0.0
 10
-35.20157
 20
6.21731
 30
0.0
 10
-35.18398
 20
6.21144
 30
0.0
 10
-35.16549
 20
6.20526
 30
0.0
 10
-35.152
 20
6.08241
 30
0.0
 10
-35.152
 20
5.9204
 30
0.0
 10
-35.152
 20
5.9204
 30
0.0
 10
-35.152
 20
5.63999
 30
0.0
 10
-35.152
 20
5.63999
 30
0.0
 10
-35.152
 20
5.63999
 30
0.0
 10
-35.32769
 20
5.63998
 30
0.0
 10
-35.32769
 20
5.63998
 30
0.0
 10
-35.32769
 20
5.63998
 30
0.0
 10
-35.50335
 20
5.63998
 30
0.0
 10
-35.50335
 20
5.63998
 30
0.0
 10
-35.50335
 20
5.63998
 30
0.0
 10
-35.71291
 20
5.83653
 30
0.0
 10
-35.71291
 20
5.83653
 30
0.0
 10
-35.82813
 20
5.94461
 30
0.0
 10
-35.92716
 20
6.0437
 30
0.0
 10
-35.93291
 20
6.05666
 30
0.0
 10
-35.9387
 20
6.06964
 30
0.0
 10
-35.95773
 20
6.08024
 30
0.0
 10
-35.97524
 20
6.08023
 30
0.0
 10
-35.99276
 20
6.08024
 30
0.0
 10
-36.05153
 20
6.1119
 30
0.0
 10
-36.10586
 20
6.15058
 30
0.0
 10
-36.10586
 20
6.15058
 30
0.0
 10
-36.20468
 20
6.22095
 30
0.0
 10
-36.20468
 20
6.22095
 30
0.0
 10
-36.20468
 20
6.22095
 30
0.0
 10
-36.45779
 20
6.22133
 30
0.0
 10
-36.45779
 20
6.22133
 30
0.0
 10
-36.45779
 20
6.22133
 30
0.0
 10
-36.71091
 20
6.22174
 30
0.0
 10
-36.71091
 20
6.22174
 30
0.0
 10
-36.71091
 20
6.22174
 30
0.0
 10
-36.89034
 20
6.11303
 30
0.0
 10
-36.89034
 20
6.11303
 30
0.0
 10
-36.98901
 20
6.05326
 30
0.0
 10
-37.13773
 20
5.94005
 30
0.0
 10
-37.22077
 20
5.86146
 30
0.0
 10
-37.44631
 20
5.64813
 30
0.0
 10
-37.84879
 20
5.14247
 30
0.0
 10
-37.97735
 20
4.9109
 30
0.0
 10
-38.01276
 20
4.84719
 30
0.0
 10
-38.08125
 20
4.73398
 30
0.0
 10
-38.12959
 20
4.65932
 30
0.0
 10
-38.12959
 20
4.65932
 30
0.0
 10
-38.21748
 20
4.52363
 30
0.0
 10
-38.21748
 20
4.52363
 30
0.0
 10
-38.21748
 20
4.52363
 30
0.0
 10
-38.24109
 20
4.74376
 30
0.0
 10
-38.24109
 20
4.74376
 30
0.0
 10
-38.25405
 20
4.86483
 30
0.0
 10
-38.316
 20
6.39313
 30
0.0
 10
-38.3787
 20
8.13998
 30
0.0
 10
-38.49474
 20
11.37295
 30
0.0
 10
-38.50084
 20
12.08901
 30
0.0
 10
-38.42003
 20
12.99849
 30
0.0
 10
-38.32229
 20
14.09836
 30
0.0
 10
-38.12002
 20
14.90921
 30
0.0
 10
-37.80112
 20
15.47947
 30
0.0
 10
-37.35506
 20
16.27711
 30
0.0
 10
-36.42864
 20
16.95041
 30
0.0
 10
-35.46096
 20
17.18022
 30
0.0
 10
-34.88263
 20
17.31758
 30
0.0
 10
-34.03565
 20
17.33311
 30
0.0
 10
-33.51678
 20
17.21588
 30
0.0
  0
SPLINE
  5
6A
330
1F
100
AcDbEntity
  8
Layer 1
370
    30
100
AcDbSpline
210
0.0
220
0.0
230
1.0
 70
    11
 71
     3
 72
    35
 73
    31
 74
     0
 42
0.0000000001
 43
0.0000000001
 40
0.0
 40
0.0
 40
0.0
 40
0.0
 40
0.1
 40
0.1
 40
0.1
 40
0.2
 40
0.2
 40
0.2
 40
0.3
 40
0.3
 40
0.3
 40
0.4
 40
0.4
 40
0.4
 40
0.5
 40
0.5
 40
0.5
 40
0.6000000000000001
 40
0.6000000000000001
 40
0.6000000000000001
 40
0.7000000000000001
 40
0.7000000000000001
 40
0.7000000000000001
 40
0.8
 40
0.8
 40
0.8
 40
0.9
 40
0.9
 40
0.9
 40
1.0
 40
1.0
 40
1.0
 40
1.0
 10
-33.14171
 20
6.28039
 30
0.0
 10
-33.14171
 20
6.28039
 30
0.0
 10
-33.07653
 20
6.19753
 30
0.0
 10
-33.07653
 20
6.19753
 30
0.0
 10
-33.07653
 20
6.19753
 30
0.0
 10
-33.07652
 20
5.96593
 30
0.0
 10
-33.07652
 20
5.96593
 30
0.0
 10
-33.07652
 20
5.96593
 30
0.0
 10
-33.07652
 20
5.73432
 30
0.0
 10
-33.07652
 20
5.73432
 30
0.0
 10
-33.07652
 20
5.73432
 30
0.0
 10
-33.29666
 20
5.73432
 30
0.0
 10
-33.29666
 20
5.73432
 30
0.0
 10
-33.29666
 20
5.73432
 30
0.0
 10
-33.51678
 20
5.73432
 30
0.0
 10
-33.51678
 20
5.73432
 30
0.0
 10
-33.51678
 20
5.73432
 30
0.0
 10
-33.51678
 20
5.96593
 30
0.0
 10
-33.51678
 20
5.96593
 30
0.0
 10
-33.51678
 20
5.96593
 30
0.0
 10
-33.51678
 20
6.19753
 30
0.0
 10
-33.51678
 20
6.19753
 30
0.0
 10
-33.51678
 20
6.19753
 30
0.0
 10
-33.45158
 20
6.28039
 30
0.0
 10
-33.45158
 20
6.28039
 30
0.0
 10
-33.40838
 20
6.33533
 30
0.0
 10
-33.35618
 20
6.36325
 30
0.0
 10
-33.29665
 20
6.36326
 30
0.0
 10
-33.23712
 20
6.36326
 30
0.0
 10
-33.18492
 20
6.33533
 30
0.0
 10
-33.14171
 20
6.28039
 30
0.0
  0
SPLINE
  5
6B
330
1F
100
AcDbEntity
  8
Layer 1
370
    30
100
AcDbSpline
210
0.0
220
0.0
230
1.0
 70
    11
 71
     3
 72
    26
 73
    22
 74
     0
 42
0.0000000001
 43
0.0000000001
 40
0.0
 40
0.0
 40
0.0
 40
0.0
 40
0.1428571428571428
 40
0.1428571428571428
 40
0.1428571428571428
 40
0.2857142857142857
 40
0.2857142857142857
 40
0.2857142857142857
 40
0.4285714285714285
 40
0.4285714285714285
 40
0.4285714285714285
 40
0.5714285714285714
 40
0.5714285714285714
 40
0.5714285714285714
 40
0.7142857142857142
 40
0.7142857142857142
 40
0.7142857142857142
 40
0.8571428571428571
 40
0.8571428571428571
 40
0.8571428571428571
 40
1.0
 40
1.0
 40
1.0
 40
1.0
 10
-34.57457
 20
6.14432
 30
0.0
 10
-34.55715
 20
6.1269
 30
0.0
 10
-34.53672
 20
6.0275
 30
0.0
 10
-34.5292
 20
5.92347
 30
0.0
 10
-34.5292
 20
5.92347
 30
0.0
 10
-34.51552
 20
5.73432
 30
0.0
 10
-34.51552
 20
5.73432
 30
0.0
 10
-34.51552
 20
5.73432
 30
0.0
 10
-34.67653
 20
5.73432
 30
0.0
 10
-34.67653
 20
5.73432
 30
0.0
 10
-34.67653
 20
5.73432
 30
0.0
 10
-34.83753
 20
5.73433
 30
0.0
 10
-34.83753
 20
5.73433
 30
0.0
 10
-34.83753
 20
5.73433
 30
0.0
 10
-34.83753
 20
5.91266
 30
0.0
 10
-34.83753
 20
5.91266
 30
0.0
 10
-34.83753
 20
6.03143
 30
0.0
 10
-34.82087
 20
6.10941
 30
0.0
 10
-34.7876
 20
6.14618
 30
0.0
 10
-34.73662
 20
6.2025
 30
0.0
 10
-34.63184
 20
6.20159
 30
0.0
 10
-34.57457
 20
6.14432
 30
0.0
  0
SPLINE
  5
6C
330
1F
100
AcDbEntity
  8
Layer 1
370
    30
100
AcDbSpline
210
0.0
220
0.0
230
1.0
 70
    11
 71
     3
 72
    23
 73
    19
 74
     0
 42
0.0000000001
 43
0.0000000001
 40
0.0
 40
0.0
 40
0.0
 40
0.0
 40
0.1666666666666667
 40
0.1666666666666667
 40
0.1666666666666667
 40
0.3333333333333333
 40
0.3333333333333333
 40
0.3333333333333333
 40
0.5
 40
0.5
 40
0.5
 40
0.6666666666666666
 40
0.6666666666666666
 40
0.6666666666666666
 40
0.8333333333333333
 40
0.8333333333333333
 40
0.8333333333333333
 40
1.0
 40
1.0
 40
1.0
 40
1.0
 10
-36.12442
 20
3.91284
 30
0.0
 10
-36.05637
 20
3.84479
 30
0.0
 10
-36.03251
 20
3.79108
 30
0.0
 10
-36.0325
 20
3.70602
 30
0.0
 10
-36.0325
 20
3.62096
 30
0.0
 10
-36.05637
 20
3.56724
 30
0.0
 10
-36.12443
 20
3.49919
 30
0.0
 10
-36.19248
 20
3.43114
 30
0.0
 10
-36.24618
 20
3.40728
 30
0.0
 10
-36.33125
 20
3.40728
 30
0.0
 10
-36.49103
 20
3.40728
 30
0.0
 10
-36.62999
 20
3.54624
 30
0.0
 10
-36.62999
 20
3.70602
 30
0.0
 10
-36.62999
 20
3.8658
 30
0.0
 10
-36.49103
 20
4.00476
 30
0.0
 10
-36.33125
 20
4.00477
 30
0.0
 10
-36.24619
 20
4.00476
 30
0.0
 10
-36.19247
 20
3.9809
 30
0.0
 10
-36.12442
 20
3.91284
 30
0.0
  0
SPLINE
  5
6D
330
1F
100
AcDbEntity
  8
Layer 1
370
    30
100
AcDbSpline
210
0.0
220
0.0
230
1.0
 70
    11
 71
     3
 72
    20
 73
    16
 74
     0
 42
0.0000000001
 43
0.0000000001
 40
0.0
 40
0.0
 40
0.0
 40
0.0
 40
0.2
 40
0.2
 40
0.2
 40
0.4
 40
0.4
 40
0.4
 40
0.6000000000000001
 40
0.6000000000000001
 40
0.6000000000000001
 40
0.8
 40
0.8
 40
0.8
 40
1.0
 40
1.0
 40
1.0
 40
1.0
 10
-29.86655
 20
3.88139
 30
0.0
 10
-29.67149
 20
3.68633
 30
0.0
 10
-29.81834
 20
3.37582
 30
0.0
 10
-30.10567
 20
3.37583
 30
0.0
 10
-30.23202
 20
3.37583
 30
0.0
 10
-30.37212
 20
3.5329
 30
0.0
 10
-30.37212
 20
3.67458
 30
0.0
 10
-30.37211
 20
3.75963
 30
0.0
 10
-30.34825
 20
3.81335
 30
0.0
 10
-30.2802
 20
3.8814
 30
0.0
 10
-30.21215
 20
3.94945
 30
0.0
 10
-30.15844
 20
3.97331
 30
0.0
 10
-30.07338
 20
3.97331
 30
0.0
 10
-29.98832
 20
3.97331
 30
0.0
 10
-29.9346
 20
3.94944
 30
0.0
 10
-29.86655
 20
3.88139
 30
0.0
  0
SPLINE
  5
6E
330
1F
100
AcDbEntity
  8
Layer 1
 62
    11
370
    30
100
AcDbSpline
210
0.0
220
0.0
230
1.0
 70
    11
 71
     3
 72
    65
 73
    61
 74
     0
 42
0.0000000001
 43
0.0000000001
 40
0.0
 40
0.0
 40
0.0
 40
0.0
 40
0.05
 40
0.05
 40
0.05
 40
0.1
 40
0.1
 40
0.1
 40
0.15
 40
0.15
 40
0.15
 40
0.2
 40
0.2
 40
0.2
 40
0.25
 40
0.25
 40
0.25
 40
0.3
 40
0.3
 40
0.3
 40
0.35
 40
0.35
 40
0.35
 40
0.4
 40
0.4
 40
0.4
 40
0.45
 40
0.45
 40
0.45
 40
0.5
 40
0.5
 40
0.5
 40
0.55
 40
0.55
 40
0.55
 40
0.6000000000000001
 40
0.6000000000000001
 40
0.6000000000000001
 40
0.65
 40
0.65
 40
0.65
 40
0.7000000000000001
 40
0.7000000000000001
 40
0.7000000000000001
 40
0.75
 40
0.75
 40
0.75
 40
0.8
 40
0.8
 40
0.8
 40
0.8500000000000001
 40
0.8500000000000001
 40
0.8500000000000001
 40
0.9
 40
0.9
 40
0.9
 40
0.9500000000000001
 40
0.9500000000000001
 40
0.9500000000000001
 40
1.0
 40
1.0
 40
1.0
 40
1.0
 10
-40.11949
 20
-4.16542
 30
0.0
 10
-41.27392
 20
-4.27193
 30
0.0
 10
-42.33855
 20
-4.77875
 30
0.0
 10
-43.13351
 20
-5.60032
 30
0.0
 10
-43.82172
 20
-6.31155
 30
0.0
 10
-44.22332
 20
-7.30925
 30
0.0
 10
-44.4003
 20
-8.74727
 30
0.0
 10
-44.47317
 20
-9.33944
 30
0.0
 10
-44.52232
 20
-10.499
 30
0.0
 10
-44.50263
 20
-11.16135
 30
0.0
 10
-44.49285
 20
-11.48997
 30
0.0
 10
-44.41197
 20
-13.5277
 30
0.0
 10
-44.32288
 20
-15.68965
 30
0.0
 10
-44.32288
 20
-15.68965
 30
0.0
 10
-44.16087
 20
-19.62046
 30
0.0
 10
-44.16087
 20
-19.62046
 30
0.0
 10
-44.16087
 20
-19.62046
 30
0.0
 10
-44.10521
 20
-19.69908
 30
0.0
 10
-44.10521
 20
-19.69908
 30
0.0
 10
-44.10521
 20
-19.69908
 30
0.0
 10
-44.04958
 20
-19.7777
 30
0.0
 10
-44.04958
 20
-19.7777
 30
0.0
 10
-44.04958
 20
-19.7777
 30
0.0
 10
-39.99638
 20
-19.77905
 30
0.0
 10
-39.99638
 20
-19.77905
 30
0.0
 10
-35.34472
 20
-19.78062
 30
0.0
 10
-34.78038
 20
-19.76877
 30
0.0
 10
-33.74195
 20
-19.64763
 30
0.0
 10
-31.97079
 20
-19.44103
 30
0.0
 10
-30.92193
 20
-19.0055
 30
0.0
 10
-30.11513
 20
-18.1416
 30
0.0
 10
-28.98067
 20
-16.92682
 30
0.0
 10
-28.58344
 20
-15.21846
 30
0.0
 10
-29.07529
 20
-13.66962
 30
0.0
 10
-29.12891
 20
-13.50075
 30
0.0
 10
-29.25686
 20
-13.19906
 30
0.0
 10
-29.35963
 20
-12.99918
 30
0.0
 10
-29.91061
 20
-11.92767
 30
0.0
 10
-30.86689
 20
-11.12302
 30
0.0
 10
-32.02529
 20
-10.7562
 30
0.0
 10
-32.58573
 20
-10.57875
 30
0.0
 10
-32.85356
 20
-10.53746
 30
0.0
 10
-33.44321
 20
-10.53765
 30
0.0
 10
-33.99956
 20
-10.53783
 30
0.0
 10
-34.32541
 20
-10.58114
 30
0.0
 10
-34.79478
 20
-10.71717
 30
0.0
 10
-34.94148
 20
-10.75969
 30
0.0
 10
-35.07085
 20
-10.78868
 30
0.0
 10
-35.08233
 20
-10.78158
 30
0.0
 10
-35.09381
 20
-10.7745
 30
0.0
 10
-35.06906
 20
-10.65893
 30
0.0
 10
-35.02739
 20
-10.52478
 30
0.0
 10
-34.83
 20
-9.8895
 30
0.0
 10
-34.76758
 20
-8.98265
 30
0.0
 10
-34.87538
 20
-8.31545
 30
0.0
 10
-35.11412
 20
-6.83737
 30
0.0
 10
-36.03532
 20
-5.51448
 30
0.0
 10
-37.33767
 20
-4.77954
 30
0.0
 10
-38.17588
 20
-4.30649
 30
0.0
 10
-39.19934
 20
-4.08055
 30
0.0
 10
-40.11949
 20
-4.16542
 30
0.0
  0
SPLINE
  5
6F
330
1F
100
AcDbEntity
  8
Layer 1
 62
    11
370
    30
100
AcDbSpline
210
0.0
220
0.0
230
1.0
 70
    11
 71
     3
 72
    62
 73
    58
 74
     0
 42
0.0000000001
 43
0.0000000001
 40
0.0
 40
0.0
 40
0.0
 40
0.0
 40
0.0526315789473684
 40
0.0526315789473684
 40
0.0526315789473684
 40
0.1052631578947368
 40
0.1052631578947368
 40
0.1052631578947368
 40
0.1578947368421053
 40
0.1578947368421053
 40
0.1578947368421053
 40
0.2105263157894737
 40
0.2105263157894737
 40
0.2105263157894737
 40
0.2631578947368421
 40
0.2631578947368421
 40
0.2631578947368421
 40
0.3157894736842105
 40
0.3157894736842105
 40
0.3157894736842105
 40
0.3684210526315789
 40
0.3684210526315789
 40
0.3684210526315789
 40
0.4210526315789473
 40
0.4210526315789473
 40
0.4210526315789473
 40
0.4736842105263158
 40
0.4736842105263158
 40
0.4736842105263158
 40
0.5263157894736842
 40
0.5263157894736842
 40
0.5263157894736842
 40
0.5789473684210527
 40
0.5789473684210527
 40
0.5789473684210527
 40
0.631578947368421
 40
0.631578947368421
 40
0.631578947368421
 40
0.6842105263157894
 40
0.6842105263157894
 40
0.6842105263157894
 40
0.7368421052631579
 40
0.7368421052631579
 40
0.7368421052631579
 40
0.7894736842105263
 40
0.7894736842105263
 40
0.7894736842105263
 40
0.8421052631578947
 40
0.8421052631578947
 40
0.8421052631578947
 40
0.894736842105263
 40
0.894736842105263
 40
0.894736842105263
 40
0.9473684210526315
 40
0.9473684210526315
 40
0.9473684210526315
 40
1.0
 40
1.0
 40
1.0
 40
1.0
 10
-38.88346
 20
-5.1358
 30
0.0
 10
-37.31541
 20
-5.49004
 30
0.0
 10
-36.13264
 20
-6.65328
 30
0.0
 10
-35.77003
 20
-8.19777
 30
0.0
 10
-35.57554
 20
-9.02629
 30
0.0
 10
-35.65497
 20
-9.89463
 30
0.0
 10
-36.00148
 20
-10.72742
 30
0.0
 10
-36.17101
 20
-11.13481
 30
0.0
 10
-36.19305
 20
-11.23142
 30
0.0
 10
-36.15116
 20
-11.38315
 30
0.0
 10
-36.09881
 20
-11.5728
 30
0.0
 10
-35.98711
 20
-11.7072
 30
0.0
 10
-35.80884
 20
-11.79519
 30
0.0
 10
-35.80884
 20
-11.79519
 30
0.0
 10
-35.64299
 20
-11.87701
 30
0.0
 10
-35.64299
 20
-11.87701
 30
0.0
 10
-35.64299
 20
-11.87701
 30
0.0
 10
-35.40003
 20
-11.77447
 30
0.0
 10
-35.40003
 20
-11.77447
 30
0.0
 10
-34.77022
 20
-11.50871
 30
0.0
 10
-34.38815
 20
-11.41799
 30
0.0
 10
-33.74195
 20
-11.38082
 30
0.0
 10
-32.92258
 20
-11.33371
 30
0.0
 10
-32.1045
 20
-11.5283
 30
0.0
 10
-31.46208
 20
-11.92311
 30
0.0
 10
-30.57542
 20
-12.46805
 30
0.0
 10
-29.99642
 20
-13.29097
 30
0.0
 10
-29.77438
 20
-14.32173
 30
0.0
 10
-29.69639
 20
-14.68374
 30
0.0
 10
-29.6969
 20
-15.3978
 30
0.0
 10
-29.77535
 20
-15.76185
 30
0.0
 10
-30.034
 20
-16.96172
 30
0.0
 10
-30.84856
 20
-17.9865
 30
0.0
 10
-31.89032
 20
-18.4226
 30
0.0
 10
-32.35073
 20
-18.61534
 30
0.0
 10
-32.98925
 20
-18.76688
 30
0.0
 10
-33.7434
 20
-18.86248
 30
0.0
 10
-34.70525
 20
-18.98436
 30
0.0
 10
-35.01529
 20
-18.99153
 30
0.0
 10
-39.32893
 20
-18.99153
 30
0.0
 10
-41.64078
 20
-18.99153
 30
0.0
 10
-43.53955
 20
-18.98427
 30
0.0
 10
-43.54845
 20
-18.97537
 30
0.0
 10
-43.55732
 20
-18.9665
 30
0.0
 10
-43.6248
 20
-17.38867
 30
0.0
 10
-43.69839
 20
-15.46909
 30
0.0
 10
-43.83986
 20
-11.77918
 30
0.0
 10
-43.86553
 20
-10.14912
 30
0.0
 10
-43.79398
 20
-9.40035
 30
0.0
 10
-43.68122
 20
-8.22023
 30
0.0
 10
-43.49005
 20
-7.44844
 30
0.0
 10
-43.16779
 20
-6.87221
 30
0.0
 10
-42.72172
 20
-6.07457
 30
0.0
 10
-41.79531
 20
-5.40127
 30
0.0
 10
-40.82764
 20
-5.17146
 30
0.0
 10
-40.2493
 20
-5.0341
 30
0.0
 10
-39.40232
 20
-5.01856
 30
0.0
 10
-38.88346
 20
-5.1358
 30
0.0
  0
SPLINE
  5
70
330
1F
100
AcDbEntity
  8
Layer 1
 62
    11
370
    30
100
AcDbSpline
210
0.0
220
0.0
230
1.0
 70
    11
 71
     3
 72
    65
 73
    61
 74
     0
 42
0.0000000001
 43
0.0000000001
 40
0.0
 40
0.0
 40
0.0
 40
0.0
 40
0.05
 40
0.05
 40
0.05
 40
0.1
 40
0.1
 40
0.1
 40
0.15
 40
0.15
 40
0.15
 40
0.2
 40
0.2
 40
0.2
 40
0.25
 40
0.25
 40
0.25
 40
0.3
 40
0.3
 40
0.3
 40
0.35
 40
0.35
 40
0.35
 40
0.4
 40
0.4
 40
0.4
 40
0.45
 40
0.45
 40
0.45
 40
0.5
 40
0.5
 40
0.5
 40
0.55
 40
0.55
 40
0.55
 40
0.6000000000000001
 40
0.6000000000000001
 40
0.6000000000000001
 40
0.65
 40
0.65
 40
0.65
 40
0.7000000000000001
 40
0.7000000000000001
 40
0.7000000000000001
 40
0.75
 40
0.75
 40
0.75
 40
0.8
 40
0.8
 40
0.8
 40
0.8500000000000001
 40
0.8500000000000001
 40
0.8500000000000001
 40
0.9
 40
0.9
 40
0.9
 40
0.9500000000000001
 40
0.9500000000000001
 40
0.9500000000000001
 40
1.0
 40
1.0
 40
1.0
 40
1.0
 10
-58.12783
 20
-4.16542
 30
0.0
 10
-59.28227
 20
-4.27193
 30
0.0
 10
-60.34689
 20
-4.77876
 30
0.0
 10
-61.14186
 20
-5.60033
 30
0.0
 10
-61.83006
 20
-6.31155
 30
0.0
 10
-62.23166
 20
-7.30926
 30
0.0
 10
-62.40865
 20
-8.74727
 30
0.0
 10
-62.48151
 20
-9.33944
 30
0.0
 10
-62.53066
 20
-10.499
 30
0.0
 10
-62.51097
 20
-11.16136
 30
0.0
 10
-62.50119
 20
-11.48997
 30
0.0
 10
-62.42031
 20
-13.52771
 30
0.0
 10
-62.33122
 20
-15.68965
 30
0.0
 10
-62.33122
 20
-15.68965
 30
0.0
 10
-62.16921
 20
-19.62047
 30
0.0
 10
-62.16921
 20
-19.62047
 30
0.0
 10
-62.16921
 20
-19.62047
 30
0.0
 10
-62.11355
 20
-19.69908
 30
0.0
 10
-62.11355
 20
-19.69908
 30
0.0
 10
-62.11355
 20
-19.69908
 30
0.0
 10
-62.05792
 20
-19.7777
 30
0.0
 10
-62.05792
 20
-19.7777
 30
0.0
 10
-62.05792
 20
-19.7777
 30
0.0
 10
-58.00472
 20
-19.77905
 30
0.0
 10
-58.00472
 20
-19.77905
 30
0.0
 10
-53.35306
 20
-19.78062
 30
0.0
 10
-52.78872
 20
-19.76877
 30
0.0
 10
-51.75029
 20
-19.64764
 30
0.0
 10
-49.97913
 20
-19.44103
 30
0.0
 10
-48.93027
 20
-19.0055
 30
0.0
 10
-48.12348
 20
-18.1416
 30
0.0
 10
-46.98901
 20
-16.92682
 30
0.0
 10
-46.59178
 20
-15.21846
 30
0.0
 10
-47.08363
 20
-13.66963
 30
0.0
 10
-47.13725
 20
-13.50076
 30
0.0
 10
-47.26521
 20
-13.19906
 30
0.0
 10
-47.36797
 20
-12.99919
 30
0.0
 10
-47.91895
 20
-11.92768
 30
0.0
 10
-48.87524
 20
-11.12303
 30
0.0
 10
-50.03363
 20
-10.7562
 30
0.0
 10
-50.59407
 20
-10.57875
 30
0.0
 10
-50.8619
 20
-10.53746
 30
0.0
 10
-51.45155
 20
-10.53765
 30
0.0
 10
-52.0079
 20
-10.53784
 30
0.0
 10
-52.33375
 20
-10.58114
 30
0.0
 10
-52.80312
 20
-10.71718
 30
0.0
 10
-52.94982
 20
-10.75969
 30
0.0
 10
-53.07919
 20
-10.78869
 30
0.0
 10
-53.09067
 20
-10.78158
 30
0.0
 10
-53.10215
 20
-10.7745
 30
0.0
 10
-53.0774
 20
-10.65894
 30
0.0
 10
-53.03573
 20
-10.52479
 30
0.0
 10
-52.83834
 20
-9.8895
 30
0.0
 10
-52.77592
 20
-8.98265
 30
0.0
 10
-52.88372
 20
-8.31545
 30
0.0
 10
-53.12246
 20
-6.83737
 30
0.0
 10
-54.04366
 20
-5.51448
 30
0.0
 10
-55.34601
 20
-4.77954
 30
0.0
 10
-56.18422
 20
-4.30649
 30
0.0
 10
-57.20768
 20
-4.08055
 30
0.0
 10
-58.12783
 20
-4.16542
 30
0.0
  0
SPLINE
  5
71
330
1F
100
AcDbEntity
  8
Layer 1
 62
    11
370
    30
100
AcDbSpline
210
0.0
220
0.0
230
1.0
 70
    11
 71
     3
 72
    62
 73
    58
 74
     0
 42
0.0000000001
 43
0.0000000001
 40
0.0
 40
0.0
 40
0.0
 40
0.0
 40
0.0526315789473684
 40
0.0526315789473684
 40
0.0526315789473684
 40
0.1052631578947368
 40
0.1052631578947368
 40
0.1052631578947368
 40
0.1578947368421053
 40
0.1578947368421053
 40
0.1578947368421053
 40
0.2105263157894737
 40
0.2105263157894737
 40
0.2105263157894737
 40
0.2631578947368421
 40
0.2631578947368421
 40
0.2631578947368421
 40
0.3157894736842105
 40
0.3157894736842105
 40
0.3157894736842105
 40
0.3684210526315789
 40
0.3684210526315789
 40
0.3684210526315789
 40
0.4210526315789473
 40
0.4210526315789473
 40
0.4210526315789473
 40
0.4736842105263158
 40
0.4736842105263158
 40
0.4736842105263158
 40
0.5263157894736842
 40
0.5263157894736842
 40
0.5263157894736842
 40
0.5789473684210527
 40
0.5789473684210527
 40
0.5789473684210527
 40
0.631578947368421
 40
0.631578947368421
 40
0.631578947368421
 40
0.6842105263157894
 40
0.6842105263157894
 40
0.6842105263157894
 40
0.7368421052631579
 40
0.7368421052631579
 40
0.7368421052631579
 40
0.7894736842105263
 40
0.7894736842105263
 40
0.7894736842105263
 40
0.8421052631578947
 40
0.8421052631578947
 40
0.8421052631578947
 40
0.894736842105263
 40
0.894736842105263
 40
0.894736842105263
 40
0.9473684210526315
 40
0.9473684210526315
 40
0.9473684210526315
 40
1.0
 40
1.0
 40
1.0
 40
1.0
 10
-56.8918
 20
-5.1358
 30
0.0
 10
-55.32375
 20
-5.49005
 30
0.0
 10
-54.14098
 20
-6.65328
 30
0.0
 10
-53.77837
 20
-8.19778
 30
0.0
 10
-53.58388
 20
-9.0263
 30
0.0
 10
-53.66331
 20
-9.89463
 30
0.0
 10
-54.00982
 20
-10.72743
 30
0.0
 10
-54.17935
 20
-11.13482
 30
0.0
 10
-54.20139
 20
-11.23142
 30
0.0
 10
-54.15951
 20
-11.38315
 30
0.0
 10
-54.10715
 20
-11.5728
 30
0.0
 10
-53.99545
 20
-11.70721
 30
0.0
 10
-53.81718
 20
-11.79519
 30
0.0
 10
-53.81718
 20
-11.79519
 30
0.0
 10
-53.65133
 20
-11.87702
 30
0.0
 10
-53.65133
 20
-11.87702
 30
0.0
 10
-53.65133
 20
-11.87702
 30
0.0
 10
-53.40837
 20
-11.77447
 30
0.0
 10
-53.40837
 20
-11.77447
 30
0.0
 10
-52.77856
 20
-11.50872
 30
0.0
 10
-52.39649
 20
-11.41799
 30
0.0
 10
-51.75029
 20
-11.38082
 30
0.0
 10
-50.93092
 20
-11.33372
 30
0.0
 10
-50.11284
 20
-11.52831
 30
0.0
 10
-49.47042
 20
-11.92312
 30
0.0
 10
-48.58376
 20
-12.46805
 30
0.0
 10
-48.00477
 20
-13.29098
 30
0.0
 10
-47.78272
 20
-14.32173
 30
0.0
 10
-47.70473
 20
-14.68374
 30
0.0
 10
-47.70524
 20
-15.3978
 30
0.0
 10
-47.7837
 20
-15.76186
 30
0.0
 10
-48.04234
 20
-16.96173
 30
0.0
 10
-48.8569
 20
-17.98651
 30
0.0
 10
-49.89866
 20
-18.42261
 30
0.0
 10
-50.35907
 20
-18.61534
 30
0.0
 10
-50.99759
 20
-18.76688
 30
0.0
 10
-51.75174
 20
-18.86248
 30
0.0
 10
-52.7136
 20
-18.98437
 30
0.0
 10
-53.02363
 20
-18.99154
 30
0.0
 10
-57.33727
 20
-18.99154
 30
0.0
 10
-59.64912
 20
-18.99154
 30
0.0
 10
-61.54789
 20
-18.98427
 30
0.0
 10
-61.55679
 20
-18.97537
 30
0.0
 10
-61.56566
 20
-18.96651
 30
0.0
 10
-61.63314
 20
-17.38868
 30
0.0
 10
-61.70673
 20
-15.46909
 30
0.0
 10
-61.84821
 20
-11.77919
 30
0.0
 10
-61.87387
 20
-10.14913
 30
0.0
 10
-61.80233
 20
-9.40035
 30
0.0
 10
-61.68956
 20
-8.22023
 30
0.0
 10
-61.4984
 20
-7.44844
 30
0.0
 10
-61.17613
 20
-6.87221
 30
0.0
 10
-60.73006
 20
-6.07457
 30
0.0
 10
-59.80365
 20
-5.40127
 30
0.0
 10
-58.83598
 20
-5.17146
 30
0.0
 10
-58.25764
 20
-5.0341
 30
0.0
 10
-57.41066
 20
-5.01857
 30
0.0
 10
-56.8918
 20
-5.1358
 30
0.0
  0
SPLINE
  5
72
330
1F
100
AcDbEntity
  8
Layer 1
 62
    11
370
    30
100
AcDbSpline
210
0.0
220
0.0
230
1.0
 70
    11
 71
     3
 72
    65
 73
    61
 74
     0
 42
0.0000000001
 43
0.0000000001
 40
0.0
 40
0.0
 40
0.0
 40
0.0
 40
0.05
 40
0.05
 40
0.05
 40
0.1
 40
0.1
 40
0.1
 40
0.15
 40
0.15
 40
0.15
 40
0.2
 40
0.2
 40
0.2
 40
0.25
 40
0.25
 40
0.25
 40
0.3
 40
0.3
 40
0.3
 40
0.35
 40
0.35
 40
0.35
 40
0.4
 40
0.4
 40
0.4
 40
0.45
 40
0.45
 40
0.45
 40
0.5
 40
0.5
 40
0.5
 40
0.55
 40
0.55
 40
0.55
 40
0.6000000000000001
 40
0.6000000000000001
 40
0.6000000000000001
 40
0.65
 40
0.65
 40
0.65
 40
0.7000000000000001
 40
0.7000000000000001
 40
0.7000000000000001
 40
0.75
 40
0.75
 40
0.75
 40
0.8
 40
0.8
 40
0.8
 40
0.8500000000000001
 40
0.8500000000000001
 40
0.8500000000000001
 40
0.9
 40
0.9
 40
0.9
 40
0.9500000000000001
 40
0.9500000000000001
 40
0.9500000000000001
 40
1.0
 40
1.0
 40
1.0
 40
1.0
 10
7.02016
 20
-15.80014
 30
0.0
 10
6.87057
 20
-16.94978
 30
0.0
 10
6.32431
 20
-17.99472
 30
0.0
 10
5.47359
 20
-18.75843
 30
0.0
 10
4.73714
 20
-19.41957
 30
0.0
 10
3.72512
 20
-19.7836
 30
0.0
 10
2.28149
 20
-19.9067
 30
0.0
 10
1.68701
 20
-19.95738
 30
0.0
 10
0.52643
 20
-19.96316
 30
0.0
 10
-0.13474
 20
-19.91873
 30
0.0
 10
-0.46276
 20
-19.89668
 30
0.0
 10
-2.49605
 20
-19.73968
 30
0.0
 10
-4.65317
 20
-19.56984
 30
0.0
 10
-4.65317
 20
-19.56984
 30
0.0
 10
-8.57518
 20
-19.26102
 30
0.0
 10
-8.57518
 20
-19.26102
 30
0.0
 10
-8.57518
 20
-19.26102
 30
0.0
 10
-8.65166
 20
-19.20245
 30
0.0
 10
-8.65166
 20
-19.20245
 30
0.0
 10
-8.65166
 20
-19.20245
 30
0.0
 10
-8.72814
 20
-19.14393
 30
0.0
 10
-8.72814
 20
-19.14393
 30
0.0
 10
-8.72814
 20
-19.14393
 30
0.0
 10
-8.578
 20
-15.0935
 30
0.0
 10
-8.578
 20
-15.0935
 30
0.0
 10
-8.4057
 20
-10.44501
 30
0.0
 10
-8.37275
 20
-9.88151
 30
0.0
 10
-8.21288
 20
-8.84834
 30
0.0
 10
-7.94022
 20
-7.08613
 30
0.0
 10
-7.46579
 20
-6.05427
 30
0.0
 10
-6.57234
 20
-5.28033
 30
0.0
 10
-5.316
 20
-4.19208
 30
0.0
 10
-3.59398
 20
-3.85897
 30
0.0
 10
-2.06461
 20
-4.40838
 30
0.0
 10
-1.89786
 20
-4.46827
 30
0.0
 10
-1.60115
 20
-4.60741
 30
0.0
 10
-1.40527
 20
-4.71758
 30
0.0
 10
-0.35509
 20
-5.30822
 30
0.0
 10
0.41325
 20
-6.29391
 30
0.0
 10
0.73652
 20
-7.46522
 30
0.0
 10
0.8929
 20
-8.0319
 30
0.0
 10
0.92415
 20
-8.30109
 30
0.0
 10
0.90192
 20
-8.89033
 30
0.0
 10
0.88093
 20
-9.44628
 30
0.0
 10
0.82549
 20
-9.77029
 30
0.0
 10
0.672
 20
-10.23424
 30
0.0
 10
0.62404
 20
-10.37925
 30
0.0
 10
0.59022
 20
-10.50744
 30
0.0
 10
0.5969
 20
-10.51918
 30
0.0
 10
0.60354
 20
-10.53091
 30
0.0
 10
0.71995
 20
-10.5105
 30
0.0
 10
0.85556
 20
-10.47388
 30
0.0
 10
1.49778
 20
-10.30037
 30
0.0
 10
2.40634
 20
-10.27189
 30
0.0
 10
3.06904
 20
-10.40456
 30
0.0
 10
4.53716
 20
-10.69838
 30
0.0
 10
5.8247
 20
-11.66838
 30
0.0
 10
6.51045
 20
-12.9973
 30
0.0
 10
6.95184
 20
-13.8526
 30
0.0
 10
7.13937
 20
-14.88379
 30
0.0
 10
7.02016
 20
-15.80014
 30
0.0
  0
SPLINE
  5
73
330
1F
100
AcDbEntity
  8
Layer 1
 62
    11
370
    30
100
AcDbSpline
210
0.0
220
0.0
230
1.0
 70
    11
 71
     3
 72
    62
 73
    58
 74
     0
 42
0.0000000001
 43
0.0000000001
 40
0.0
 40
0.0
 40
0.0
 40
0.0
 40
0.0526315789473684
 40
0.0526315789473684
 40
0.0526315789473684
 40
0.1052631578947368
 40
0.1052631578947368
 40
0.1052631578947368
 40
0.1578947368421053
 40
0.1578947368421053
 40
0.1578947368421053
 40
0.2105263157894737
 40
0.2105263157894737
 40
0.2105263157894737
 40
0.2631578947368421
 40
0.2631578947368421
 40
0.2631578947368421
 40
0.3157894736842105
 40
0.3157894736842105
 40
0.3157894736842105
 40
0.3684210526315789
 40
0.3684210526315789
 40
0.3684210526315789
 40
0.4210526315789473
 40
0.4210526315789473
 40
0.4210526315789473
 40
0.4736842105263158
 40
0.4736842105263158
 40
0.4736842105263158
 40
0.5263157894736842
 40
0.5263157894736842
 40
0.5263157894736842
 40
0.5789473684210527
 40
0.5789473684210527
 40
0.5789473684210527
 40
0.631578947368421
 40
0.631578947368421
 40
0.631578947368421
 40
0.6842105263157894
 40
0.6842105263157894
 40
0.6842105263157894
 40
0.7368421052631579
 40
0.7368421052631579
 40
0.7368421052631579
 40
0.7894736842105263
 40
0.7894736842105263
 40
0.7894736842105263
 40
0.8421052631578947
 40
0.8421052631578947
 40
0.8421052631578947
 40
0.894736842105263
 40
0.894736842105263
 40
0.894736842105263
 40
0.9473684210526315
 40
0.9473684210526315
 40
0.9473684210526315
 40
1.0
 40
1.0
 40
1.0
 40
1.0
 10
6.09666
 20
-14.52869
 30
0.0
 10
5.80127
 20
-12.94849
 30
0.0
 10
4.68306
 20
-11.72307
 30
0.0
 10
3.15319
 20
-11.30298
 30
0.0
 10
2.33252
 20
-11.07765
 30
0.0
 10
1.46182
 20
-11.12457
 30
0.0
 10
0.61665
 20
-11.43971
 30
0.0
 10
0.20321
 20
-11.5939
 30
0.0
 10
0.10585
 20
-11.61231
 30
0.0
 10
-0.04421
 20
-11.56478
 30
0.0
 10
-0.23178
 20
-11.50537
 30
0.0
 10
-0.3619
 20
-11.38873
 30
0.0
 10
-0.44317
 20
-11.2073
 30
0.0
 10
-0.44317
 20
-11.2073
 30
0.0
 10
-0.51874
 20
-11.0385
 30
0.0
 10
-0.51874
 20
-11.0385
 30
0.0
 10
-0.51874
 20
-11.0385
 30
0.0
 10
-0.40718
 20
-10.79955
 30
0.0
 10
-0.40718
 20
-10.79955
 30
0.0
 10
-0.11807
 20
-10.18011
 30
0.0
 10
-0.01312
 20
-9.80169
 30
0.0
 10
0.04817
 20
-9.15734
 30
0.0
 10
0.12587
 20
-8.3403
 30
0.0
 10
-0.03801
 20
-7.51551
 30
0.0
 10
-0.40853
 20
-6.85878
 30
0.0
 10
-0.91995
 20
-5.95236
 30
0.0
 10
-1.72066
 20
-5.34302
 30
0.0
 10
-2.74239
 20
-5.0826
 30
0.0
 10
-3.10124
 20
-4.99114
 30
0.0
 10
-3.81481
 20
-4.96494
 30
0.0
 10
-4.18155
 20
-5.02974
 30
0.0
 10
-5.39025
 20
-5.24337
 30
0.0
 10
-6.44476
 20
-6.01905
 30
0.0
 10
-6.9195
 20
-7.04379
 30
0.0
 10
-7.12931
 20
-7.49667
 30
0.0
 10
-7.30461
 20
-8.12908
 30
0.0
 10
-7.42833
 20
-8.87913
 30
0.0
 10
-7.58609
 20
-9.83576
 30
0.0
 10
-7.60483
 20
-10.14531
 30
0.0
 10
-7.76608
 20
-14.45595
 30
0.0
 10
-7.85249
 20
-16.76619
 30
0.0
 10
-7.9162
 20
-18.66391
 30
0.0
 10
-7.90765
 20
-18.67313
 30
0.0
 10
-7.89911
 20
-18.68233
 30
0.0
 10
-6.32491
 20
-18.80874
 30
0.0
 10
-4.40941
 20
-18.95403
 30
0.0
 10
-0.72737
 20
-19.23333
 30
0.0
 10
0.9006
 20
-19.3199
 30
0.0
 10
1.65153
 20
-19.2764
 30
0.0
 10
2.83505
 20
-19.20781
 30
0.0
 10
3.61345
 20
-19.04564
 30
0.0
 10
4.20132
 20
-18.74514
 30
0.0
 10
5.01508
 20
-18.3292
 30
0.0
 10
5.72253
 20
-17.42859
 30
0.0
 10
5.98835
 20
-16.47019
 30
0.0
 10
6.14724
 20
-15.89739
 30
0.0
 10
6.19442
 20
-15.05157
 30
0.0
 10
6.09666
 20
-14.52869
 30
0.0
  0
SPLINE
  5
74
330
1F
100
AcDbEntity
  8
Layer 1
 62
    11
370
    30
100
AcDbSpline
210
0.0
220
0.0
230
1.0
 70
    11
 71
     3
 72
    65
 73
    61
 74
     0
 42
0.0000000001
 43
0.0000000001
 40
0.0
 40
0.0
 40
0.0
 40
0.0
 40
0.05
 40
0.05
 40
0.05
 40
0.1
 40
0.1
 40
0.1
 40
0.15
 40
0.15
 40
0.15
 40
0.2
 40
0.2
 40
0.2
 40
0.25
 40
0.25
 40
0.25
 40
0.3
 40
0.3
 40
0.3
 40
0.35
 40
0.35
 40
0.35
 40
0.4
 40
0.4
 40
0.4
 40
0.45
 40
0.45
 40
0.45
 40
0.5
 40
0.5
 40
0.5
 40
0.55
 40
0.55
 40
0.55
 40
0.6000000000000001
 40
0.6000000000000001
 40
0.6000000000000001
 40
0.65
 40
0.65
 40
0.65
 40
0.7000000000000001
 40
0.7000000000000001
 40
0.7000000000000001
 40
0.75
 40
0.75
 40
0.75
 40
0.8
 40
0.8
 40
0.8
 40
0.8500000000000001
 40
0.8500000000000001
 40
0.8500000000000001
 40
0.9
 40
0.9
 40
0.9
 40
0.9500000000000001
 40
0.9500000000000001
 40
0.9500000000000001
 40
1.0
 40
1.0
 40
1.0
 40
1.0
 10
-11.27629
 20
-15.80014
 30
0.0
 10
-11.42587
 20
-16.94979
 30
0.0
 10
-11.97213
 20
-17.99472
 30
0.0
 10
-12.82285
 20
-18.75843
 30
0.0
 10
-13.5593
 20
-19.41957
 30
0.0
 10
-14.57132
 20
-19.7836
 30
0.0
 10
-16.01495
 20
-19.90671
 30
0.0
 10
-16.60943
 20
-19.95738
 30
0.0
 10
-17.77001
 20
-19.96316
 30
0.0
 10
-18.43118
 20
-19.91873
 30
0.0
 10
-18.7592
 20
-19.89668
 30
0.0
 10
-20.79249
 20
-19.73968
 30
0.0
 10
-22.94961
 20
-19.56984
 30
0.0
 10
-22.94961
 20
-19.56984
 30
0.0
 10
-26.87162
 20
-19.26102
 30
0.0
 10
-26.87162
 20
-19.26102
 30
0.0
 10
-26.87162
 20
-19.26102
 30
0.0
 10
-26.9481
 20
-19.20245
 30
0.0
 10
-26.9481
 20
-19.20245
 30
0.0
 10
-26.9481
 20
-19.20245
 30
0.0
 10
-27.02459
 20
-19.14393
 30
0.0
 10
-27.02459
 20
-19.14393
 30
0.0
 10
-27.02459
 20
-19.14393
 30
0.0
 10
-26.87444
 20
-15.0935
 30
0.0
 10
-26.87444
 20
-15.0935
 30
0.0
 10
-26.70213
 20
-10.44502
 30
0.0
 10
-26.66919
 20
-9.88151
 30
0.0
 10
-26.50933
 20
-8.84835
 30
0.0
 10
-26.23667
 20
-7.08614
 30
0.0
 10
-25.76223
 20
-6.05428
 30
0.0
 10
-24.86877
 20
-5.28034
 30
0.0
 10
-23.61244
 20
-4.19208
 30
0.0
 10
-21.89042
 20
-3.85897
 30
0.0
 10
-20.36105
 20
-4.40838
 30
0.0
 10
-20.1943
 20
-4.46827
 30
0.0
 10
-19.8976
 20
-4.60742
 30
0.0
 10
-19.7017
 20
-4.71758
 30
0.0
 10
-18.65154
 20
-5.30822
 30
0.0
 10
-17.88319
 20
-6.29392
 30
0.0
 10
-17.55992
 20
-7.46522
 30
0.0
 10
-17.40354
 20
-8.0319
 30
0.0
 10
-17.3723
 20
-8.30109
 30
0.0
 10
-17.39452
 20
-8.89033
 30
0.0
 10
-17.41551
 20
-9.44628
 30
0.0
 10
-17.47095
 20
-9.77029
 30
0.0
 10
-17.62444
 20
-10.23424
 30
0.0
 10
-17.67241
 20
-10.37925
 30
0.0
 10
-17.70622
 20
-10.50744
 30
0.0
 10
-17.69954
 20
-10.51918
 30
0.0
 10
-17.6929
 20
-10.53091
 30
0.0
 10
-17.5765
 20
-10.51051
 30
0.0
 10
-17.44088
 20
-10.47388
 30
0.0
 10
-16.79866
 20
-10.30037
 30
0.0
 10
-15.89011
 20
-10.2719
 30
0.0
 10
-15.2274
 20
-10.40456
 30
0.0
 10
-13.75927
 20
-10.69838
 30
0.0
 10
-12.47173
 20
-11.66839
 30
0.0
 10
-11.78599
 20
-12.9973
 30
0.0
 10
-11.3446
 20
-13.8526
 30
0.0
 10
-11.15707
 20
-14.8838
 30
0.0
 10
-11.27629
 20
-15.80014
 30
0.0
  0
SPLINE
  5
75
330
1F
100
AcDbEntity
  8
Layer 1
 62
    11
370
    30
100
AcDbSpline
210
0.0
220
0.0
230
1.0
 70
    11
 71
     3
 72
    62
 73
    58
 74
     0
 42
0.0000000001
 43
0.0000000001
 40
0.0
 40
0.0
 40
0.0
 40
0.0
 40
0.0526315789473684
 40
0.0526315789473684
 40
0.0526315789473684
 40
0.1052631578947368
 40
0.1052631578947368
 40
0.1052631578947368
 40
0.1578947368421053
 40
0.1578947368421053
 40
0.1578947368421053
 40
0.2105263157894737
 40
0.2105263157894737
 40
0.2105263157894737
 40
0.2631578947368421
 40
0.2631578947368421
 40
0.2631578947368421
 40
0.3157894736842105
 40
0.3157894736842105
 40
0.3157894736842105
 40
0.3684210526315789
 40
0.3684210526315789
 40
0.3684210526315789
 40
0.4210526315789473
 40
0.4210526315789473
 40
0.4210526315789473
 40
0.4736842105263158
 40
0.4736842105263158
 40
0.4736842105263158
 40
0.5263157894736842
 40
0.5263157894736842
 40
0.5263157894736842
 40
0.5789473684210527
 40
0.5789473684210527
 40
0.5789473684210527
 40
0.631578947368421
 40
0.631578947368421
 40
0.631578947368421
 40
0.6842105263157894
 40
0.6842105263157894
 40
0.6842105263157894
 40
0.7368421052631579
 40
0.7368421052631579
 40
0.7368421052631579
 40
0.7894736842105263
 40
0.7894736842105263
 40
0.7894736842105263
 40
0.8421052631578947
 40
0.8421052631578947
 40
0.8421052631578947
 40
0.894736842105263
 40
0.894736842105263
 40
0.894736842105263
 40
0.9473684210526315
 40
0.9473684210526315
 40
0.9473684210526315
 40
1.0
 40
1.0
 40
1.0
 40
1.0
 10
-12.19978
 20
-14.52869
 30
0.0
 10
-12.49517
 20
-12.94849
 30
0.0
 10
-13.61339
 20
-11.72307
 30
0.0
 10
-15.14325
 20
-11.30299
 30
0.0
 10
-15.96392
 20
-11.07765
 30
0.0
 10
-16.83463
 20
-11.12458
 30
0.0
 10
-17.67979
 20
-11.43971
 30
0.0
 10
-18.09323
 20
-11.5939
 30
0.0
 10
-18.19059
 20
-11.61232
 30
0.0
 10
-18.34066
 20
-11.56479
 30
0.0
 10
-18.52821
 20
-11.50538
 30
0.0
 10
-18.65835
 20
-11.38873
 30
0.0
 10
-18.73961
 20
-11.2073
 30
0.0
 10
-18.73961
 20
-11.2073
 30
0.0
 10
-18.81518
 20
-11.0385
 30
0.0
 10
-18.81518
 20
-11.0385
 30
0.0
 10
-18.81518
 20
-11.0385
 30
0.0
 10
-18.70362
 20
-10.79955
 30
0.0
 10
-18.70362
 20
-10.79955
 30
0.0
 10
-18.41451
 20
-10.18011
 30
0.0
 10
-18.30957
 20
-9.80169
 30
0.0
 10
-18.24827
 20
-9.15734
 30
0.0
 10
-18.17058
 20
-8.3403
 30
0.0
 10
-18.33445
 20
-7.51551
 30
0.0
 10
-18.70497
 20
-6.85879
 30
0.0
 10
-19.21639
 20
-5.95238
 30
0.0
 10
-20.01709
 20
-5.34303
 30
0.0
 10
-21.03883
 20
-5.08261
 30
0.0
 10
-21.39768
 20
-4.99114
 30
0.0
 10
-22.11125
 20
-4.96496
 30
0.0
 10
-22.47799
 20
-5.02974
 30
0.0
 10
-23.6867
 20
-5.24337
 30
0.0
 10
-24.7412
 20
-6.01905
 30
0.0
 10
-25.21594
 20
-7.04379
 30
0.0
 10
-25.42575
 20
-7.49668
 30
0.0
 10
-25.60106
 20
-8.12908
 30
0.0
 10
-25.72477
 20
-8.87914
 30
0.0
 10
-25.88253
 20
-9.83576
 30
0.0
 10
-25.90128
 20
-10.14531
 30
0.0
 10
-26.06252
 20
-14.45595
 30
0.0
 10
-26.14893
 20
-16.76619
 30
0.0
 10
-26.21265
 20
-18.66391
 30
0.0
 10
-26.20409
 20
-18.67314
 30
0.0
 10
-26.19556
 20
-18.68233
 30
0.0
 10
-24.62135
 20
-18.80874
 30
0.0
 10
-22.70585
 20
-18.95403
 30
0.0
 10
-19.02381
 20
-19.23333
 30
0.0
 10
-17.39584
 20
-19.3199
 30
0.0
 10
-16.64492
 20
-19.2764
 30
0.0
 10
-15.4614
 20
-19.20783
 30
0.0
 10
-14.683
 20
-19.04565
 30
0.0
 10
-14.09512
 20
-18.74514
 30
0.0
 10
-13.28136
 20
-18.3292
 30
0.0
 10
-12.5739
 20
-17.4286
 30
0.0
 10
-12.30809
 20
-16.47019
 30
0.0
 10
-12.14921
 20
-15.89739
 30
0.0
 10
-12.10202
 20
-15.05159
 30
0.0
 10
-12.19978
 20
-14.52869
 30
0.0
  0
SPLINE
  5
76
330
1F
100
AcDbEntity
  8
Layer 1
370
    30
100
AcDbSpline
210
0.0
220
0.0
230
1.0
 70
    11
 71
     3
 72
    65
 73
    61
 74
     0
 42
0.0000000001
 43
0.0000000001
 40
0.0
 40
0.0
 40
0.0
 40
0.0
 40
0.05
 40
0.05
 40
0.05
 40
0.1
 40
0.1
 40
0.1
 40
0.15
 40
0.15
 40
0.15
 40
0.2
 40
0.2
 40
0.2
 40
0.25
 40
0.25
 40
0.25
 40
0.3
 40
0.3
 40
0.3
 40
0.35
 40
0.35
 40
0.35
 40
0.4
 40
0.4
 40
0.4
 40
0.45
 40
0.45
 40
0.45
 40
0.5
 40
0.5
 40
0.5
 40
0.55
 40
0.55
 40
0.55
 40
0.6000000000000001
 40
0.6000000000000001
 40
0.6000000000000001
 40
0.65
 40
0.65
 40
0.65
 40
0.7000000000000001
 40
0.7000000000000001
 40
0.7000000000000001
 40
0.75
 40
0.75
 40
0.75
 40
0.8
 40
0.8
 40
0.8
 40
0.8500000000000001
 40
0.8500000000000001
 40
0.8500000000000001
 40
0.9
 40
0.9
 40
0.9
 40
0.9500000000000001
 40
0.9500000000000001
 40
0.9500000000000001
 40
1.0
 40
1.0
 40
1.0
 40
1.0
 10
13.27406
 20
-4.12389
 30
0.0
 10
12.12441
 20
-4.27348
 30
0.0
 10
11.07948
 20
-4.81975
 30
0.0
 10
10.31577
 20
-5.67045
 30
0.0
 10
9.65463
 20
-6.40691
 30
0.0
 10
9.29059
 20
-7.41893
 30
0.0
 10
9.16749
 20
-8.86256
 30
0.0
 10
9.11682
 20
-9.45704
 30
0.0
 10
9.11104
 20
-10.61763
 30
0.0
 10
9.15547
 20
-11.27879
 30
0.0
 10
9.17753
 20
-11.60681
 30
0.0
 10
9.33452
 20
-13.6401
 30
0.0
 10
9.50435
 20
-15.79721
 30
0.0
 10
9.50435
 20
-15.79721
 30
0.0
 10
9.81318
 20
-19.71923
 30
0.0
 10
9.81318
 20
-19.71923
 30
0.0
 10
9.81318
 20
-19.71923
 30
0.0
 10
9.87174
 20
-19.79571
 30
0.0
 10
9.87174
 20
-19.79571
 30
0.0
 10
9.87174
 20
-19.79571
 30
0.0
 10
9.93027
 20
-19.8722
 30
0.0
 10
9.93027
 20
-19.8722
 30
0.0
 10
9.93027
 20
-19.8722
 30
0.0
 10
13.9807
 20
-19.72204
 30
0.0
 10
13.9807
 20
-19.72204
 30
0.0
 10
18.62918
 20
-19.54974
 30
0.0
 10
19.19268
 20
-19.5168
 30
0.0
 10
20.22586
 20
-19.35694
 30
0.0
 10
21.98806
 20
-19.08428
 30
0.0
 10
23.01992
 20
-18.60984
 30
0.0
 10
23.79386
 20
-17.71639
 30
0.0
 10
24.88213
 20
-16.46005
 30
0.0
 10
25.21523
 20
-14.73803
 30
0.0
 10
24.66582
 20
-13.20866
 30
0.0
 10
24.60593
 20
-13.04191
 30
0.0
 10
24.46678
 20
-12.74521
 30
0.0
 10
24.35662
 20
-12.54932
 30
0.0
 10
23.76598
 20
-11.49915
 30
0.0
 10
22.78028
 20
-10.7308
 30
0.0
 10
21.60897
 20
-10.40753
 30
0.0
 10
21.0423
 20
-10.25115
 30
0.0
 10
20.77311
 20
-10.2199
 30
0.0
 10
20.18387
 20
-10.24213
 30
0.0
 10
19.62792
 20
-10.26311
 30
0.0
 10
19.30392
 20
-10.31856
 30
0.0
 10
18.83996
 20
-10.47205
 30
0.0
 10
18.69495
 20
-10.52002
 30
0.0
 10
18.56675
 20
-10.55383
 30
0.0
 10
18.55502
 20
-10.54716
 30
0.0
 10
18.54328
 20
-10.54052
 30
0.0
 10
18.56369
 20
-10.42411
 30
0.0
 10
18.60031
 20
-10.28849
 30
0.0
 10
18.77382
 20
-9.64627
 30
0.0
 10
18.80231
 20
-8.73772
 30
0.0
 10
18.66964
 20
-8.07501
 30
0.0
 10
18.37582
 20
-6.60688
 30
0.0
 10
17.40582
 20
-5.31935
 30
0.0
 10
16.0769
 20
-4.6336
 30
0.0
 10
15.22159
 20
-4.19221
 30
0.0
 10
14.1904
 20
-4.00469
 30
0.0
 10
13.27406
 20
-4.12389
 30
0.0
  0
SPLINE
  5
77
330
1F
100
AcDbEntity
  8
Layer 1
370
    30
100
AcDbSpline
210
0.0
220
0.0
230
1.0
 70
    11
 71
     3
 72
    62
 73
    58
 74
     0
 42
0.0000000001
 43
0.0000000001
 40
0.0
 40
0.0
 40
0.0
 40
0.0
 40
0.0526315789473684
 40
0.0526315789473684
 40
0.0526315789473684
 40
0.1052631578947368
 40
0.1052631578947368
 40
0.1052631578947368
 40
0.1578947368421053
 40
0.1578947368421053
 40
0.1578947368421053
 40
0.2105263157894737
 40
0.2105263157894737
 40
0.2105263157894737
 40
0.2631578947368421
 40
0.2631578947368421
 40
0.2631578947368421
 40
0.3157894736842105
 40
0.3157894736842105
 40
0.3157894736842105
 40
0.3684210526315789
 40
0.3684210526315789
 40
0.3684210526315789
 40
0.4210526315789473
 40
0.4210526315789473
 40
0.4210526315789473
 40
0.4736842105263158
 40
0.4736842105263158
 40
0.4736842105263158
 40
0.5263157894736842
 40
0.5263157894736842
 40
0.5263157894736842
 40
0.5789473684210527
 40
0.5789473684210527
 40
0.5789473684210527
 40
0.631578947368421
 40
0.631578947368421
 40
0.631578947368421
 40
0.6842105263157894
 40
0.6842105263157894
 40
0.6842105263157894
 40
0.7368421052631579
 40
0.7368421052631579
 40
0.7368421052631579
 40
0.7894736842105263
 40
0.7894736842105263
 40
0.7894736842105263
 40
0.8421052631578947
 40
0.8421052631578947
 40
0.8421052631578947
 40
0.894736842105263
 40
0.894736842105263
 40
0.894736842105263
 40
0.9473684210526315
 40
0.9473684210526315
 40
0.9473684210526315
 40
1.0
 40
1.0
 40
1.0
 40
1.0
 10
14.54551
 20
-5.04739
 30
0.0
 10
16.1257
 20
-5.34278
 30
0.0
 10
17.35112
 20
-6.46099
 30
0.0
 10
17.77122
 20
-7.99086
 30
0.0
 10
17.99654
 20
-8.81153
 30
0.0
 10
17.94962
 20
-9.68223
 30
0.0
 10
17.63448
 20
-10.5274
 30
0.0
 10
17.4803
 20
-10.94084
 30
0.0
 10
17.46189
 20
-11.03821
 30
0.0
 10
17.50941
 20
-11.18826
 30
0.0
 10
17.56882
 20
-11.37583
 30
0.0
 10
17.68547
 20
-11.50597
 30
0.0
 10
17.8669
 20
-11.58722
 30
0.0
 10
17.8669
 20
-11.58722
 30
0.0
 10
18.0357
 20
-11.66279
 30
0.0
 10
18.0357
 20
-11.66279
 30
0.0
 10
18.0357
 20
-11.66279
 30
0.0
 10
18.27464
 20
-11.55123
 30
0.0
 10
18.27464
 20
-11.55123
 30
0.0
 10
18.89409
 20
-11.26212
 30
0.0
 10
19.2725
 20
-11.15718
 30
0.0
 10
19.91685
 20
-11.09589
 30
0.0
 10
20.73389
 20
-11.01818
 30
0.0
 10
21.55868
 20
-11.18206
 30
0.0
 10
22.21541
 20
-11.55258
 30
0.0
 10
23.12183
 20
-12.064
 30
0.0
 10
23.73118
 20
-12.86471
 30
0.0
 10
23.9916
 20
-13.88644
 30
0.0
 10
24.08306
 20
-14.24528
 30
0.0
 10
24.10925
 20
-14.95887
 30
0.0
 10
24.04445
 20
-15.3256
 30
0.0
 10
23.83083
 20
-16.5343
 30
0.0
 10
23.05514
 20
-17.58882
 30
0.0
 10
22.03042
 20
-18.06355
 30
0.0
 10
21.57753
 20
-18.27337
 30
0.0
 10
20.94511
 20
-18.44866
 30
0.0
 10
20.19507
 20
-18.57239
 30
0.0
 10
19.23843
 20
-18.73014
 30
0.0
 10
18.92889
 20
-18.7489
 30
0.0
 10
14.61826
 20
-18.91013
 30
0.0
 10
12.30801
 20
-18.99654
 30
0.0
 10
10.41028
 20
-19.06026
 30
0.0
 10
10.40106
 20
-19.0517
 30
0.0
 10
10.39187
 20
-19.04317
 30
0.0
 10
10.26545
 20
-17.46895
 30
0.0
 10
10.12017
 20
-15.55346
 30
0.0
 10
9.84087
 20
-11.87141
 30
0.0
 10
9.75429
 20
-10.24345
 30
0.0
 10
9.7978
 20
-9.49252
 30
0.0
 10
9.86638
 20
-8.30901
 30
0.0
 10
10.02856
 20
-7.53061
 30
0.0
 10
10.32906
 20
-6.94273
 30
0.0
 10
10.74501
 20
-6.12898
 30
0.0
 10
11.64561
 20
-5.42152
 30
0.0
 10
12.60401
 20
-5.15569
 30
0.0
 10
13.1768
 20
-4.99681
 30
0.0
 10
14.02262
 20
-4.94964
 30
0.0
 10
14.54551
 20
-5.04739
 30
0.0
  0
SPLINE
  5
78
330
1F
100
AcDbEntity
  8
Layer 1
370
    30
100
AcDbSpline
210
0.0
220
0.0
230
1.0
 70
    11
 71
     3
 72
    65
 73
    61
 74
     0
 42
0.0000000001
 43
0.0000000001
 40
0.0
 40
0.0
 40
0.0
 40
0.0
 40
0.05
 40
0.05
 40
0.05
 40
0.1
 40
0.1
 40
0.1
 40
0.15
 40
0.15
 40
0.15
 40
0.2
 40
0.2
 40
0.2
 40
0.25
 40
0.25
 40
0.25
 40
0.3
 40
0.3
 40
0.3
 40
0.35
 40
0.35
 40
0.35
 40
0.4
 40
0.4
 40
0.4
 40
0.45
 40
0.45
 40
0.45
 40
0.5
 40
0.5
 40
0.5
 40
0.55
 40
0.55
 40
0.55
 40
0.6000000000000001
 40
0.6000000000000001
 40
0.6000000000000001
 40
0.65
 40
0.65
 40
0.65
 40
0.7000000000000001
 40
0.7000000000000001
 40
0.7000000000000001
 40
0.75
 40
0.75
 40
0.75
 40
0.8
 40
0.8
 40
0.8
 40
0.8500000000000001
 40
0.8500000000000001
 40
0.8500000000000001
 40
0.9
 40
0.9
 40
0.9
 40
0.9500000000000001
 40
0.9500000000000001
 40
0.9500000000000001
 40
1.0
 40
1.0
 40
1.0
 40
1.0
 10
41.45658
 20
-14.29285
 30
0.0
 10
41.43466
 20
-15.45198
 30
0.0
 10
41.00694
 20
-16.55077
 30
0.0
 10
40.24562
 20
-17.40362
 30
0.0
 10
39.58655
 20
-18.14193
 30
0.0
 10
38.62084
 20
-18.61532
 30
0.0
 10
37.19958
 20
-18.89685
 30
0.0
 10
36.61431
 20
-19.01276
 30
0.0
 10
35.46144
 20
-19.14646
 30
0.0
 10
34.79941
 20
-19.1752
 30
0.0
 10
34.47096
 20
-19.18944
 30
0.0
 10
32.43275
 20
-19.25759
 30
0.0
 10
30.27007
 20
-19.32662
 30
0.0
 10
30.27007
 20
-19.32662
 30
0.0
 10
26.33791
 20
-19.4521
 30
0.0
 10
26.33791
 20
-19.4521
 30
0.0
 10
26.33791
 20
-19.4521
 30
0.0
 10
26.25544
 20
-19.40233
 30
0.0
 10
26.25544
 20
-19.40233
 30
0.0
 10
26.25544
 20
-19.40233
 30
0.0
 10
26.17297
 20
-19.35259
 30
0.0
 10
26.17297
 20
-19.35259
 30
0.0
 10
26.17297
 20
-19.35259
 30
0.0
 10
25.87562
 20
-15.3103
 30
0.0
 10
25.87562
 20
-15.3103
 30
0.0
 10
25.53435
 20
-10.67117
 30
0.0
 10
25.50496
 20
-10.10747
 30
0.0
 10
25.54994
 20
-9.06297
 30
0.0
 10
25.62664
 20
-7.28144
 30
0.0
 10
25.98442
 20
-6.20357
 30
0.0
 10
26.78709
 20
-5.33584
 30
0.0
 10
27.91578
 20
-4.11569
 30
0.0
 10
29.59058
 20
-3.59476
 30
0.0
 10
31.1712
 20
-3.97219
 30
0.0
 10
31.34353
 20
-4.01333
 30
0.0
 10
31.65377
 20
-4.11892
 30
0.0
 10
31.86061
 20
-4.20681
 30
0.0
 10
32.9695
 20
-4.67807
 30
0.0
 10
33.84184
 20
-5.57304
 30
0.0
 10
34.29228
 20
-6.70156
 30
0.0
 10
34.51019
 20
-7.24754
 30
0.0
 10
34.57093
 20
-7.51164
 30
0.0
 10
34.6138
 20
-8.09973
 30
0.0
 10
34.65424
 20
-8.65462
 30
0.0
 10
34.63485
 20
-8.98276
 30
0.0
 10
34.53346
 20
-9.46081
 30
0.0
 10
34.50177
 20
-9.61022
 30
0.0
 10
34.4823
 20
-9.74136
 30
0.0
 10
34.49022
 20
-9.75229
 30
0.0
 10
34.49812
 20
-9.76322
 30
0.0
 10
34.61157
 20
-9.7301
 30
0.0
 10
34.74232
 20
-9.67875
 30
0.0
 10
35.36149
 20
-9.43549
 30
0.0
 10
36.26137
 20
-9.30701
 30
0.0
 10
36.93466
 20
-9.3658
 30
0.0
 10
38.42623
 20
-9.49596
 30
0.0
 10
39.81287
 20
-10.31809
 30
0.0
 10
40.64095
 20
-11.5633
 30
0.0
 10
41.17395
 20
-12.36472
 30
0.0
 10
41.47403
 20
-13.36895
 30
0.0
 10
41.45658
 20
-14.29285
 30
0.0
  0
SPLINE
  5
79
330
1F
100
AcDbEntity
  8
Layer 1
370
    30
100
AcDbSpline
210
0.0
220
0.0
230
1.0
 70
    11
 71
     3
 72
    62
 73
    58
 74
     0
 42
0.0000000001
 43
0.0000000001
 40
0.0
 40
0.0
 40
0.0
 40
0.0
 40
0.0526315789473684
 40
0.0526315789473684
 40
0.0526315789473684
 40
0.1052631578947368
 40
0.1052631578947368
 40
0.1052631578947368
 40
0.1578947368421053
 40
0.1578947368421053
 40
0.1578947368421053
 40
0.2105263157894737
 40
0.2105263157894737
 40
0.2105263157894737
 40
0.2631578947368421
 40
0.2631578947368421
 40
0.2631578947368421
 40
0.3157894736842105
 40
0.3157894736842105
 40
0.3157894736842105
 40
0.3684210526315789
 40
0.3684210526315789
 40
0.3684210526315789
 40
0.4210526315789473
 40
0.4210526315789473
 40
0.4210526315789473
 40
0.4736842105263158
 40
0.4736842105263158
 40
0.4736842105263158
 40
0.5263157894736842
 40
0.5263157894736842
 40
0.5263157894736842
 40
0.5789473684210527
 40
0.5789473684210527
 40
0.5789473684210527
 40
0.631578947368421
 40
0.631578947368421
 40
0.631578947368421
 40
0.6842105263157894
 40
0.6842105263157894
 40
0.6842105263157894
 40
0.7368421052631579
 40
0.7368421052631579
 40
0.7368421052631579
 40
0.7894736842105263
 40
0.7894736842105263
 40
0.7894736842105263
 40
0.8421052631578947
 40
0.8421052631578947
 40
0.8421052631578947
 40
0.894736842105263
 40
0.894736842105263
 40
0.894736842105263
 40
0.9473684210526315
 40
0.9473684210526315
 40
0.9473684210526315
 40
1.0
 40
1.0
 40
1.0
 40
1.0
 10
40.39853
 20
-13.13098
 30
0.0
 10
39.93072
 20
-11.59298
 30
0.0
 10
38.68421
 20
-10.49832
 30
0.0
 10
37.11735
 20
-10.24947
 30
0.0
 10
36.27684
 20
-10.116
 30
0.0
 10
35.41663
 20
-10.25863
 30
0.0
 10
34.61135
 20
-10.66504
 30
0.0
 10
34.21743
 20
-10.86386
 30
0.0
 10
34.1227
 20
-10.8929
 30
0.0
 10
33.96831
 20
-10.86221
 30
0.0
 10
33.77534
 20
-10.82384
 30
0.0
 10
33.63314
 20
-10.72225
 30
0.0
 10
33.53237
 20
-10.55089
 30
0.0
 10
33.53237
 20
-10.55089
 30
0.0
 10
33.43865
 20
-10.39145
 30
0.0
 10
33.43865
 20
-10.39145
 30
0.0
 10
33.43865
 20
-10.39145
 30
0.0
 10
33.52318
 20
-10.14166
 30
0.0
 10
33.52318
 20
-10.14166
 30
0.0
 10
33.74223
 20
-9.49412
 30
0.0
 10
33.80481
 20
-9.10644
 30
0.0
 10
33.79469
 20
-8.45926
 30
0.0
 10
33.78184
 20
-7.63863
 30
0.0
 10
33.52802
 20
-6.83694
 30
0.0
 10
33.08735
 20
-6.22507
 30
0.0
 10
32.47912
 20
-5.38057
 30
0.0
 10
31.6161
 20
-4.86321
 30
0.0
 10
30.57189
 20
-4.71704
 30
0.0
 10
30.20514
 20
-4.6657
 30
0.0
 10
29.49303
 20
-4.71834
 30
0.0
 10
29.13568
 20
-4.82318
 30
0.0
 10
27.95789
 20
-5.16876
 30
0.0
 10
26.99533
 20
-6.05599
 30
0.0
 10
26.63648
 20
-7.12681
 30
0.0
 10
26.47788
 20
-7.60007
 30
0.0
 10
26.37337
 20
-8.24795
 30
0.0
 10
26.3331
 20
-9.00707
 30
0.0
 10
26.28178
 20
-9.97526
 30
0.0
 10
26.29727
 20
-10.28499
 30
0.0
 10
26.61229
 20
-14.58712
 30
0.0
 10
26.78112
 20
-16.89281
 30
0.0
 10
26.92703
 20
-18.78598
 30
0.0
 10
26.93656
 20
-18.79421
 30
0.0
 10
26.94605
 20
-18.8024
 30
0.0
 10
28.5246
 20
-18.75448
 30
0.0
 10
30.44444
 20
-18.68768
 30
0.0
 10
34.13483
 20
-18.55932
 30
0.0
 10
35.76241
 20
-18.46587
 30
0.0
 10
36.50396
 20
-18.33984
 30
0.0
 10
37.6727
 20
-18.14119
 30
0.0
 10
38.42848
 20
-17.89417
 30
0.0
 10
38.97963
 20
-17.53069
 30
0.0
 10
39.74257
 20
-17.02756
 30
0.0
 10
40.34642
 20
-16.05445
 30
0.0
 10
40.50495
 20
-15.07257
 30
0.0
 10
40.5997
 20
-14.48575
 30
0.0
 10
40.55334
 20
-13.6399
 30
0.0
 10
40.39853
 20
-13.13098
 30
0.0
  0
SPLINE
  5
7A
330
1F
100
AcDbEntity
  8
Layer 1
370
    30
100
AcDbSpline
210
0.0
220
0.0
230
1.0
 70
    11
 71
     3
 72
    65
 73
    61
 74
     0
 42
0.0000000001
 43
0.0000000001
 40
0.0
 40
0.0
 40
0.0
 40
0.0
 40
0.05
 40
0.05
 40
0.05
 40
0.1
 40
0.1
 40
0.1
 40
0.15
 40
0.15
 40
0.15
 40
0.2
 40
0.2
 40
0.2
 40
0.25
 40
0.25
 40
0.25
 40
0.3
 40
0.3
 40
0.3
 40
0.35
 40
0.35
 40
0.35
 40
0.4
 40
0.4
 40
0.4
 40
0.45
 40
0.45
 40
0.45
 40
0.5
 40
0.5
 40
0.5
 40
0.55
 40
0.55
 40
0.55
 40
0.6000000000000001
 40
0.6000000000000001
 40
0.6000000000000001
 40
0.65
 40
0.65
 40
0.65
 40
0.7000000000000001
 40
0.7000000000000001
 40
0.7000000000000001
 40
0.75
 40
0.75
 40
0.75
 40
0.8
 40
0.8
 40
0.8
 40
0.8500000000000001
 40
0.8500000000000001
 40
0.8500000000000001
 40
0.9
 40
0.9
 40
0.9
 40
0.9500000000000001
 40
0.9500000000000001
 40
0.9500000000000001
 40
1.0
 40
1.0
 40
1.0
 40
1.0
 10
-16.44536
 20
17.87979
 30
0.0
 10
-17.60006
 20
17.77326
 30
0.0
 10
-18.66493
 20
17.26632
 30
0.0
 10
-19.46008
 20
16.44456
 30
0.0
 10
-20.14844
 20
15.73317
 30
0.0
 10
-20.55013
 20
14.73524
 30
0.0
 10
-20.72716
 20
13.29689
 30
0.0
 10
-20.80003
 20
12.70459
 30
0.0
 10
-20.8492
 20
11.54476
 30
0.0
 10
-20.82951
 20
10.88225
 30
0.0
 10
-20.81972
 20
10.55356
 30
0.0
 10
-20.73883
 20
8.51536
 30
0.0
 10
-20.64972
 20
6.35292
 30
0.0
 10
-20.64972
 20
6.35292
 30
0.0
 10
-20.48767
 20
2.42121
 30
0.0
 10
-20.48767
 20
2.42121
 30
0.0
 10
-20.48767
 20
2.42121
 30
0.0
 10
-20.43199
 20
2.34257
 30
0.0
 10
-20.43199
 20
2.34257
 30
0.0
 10
-20.43199
 20
2.34257
 30
0.0
 10
-20.37635
 20
2.26394
 30
0.0
 10
-20.37635
 20
2.26394
 30
0.0
 10
-20.37635
 20
2.26394
 30
0.0
 10
-16.32222
 20
2.26259
 30
0.0
 10
-16.32222
 20
2.26259
 30
0.0
 10
-11.6695
 20
2.26101
 30
0.0
 10
-11.10503
 20
2.27287
 30
0.0
 10
-10.06636
 20
2.39403
 30
0.0
 10
-8.2948
 20
2.60068
 30
0.0
 10
-7.24569
 20
3.03632
 30
0.0
 10
-6.43872
 20
3.90041
 30
0.0
 10
-5.30399
 20
5.11547
 30
0.0
 10
-4.90667
 20
6.82422
 30
0.0
 10
-5.39864
 20
8.37341
 30
0.0
 10
-5.45226
 20
8.54232
 30
0.0
 10
-5.58025
 20
8.84409
 30
0.0
 10
-5.68304
 20
9.04401
 30
0.0
 10
-6.23414
 20
10.11576
 30
0.0
 10
-7.19065
 20
10.9206
 30
0.0
 10
-8.34931
 20
11.2875
 30
0.0
 10
-8.90988
 20
11.465
 30
0.0
 10
-9.17777
 20
11.5063
 30
0.0
 10
-9.76755
 20
11.50611
 30
0.0
 10
-10.32403
 20
11.50592
 30
0.0
 10
-10.64996
 20
11.46261
 30
0.0
 10
-11.11943
 20
11.32654
 30
0.0
 10
-11.26617
 20
11.28401
 30
0.0
 10
-11.39557
 20
11.25501
 30
0.0
 10
-11.40705
 20
11.26212
 30
0.0
 10
-11.41853
 20
11.2692
 30
0.0
 10
-11.39377
 20
11.38479
 30
0.0
 10
-11.3521
 20
11.51897
 30
0.0
 10
-11.15466
 20
12.1544
 30
0.0
 10
-11.09223
 20
13.06146
 30
0.0
 10
-11.20005
 20
13.72881
 30
0.0
 10
-11.43885
 20
15.20723
 30
0.0
 10
-12.36025
 20
16.53043
 30
0.0
 10
-13.66291
 20
17.26553
 30
0.0
 10
-14.5013
 20
17.73869
 30
0.0
 10
-15.525
 20
17.96468
 30
0.0
 10
-16.44536
 20
17.87979
 30
0.0
  0
SPLINE
  5
7B
330
1F
100
AcDbEntity
  8
Layer 1
370
    30
100
AcDbSpline
210
0.0
220
0.0
230
1.0
 70
    11
 71
     3
 72
   341
 73
   337
 74
     0
 42
0.0000000001
 43
0.0000000001
 40
0.0
 40
0.0
 40
0.0
 40
0.0
 40
0.0089285714285714
 40
0.0089285714285714
 40
0.0089285714285714
 40
0.0178571428571429
 40
0.0178571428571429
 40
0.0178571428571429
 40
0.0267857142857143
 40
0.0267857142857143
 40
0.0267857142857143
 40
0.0357142857142857
 40
0.0357142857142857
 40
0.0357142857142857
 40
0.0446428571428571
 40
0.0446428571428571
 40
0.0446428571428571
 40
0.0535714285714286
 40
0.0535714285714286
 40
0.0535714285714286
 40
0.0625
 40
0.0625
 40
0.0625
 40
0.0714285714285714
 40
0.0714285714285714
 40
0.0714285714285714
 40
0.0803571428571428
 40
0.0803571428571428
 40
0.0803571428571428
 40
0.0892857142857143
 40
0.0892857142857143
 40
0.0892857142857143
 40
0.0982142857142857
 40
0.0982142857142857
 40
0.0982142857142857
 40
0.1071428571428571
 40
0.1071428571428571
 40
0.1071428571428571
 40
0.1160714285714286
 40
0.1160714285714286
 40
0.1160714285714286
 40
0.125
 40
0.125
 40
0.125
 40
0.1339285714285714
 40
0.1339285714285714
 40
0.1339285714285714
 40
0.1428571428571428
 40
0.1428571428571428
 40
0.1428571428571428
 40
0.1517857142857143
 40
0.1517857142857143
 40
0.1517857142857143
 40
0.1607142857142857
 40
0.1607142857142857
 40
0.1607142857142857
 40
0.1696428571428571
 40
0.1696428571428571
 40
0.1696428571428571
 40
0.1785714285714285
 40
0.1785714285714285
 40
0.1785714285714285
 40
0.1875
 40
0.1875
 40
0.1875
 40
0.1964285714285714
 40
0.1964285714285714
 40
0.1964285714285714
 40
0.2053571428571428
 40
0.2053571428571428
 40
0.2053571428571428
 40
0.2142857142857143
 40
0.2142857142857143
 40
0.2142857142857143
 40
0.2232142857142857
 40
0.2232142857142857
 40
0.2232142857142857
 40
0.2321428571428571
 40
0.2321428571428571
 40
0.2321428571428571
 40
0.2410714285714285
 40
0.2410714285714285
 40
0.2410714285714285
 40
0.25
 40
0.25
 40
0.25
 40
0.2589285714285714
 40
0.2589285714285714
 40
0.2589285714285714
 40
0.2678571428571428
 40
0.2678571428571428
 40
0.2678571428571428
 40
0.2767857142857142
 40
0.2767857142857142
 40
0.2767857142857142
 40
0.2857142857142857
 40
0.2857142857142857
 40
0.2857142857142857
 40
0.2946428571428572
 40
0.2946428571428572
 40
0.2946428571428572
 40
0.3035714285714285
 40
0.3035714285714285
 40
0.3035714285714285
 40
0.3125
 40
0.3125
 40
0.3125
 40
0.3214285714285714
 40
0.3214285714285714
 40
0.3214285714285714
 40
0.3303571428571428
 40
0.3303571428571428
 40
0.3303571428571428
 40
0.3392857142857142
 40
0.3392857142857142
 40
0.3392857142857142
 40
0.3482142857142857
 40
0.3482142857142857
 40
0.3482142857142857
 40
0.3571428571428571
 40
0.3571428571428571
 40
0.3571428571428571
 40
0.3660714285714285
 40
0.3660714285714285
 40
0.3660714285714285
 40
0.375
 40
0.375
 40
0.375
 40
0.3839285714285714
 40
0.3839285714285714
 40
0.3839285714285714
 40
0.3928571428571428
 40
0.3928571428571428
 40
0.3928571428571428
 40
0.4017857142857142
 40
0.4017857142857142
 40
0.4017857142857142
 40
0.4107142857142857
 40
0.4107142857142857
 40
0.4107142857142857
 40
0.4196428571428571
 40
0.4196428571428571
 40
0.4196428571428571
 40
0.4285714285714285
 40
0.4285714285714285
 40
0.4285714285714285
 40
0.4375
 40
0.4375
 40
0.4375
 40
0.4464285714285714
 40
0.4464285714285714
 40
0.4464285714285714
 40
0.4553571428571428
 40
0.4553571428571428
 40
0.4553571428571428
 40
0.4642857142857142
 40
0.4642857142857142
 40
0.4642857142857142
 40
0.4732142857142857
 40
0.4732142857142857
 40
0.4732142857142857
 40
0.4821428571428571
 40
0.4821428571428571
 40
0.4821428571428571
 40
0.4910714285714285
 40
0.4910714285714285
 40
0.4910714285714285
 40
0.5
 40
0.5
 40
0.5
 40
0.5089285714285714
 40
0.5089285714285714
 40
0.5089285714285714
 40
0.5178571428571428
 40
0.5178571428571428
 40
0.5178571428571428
 40
0.5267857142857143
 40
0.5267857142857143
 40
0.5267857142857143
 40
0.5357142857142857
 40
0.5357142857142857
 40
0.5357142857142857
 40
0.5446428571428571
 40
0.5446428571428571
 40
0.5446428571428571
 40
0.5535714285714285
 40
0.5535714285714285
 40
0.5535714285714285
 40
0.5625
 40
0.5625
 40
0.5625
 40
0.5714285714285714
 40
0.5714285714285714
 40
0.5714285714285714
 40
0.5803571428571428
 40
0.5803571428571428
 40
0.5803571428571428
 40
0.5892857142857143
 40
0.5892857142857143
 40
0.5892857142857143
 40
0.5982142857142857
 40
0.5982142857142857
 40
0.5982142857142857
 40
0.6071428571428571
 40
0.6071428571428571
 40
0.6071428571428571
 40
0.6160714285714285
 40
0.6160714285714285
 40
0.6160714285714285
 40
0.625
 40
0.625
 40
0.625
 40
0.6339285714285714
 40
0.6339285714285714
 40
0.6339285714285714
 40
0.6428571428571428
 40
0.6428571428571428
 40
0.6428571428571428
 40
0.6517857142857143
 40
0.6517857142857143
 40
0.6517857142857143
 40
0.6607142857142857
 40
0.6607142857142857
 40
0.6607142857142857
 40
0.6696428571428571
 40
0.6696428571428571
 40
0.6696428571428571
 40
0.6785714285714285
 40
0.6785714285714285
 40
0.6785714285714285
 40
0.6875
 40
0.6875
 40
0.6875
 40
0.6964285714285714
 40
0.6964285714285714
 40
0.6964285714285714
 40
0.7053571428571428
 40
0.7053571428571428
 40
0.7053571428571428
 40
0.7142857142857142
 40
0.7142857142857142
 40
0.7142857142857142
 40
0.7232142857142857
 40
0.7232142857142857
 40
0.7232142857142857
 40
0.7321428571428571
 40
0.7321428571428571
 40
0.7321428571428571
 40
0.7410714285714285
 40
0.7410714285714285
 40
0.7410714285714285
 40
0.75
 40
0.75
 40
0.75
 40
0.7589285714285714
 40
0.7589285714285714
 40
0.7589285714285714
 40
0.7678571428571428
 40
0.7678571428571428
 40
0.7678571428571428
 40
0.7767857142857142
 40
0.7767857142857142
 40
0.7767857142857142
 40
0.7857142857142857
 40
0.7857142857142857
 40
0.7857142857142857
 40
0.7946428571428571
 40
0.7946428571428571
 40
0.7946428571428571
 40
0.8035714285714285
 40
0.8035714285714285
 40
0.8035714285714285
 40
0.8125
 40
0.8125
 40
0.8125
 40
0.8214285714285714
 40
0.8214285714285714
 40
0.8214285714285714
 40
0.8303571428571428
 40
0.8303571428571428
 40
0.8303571428571428
 40
0.8392857142857142
 40
0.8392857142857142
 40
0.8392857142857142
 40
0.8482142857142857
 40
0.8482142857142857
 40
0.8482142857142857
 40
0.8571428571428571
 40
0.8571428571428571
 40
0.8571428571428571
 40
0.8660714285714285
 40
0.8660714285714285
 40
0.8660714285714285
 40
0.875
 40
0.875
 40
0.875
 40
0.8839285714285714
 40
0.8839285714285714
 40
0.8839285714285714
 40
0.8928571428571428
 40
0.8928571428571428
 40
0.8928571428571428
 40
0.9017857142857142
 40
0.9017857142857142
 40
0.9017857142857142
 40
0.9107142857142857
 40
0.9107142857142857
 40
0.9107142857142857
 40
0.9196428571428571
 40
0.9196428571428571
 40
0.9196428571428571
 40
0.9285714285714285
 40
0.9285714285714285
 40
0.9285714285714285
 40
0.9375
 40
0.9375
 40
0.9375
 40
0.9464285714285714
 40
0.9464285714285714
 40
0.9464285714285714
 40
0.9553571428571428
 40
0.9553571428571428
 40
0.9553571428571428
 40
0.9642857142857142
 40
0.9642857142857142
 40
0.9642857142857142
 40
0.9732142857142857
 40
0.9732142857142857
 40
0.9732142857142857
 40
0.9821428571428571
 40
0.9821428571428571
 40
0.9821428571428571
 40
0.9910714285714285
 40
0.9910714285714285
 40
0.9910714285714285
 40
1.0
 40
1.0
 40
1.0
 40
1.0
 10
-15.20904
 20
16.90919
 30
0.0
 10
-13.64064
 20
16.55487
 30
0.0
 10
-12.4576
 20
15.39136
 30
0.0
 10
-12.09491
 20
13.84651
 30
0.0
 10
-11.90037
 20
13.0178
 30
0.0
 10
-11.97982
 20
12.14927
 30
0.0
 10
-12.32641
 20
11.31628
 30
0.0
 10
-12.49597
 20
10.9088
 30
0.0
 10
-12.51802
 20
10.81217
 30
0.0
 10
-12.47613
 20
10.66041
 30
0.0
 10
-12.42376
 20
10.47071
 30
0.0
 10
-12.31203
 20
10.33628
 30
0.0
 10
-12.13372
 20
10.24827
 30
0.0
 10
-12.13372
 20
10.24827
 30
0.0
 10
-11.96784
 20
10.16643
 30
0.0
 10
-11.96784
 20
10.16643
 30
0.0
 10
-11.96784
 20
10.16643
 30
0.0
 10
-11.72482
 20
10.269
 30
0.0
 10
-11.72482
 20
10.269
 30
0.0
 10
-11.09487
 20
10.53482
 30
0.0
 10
-10.71271
 20
10.62556
 30
0.0
 10
-10.06636
 20
10.66274
 30
0.0
 10
-9.24681
 20
10.70986
 30
0.0
 10
-8.42854
 20
10.51522
 30
0.0
 10
-7.78597
 20
10.12032
 30
0.0
 10
-6.90395
 20
9.57821
 30
0.0
 10
-6.31633
 20
8.74626
 30
0.0
 10
-6.10254
 20
7.73688
 30
0.0
 10
-6.03954
 20
7.43949
 30
0.0
 10
-6.00594
 20
6.80589
 30
0.0
 10
-6.04529
 20
6.65711
 30
0.0
 10
-6.04529
 20
6.65711
 30
0.0
 10
-6.07297
 20
6.55237
 30
0.0
 10
-6.07297
 20
6.55237
 30
0.0
 10
-6.07297
 20
6.55237
 30
0.0
 10
-6.2209
 20
6.76893
 30
0.0
 10
-6.2209
 20
6.76893
 30
0.0
 10
-6.48725
 20
7.15873
 30
0.0
 10
-6.94024
 20
7.54807
 30
0.0
 10
-7.39305
 20
7.77636
 30
0.0
 10
-7.64062
 20
7.9012
 30
0.0
 10
-8.05421
 20
8.02855
 30
0.0
 10
-8.36648
 20
8.07617
 30
0.0
 10
-8.36648
 20
8.07617
 30
0.0
 10
-8.61673
 20
8.11433
 30
0.0
 10
-8.61673
 20
8.11433
 30
0.0
 10
-8.61673
 20
8.11433
 30
0.0
 10
-8.36708
 20
8.3345
 30
0.0
 10
-8.36708
 20
8.3345
 30
0.0
 10
-7.81793
 20
8.8188
 30
0.0
 10
-7.73907
 20
8.93389
 30
0.0
 10
-7.73892
 20
9.2516
 30
0.0
 10
-7.73892
 20
9.2516
 30
0.0
 10
-7.73879
 20
9.44526
 30
0.0
 10
-7.73879
 20
9.44526
 30
0.0
 10
-7.73879
 20
9.44526
 30
0.0
 10
-7.83498
 20
9.56614
 30
0.0
 10
-7.83498
 20
9.56614
 30
0.0
 10
-7.979
 20
9.74712
 30
0.0
 10
-8.17018
 20
9.83529
 30
0.0
 10
-8.38762
 20
9.82101
 30
0.0
 10
-8.54816
 20
9.81044
 30
0.0
 10
-8.60468
 20
9.78688
 30
0.0
 10
-8.77557
 20
9.65924
 30
0.0
 10
-8.79979
 20
9.64115
 30
0.0
 10
-8.84222
 20
9.66097
 30
0.0
 10
-8.89729
 20
9.71601
 30
0.0
 10
-9.07331
 20
9.89206
 30
0.0
 10
-9.32824
 20
9.93855
 30
0.0
 10
-9.50995
 20
9.82774
 30
0.0
 10
-9.64133
 20
9.74766
 30
0.0
 10
-9.70021
 20
9.60731
 30
0.0
 10
-9.72487
 20
9.31561
 30
0.0
 10
-9.72487
 20
9.31561
 30
0.0
 10
-9.74431
 20
9.08559
 30
0.0
 10
-9.74431
 20
9.08559
 30
0.0
 10
-9.74431
 20
9.08559
 30
0.0
 10
-9.67873
 20
8.93731
 30
0.0
 10
-9.67873
 20
8.93731
 30
0.0
 10
-9.63482
 20
8.83808
 30
0.0
 10
-9.5086
 20
8.68644
 30
0.0
 10
-9.29716
 20
8.47897
 30
0.0
 10
-9.12338
 20
8.30843
 30
0.0
 10
-8.98121
 20
8.1549
 30
0.0
 10
-8.98121
 20
8.13782
 30
0.0
 10
-8.98121
 20
8.12071
 30
0.0
 10
-9.05551
 20
8.09734
 30
0.0
 10
-9.14634
 20
8.08586
 30
0.0
 10
-9.84084
 20
7.99826
 30
0.0
 10
-10.56623
 20
7.64969
 30
0.0
 10
-11.00623
 20
7.1922
 30
0.0
 10
-11.00623
 20
7.1922
 30
0.0
 10
-11.1283
 20
7.06525
 30
0.0
 10
-11.1283
 20
7.06525
 30
0.0
 10
-11.1283
 20
7.06525
 30
0.0
 10
-11.25236
 20
7.32245
 30
0.0
 10
-11.25236
 20
7.32245
 30
0.0
 10
-11.55038
 20
7.94026
 30
0.0
 10
-12.08362
 20
8.58862
 30
0.0
 10
-12.6244
 20
8.99066
 30
0.0
 10
-13.26156
 20
9.46438
 30
0.0
 10
-14.19822
 20
9.83135
 30
0.0
 10
-14.89451
 20
9.88004
 30
0.0
 10
-15.00695
 20
9.88791
 30
0.0
 10
-15.12727
 20
9.90017
 30
0.0
 10
-15.16186
 20
9.90728
 30
0.0
 10
-15.16186
 20
9.90728
 30
0.0
 10
-15.22477
 20
9.92018
 30
0.0
 10
-15.22477
 20
9.92018
 30
0.0
 10
-15.22477
 20
9.92018
 30
0.0
 10
-15.22634
 20
10.25969
 30
0.0
 10
-15.22634
 20
10.25969
 30
0.0
 10
-15.22741
 20
10.49072
 30
0.0
 10
-15.25072
 20
10.70325
 30
0.0
 10
-15.29929
 20
10.92494
 30
0.0
 10
-15.29929
 20
10.92494
 30
0.0
 10
-15.37065
 20
11.2507
 30
0.0
 10
-15.37065
 20
11.2507
 30
0.0
 10
-15.37065
 20
11.2507
 30
0.0
 10
-15.3358
 20
11.6641
 30
0.0
 10
-15.3358
 20
11.6641
 30
0.0
 10
-15.28966
 20
12.2112
 30
0.0
 10
-15.28085
 20
12.25049
 30
0.0
 10
-15.20461
 20
12.25049
 30
0.0
 10
-15.20461
 20
12.25049
 30
0.0
 10
-15.14227
 20
12.25049
 30
0.0
 10
-15.14227
 20
12.25049
 30
0.0
 10
-15.14227
 20
12.25049
 30
0.0
 10
-15.16101
 20
12.39989
 30
0.0
 10
-15.16101
 20
12.39989
 30
0.0
 10
-15.1713
 20
12.48208
 30
0.0
 10
-15.20319
 20
12.67326
 30
0.0
 10
-15.23188
 20
12.82477
 30
0.0
 10
-15.23188
 20
12.82477
 30
0.0
 10
-15.28406
 20
13.10021
 30
0.0
 10
-15.28406
 20
13.10021
 30
0.0
 10
-15.28406
 20
13.10021
 30
0.0
 10
-15.23081
 20
13.37792
 30
0.0
 10
-15.23081
 20
13.37792
 30
0.0
 10
-15.1362
 20
13.87158
 30
0.0
 10
-15.16718
 20
14.03064
 30
0.0
 10
-15.39987
 20
14.24598
 30
0.0
 10
-15.49427
 20
14.33332
 30
0.0
 10
-15.52361
 20
14.38434
 30
0.0
 10
-15.52371
 20
14.46137
 30
0.0
 10
-15.52383
 20
14.58568
 30
0.0
 10
-15.62892
 20
14.76562
 30
0.0
 10
-15.70397
 20
14.77012
 30
0.0
 10
-15.94034
 20
14.78431
 30
0.0
 10
-16.03197
 20
14.74423
 30
0.0
 10
-16.10239
 20
14.59587
 30
0.0
 10
-16.10239
 20
14.59587
 30
0.0
 10
-16.15467
 20
14.48565
 30
0.0
 10
-16.15467
 20
14.48565
 30
0.0
 10
-16.15467
 20
14.48565
 30
0.0
 10
-16.07503
 20
14.35949
 30
0.0
 10
-16.07503
 20
14.35949
 30
0.0
 10
-16.03121
 20
14.2901
 30
0.0
 10
-15.9946
 20
14.22242
 30
0.0
 10
-15.99366
 20
14.20911
 30
0.0
 10
-15.99268
 20
14.19578
 30
0.0
 10
-15.94928
 20
14.15117
 30
0.0
 10
-15.89716
 20
14.10997
 30
0.0
 10
-15.82661
 20
14.05417
 30
0.0
 10
-15.7933
 20
14.04414
 30
0.0
 10
-15.76678
 20
14.07065
 30
0.0
 10
-15.74719
 20
14.09025
 30
0.0
 10
-15.71985
 20
14.10626
 30
0.0
 10
-15.70601
 20
14.10626
 30
0.0
 10
-15.65952
 20
14.10626
 30
0.0
 10
-15.68028
 20
13.95402
 30
0.0
 10
-15.73413
 20
13.9002
 30
0.0
 10
-15.73413
 20
13.9002
 30
0.0
 10
-15.78742
 20
13.84692
 30
0.0
 10
-15.78742
 20
13.84692
 30
0.0
 10
-15.78742
 20
13.84692
 30
0.0
 10
-15.80924
 20
13.9058
 30
0.0
 10
-15.80924
 20
13.9058
 30
0.0
 10
-15.82359
 20
13.94449
 30
0.0
 10
-15.83909
 20
13.89722
 30
0.0
 10
-15.85438
 20
13.76813
 30
0.0
 10
-15.86721
 20
13.65999
 30
0.0
 10
-15.88514
 20
13.57155
 30
0.0
 10
-15.89426
 20
13.57155
 30
0.0
 10
-15.90335
 20
13.57155
 30
0.0
 10
-15.95815
 20
13.60765
 30
0.0
 10
-16.01602
 20
13.65178
 30
0.0
 10
-16.13017
 20
13.73885
 30
0.0
 10
-16.15788
 20
13.86529
 30
0.0
 10
-16.07018
 20
13.89892
 30
0.0
 10
-16.00728
 20
13.92307
 30
0.0
 10
-16.03379
 20
14.10579
 30
0.0
 10
-16.10607
 20
14.14624
 30
0.0
 10
-16.13171
 20
14.16055
 30
0.0
 10
-16.15266
 20
14.19889
 30
0.0
 10
-16.15266
 20
14.23138
 30
0.0
 10
-16.15266
 20
14.39884
 30
0.0
 10
-16.45351
 20
14.45222
 30
0.0
 10
-16.61484
 20
14.31341
 30
0.0
 10
-16.61484
 20
14.31341
 30
0.0
 10
-16.7031
 20
14.23748
 30
0.0
 10
-16.7031
 20
14.23748
 30
0.0
 10
-16.7031
 20
14.23748
 30
0.0
 10
-16.69363
 20
14.08537
 30
0.0
 10
-16.69363
 20
14.08537
 30
0.0
 10
-16.68844
 20
14.00171
 30
0.0
 10
-16.68492
 20
13.89788
 30
0.0
 10
-16.68583
 20
13.85463
 30
0.0
 10
-16.69086
 20
13.61942
 30
0.0
 10
-16.6818
 20
13.55811
 30
0.0
 10
-16.62588
 20
13.4485
 30
0.0
 10
-16.59216
 20
13.38238
 30
0.0
 10
-16.5285
 20
13.28547
 30
0.0
 10
-16.48443
 20
13.23307
 30
0.0
 10
-16.44036
 20
13.1807
 30
0.0
 10
-16.40429
 20
13.12169
 30
0.0
 10
-16.40429
 20
13.10194
 30
0.0
 10
-16.40429
 20
13.07618
 30
0.0
 10
-16.38708
 20
13.07527
 30
0.0
 10
-16.3433
 20
13.09873
 30
0.0
 10
-16.26866
 20
13.13865
 30
0.0
 10
-16.21201
 20
13.07464
 30
0.0
 10
-16.28558
 20
13.0335
 30
0.0
 10
-16.31464
 20
13.01721
 30
0.0
 10
-16.32744
 20
12.97817
 30
0.0
 10
-16.31873
 20
12.93247
 30
0.0
 10
-16.31873
 20
12.93247
 30
0.0
 10
-16.30448
 20
12.85799
 30
0.0
 10
-16.30448
 20
12.85799
 30
0.0
 10
-16.30448
 20
12.85799
 30
0.0
 10
-16.40935
 20
12.81455
 30
0.0
 10
-16.40935
 20
12.81455
 30
0.0
 10
-16.46704
 20
12.79068
 30
0.0
 10
-16.61688
 20
12.67011
 30
0.0
 10
-16.74232
 20
12.54669
 30
0.0
 10
-16.74232
 20
12.54669
 30
0.0
 10
-16.97045
 20
12.32224
 30
0.0
 10
-16.97045
 20
12.32224
 30
0.0
 10
-16.97045
 20
12.32224
 30
0.0
 10
-16.97045
 20
12.21856
 30
0.0
 10
-16.97045
 20
12.21856
 30
0.0
 10
-16.97045
 20
12.15537
 30
0.0
 10
-17.00241
 20
12.073
 30
0.0
 10
-17.05226
 20
12.00764
 30
0.0
 10
-17.09727
 20
11.94863
 30
0.0
 10
-17.12568
 20
11.89198
 30
0.0
 10
-17.11545
 20
11.88173
 30
0.0
 10
-17.1052
 20
11.8715
 30
0.0
 10
-17.11259
 20
11.84411
 30
0.0
 10
-17.13184
 20
11.8209
 30
0.0
 10
-17.15112
 20
11.79768
 30
0.0
 10
-17.15738
 20
11.77868
 30
0.0
 10
-17.14577
 20
11.77868
 30
0.0
 10
-17.1342
 20
11.77868
 30
0.0
 10
-17.16823
 20
11.71543
 30
0.0
 10
-17.22142
 20
11.63809
 30
0.0
 10
-17.22142
 20
11.63809
 30
0.0
 10
-17.31817
 20
11.49749
 30
0.0
 10
-17.31817
 20
11.49749
 30
0.0
 10
-17.31817
 20
11.49749
 30
0.0
 10
-17.27939
 20
11.43543
 30
0.0
 10
-17.27939
 20
11.43543
 30
0.0
 10
-17.2581
 20
11.4013
 30
0.0
 10
-17.20815
 20
11.36523
 30
0.0
 10
-17.16845
 20
11.35525
 30
0.0
 10
-17.12876
 20
11.34528
 30
0.0
 10
-17.09627
 20
11.31644
 30
0.0
 10
-17.09627
 20
11.29115
 30
0.0
 10
-17.09627
 20
11.24158
 30
0.0
 10
-16.96249
 20
11.19427
 30
0.0
 10
-16.91151
 20
11.22579
 30
0.0
 10
-16.89443
 20
11.23636
 30
0.0
 10
-16.87156
 20
11.2306
 30
0.0
 10
-16.86068
 20
11.21302
 30
0.0
 10
-16.84983
 20
11.19544
 30
0.0
 10
-16.78516
 20
11.18106
 30
0.0
 10
-16.71697
 20
11.18106
 30
0.0
 10
-16.58301
 20
11.18106
 30
0.0
 10
-16.57219
 20
11.161
 30
0.0
 10
-16.62226
 20
11.00489
 30
0.0
 10
-16.63833
 20
10.95475
 30
0.0
 10
-16.66095
 20
10.81567
 30
0.0
 10
-16.67252
 20
10.69583
 30
0.0
 10
-16.67252
 20
10.69583
 30
0.0
 10
-16.69356
 20
10.47798
 30
0.0
 10
-16.69356
 20
10.47798
 30
0.0
 10
-16.69356
 20
10.47798
 30
0.0
 10
-16.78484
 20
10.3979
 30
0.0
 10
-16.78484
 20
10.3979
 30
0.0
 10
-16.83501
 20
10.35383
 30
0.0
 10
-16.87609
 20
10.2958
 30
0.0
 10
-16.87609
 20
10.26891
 30
0.0
 10
-16.87609
 20
10.24201
 30
0.0
 10
-16.8983
 20
10.18829
 30
0.0
 10
-16.92547
 20
10.14951
 30
0.0
 10
-16.95262
 20
10.11073
 30
0.0
 10
-16.96919
 20
10.05452
 30
0.0
 10
-16.96227
 20
10.02454
 30
0.0
 10
-16.95227
 20
9.98126
 30
0.0
 10
-16.94111
 20
9.98784
 30
0.0
 10
-16.90783
 20
10.05659
 30
0.0
 10
-16.85382
 20
10.16825
 30
0.0
 10
-16.81318
 20
10.16693
 30
0.0
 10
-16.81318
 20
10.05351
 30
0.0
 10
-16.81318
 20
10.05351
 30
0.0
 10
-16.81318
 20
9.96396
 30
0.0
 10
-16.81318
 20
9.96396
 30
0.0
 10
-16.81318
 20
9.96396
 30
0.0
 10
-17.34003
 20
9.94522
 30
0.0
 10
-17.34003
 20
9.94522
 30
0.0
 10
-17.34003
 20
9.94522
 30
0.0
 10
-17.86688
 20
9.92647
 30
0.0
 10
-17.86688
 20
9.92647
 30
0.0
 10
-17.86688
 20
9.92647
 30
0.0
 10
-18.24735
 20
9.83142
 30
0.0
 10
-18.24735
 20
9.83142
 30
0.0
 10
-18.9036
 20
9.66742
 30
0.0
 10
-19.45407
 20
9.43277
 30
0.0
 10
-19.90216
 20
9.126
 30
0.0
 10
-19.90216
 20
9.126
 30
0.0
 10
-20.10912
 20
8.98431
 30
0.0
 10
-20.10912
 20
8.98431
 30
0.0
 10
-20.10912
 20
8.98431
 30
0.0
 10
-20.13608
 20
9.603
 30
0.0
 10
-20.13608
 20
9.603
 30
0.0
 10
-20.17417
 20
10.47829
 30
0.0
 10
-20.16524
 20
12.16
 30
0.0
 10
-20.11994
 20
12.64366
 30
0.0
 10
-20.0102
 20
13.81471
 30
0.0
 10
-19.81714
 20
14.59524
 30
0.0
 10
-19.49436
 20
15.17238
 30
0.0
 10
-19.04819
 20
15.9702
 30
0.0
 10
-18.12156
 20
16.64366
 30
0.0
 10
-17.15367
 20
16.87352
 30
0.0
 10
-16.5752
 20
17.01091
 30
0.0
 10
-15.72803
 20
17.02645
 30
0.0
 10
-15.20904
 20
16.90919
 30
0.0
  0
SPLINE
  5
7C
330
1F
100
AcDbEntity
  8
Layer 1
370
    30
100
AcDbSpline
210
0.0
220
0.0
230
1.0
 70
    11
 71
     3
 72
    35
 73
    31
 74
     0
 42
0.0000000001
 43
0.0000000001
 40
0.0
 40
0.0
 40
0.0
 40
0.0
 40
0.1
 40
0.1
 40
0.1
 40
0.2
 40
0.2
 40
0.2
 40
0.3
 40
0.3
 40
0.3
 40
0.4
 40
0.4
 40
0.4
 40
0.5
 40
0.5
 40
0.5
 40
0.6000000000000001
 40
0.6000000000000001
 40
0.6000000000000001
 40
0.7000000000000001
 40
0.7000000000000001
 40
0.7000000000000001
 40
0.8
 40
0.8
 40
0.8
 40
0.9
 40
0.9
 40
0.9
 40
1.0
 40
1.0
 40
1.0
 40
1.0
 10
-15.84101
 20
11.02999
 30
0.0
 10
-15.81664
 20
11.02477
 30
0.0
 10
-15.78556
 20
11.03852
 30
0.0
 10
-15.77194
 20
11.06053
 30
0.0
 10
-15.73467
 20
11.12083
 30
0.0
 10
-15.70513
 20
11.07242
 30
0.0
 10
-15.6778
 20
10.90616
 30
0.0
 10
-15.64823
 20
10.72653
 30
0.0
 10
-15.64732
 20
10.18857
 30
0.0
 10
-15.67638
 20
10.08503
 30
0.0
 10
-15.70296
 20
9.99051
 30
0.0
 10
-15.92625
 20
9.90319
 30
0.0
 10
-15.98671
 20
9.96368
 30
0.0
 10
-16.02898
 20
10.00595
 30
0.0
 10
-16.07465
 20
10.30989
 30
0.0
 10
-16.10724
 20
10.76578
 30
0.0
 10
-16.10724
 20
10.76578
 30
0.0
 10
-16.12812
 20
11.05817
 30
0.0
 10
-16.12812
 20
11.05817
 30
0.0
 10
-16.12812
 20
11.05817
 30
0.0
 10
-16.04946
 20
11.03845
 30
0.0
 10
-16.04946
 20
11.03845
 30
0.0
 10
-16.00259
 20
11.02669
 30
0.0
 10
-15.96148
 20
11.0338
 30
0.0
 10
-15.9477
 20
11.05607
 30
0.0
 10
-15.935
 20
11.07661
 30
0.0
 10
-15.91578
 20
11.08129
 30
0.0
 10
-15.90496
 20
11.06648
 30
0.0
 10
-15.89414
 20
11.05166
 30
0.0
 10
-15.86536
 20
11.03524
 30
0.0
 10
-15.84101
 20
11.02999
 30
0.0
  0
SPLINE
  5
7D
330
1F
100
AcDbEntity
  8
Layer 1
370
    30
100
AcDbSpline
210
0.0
220
0.0
230
1.0
 70
    11
 71
     3
 72
    29
 73
    25
 74
     0
 42
0.0000000001
 43
0.0000000001
 40
0.0
 40
0.0
 40
0.0
 40
0.0
 40
0.125
 40
0.125
 40
0.125
 40
0.25
 40
0.25
 40
0.25
 40
0.375
 40
0.375
 40
0.375
 40
0.5
 40
0.5
 40
0.5
 40
0.625
 40
0.625
 40
0.625
 40
0.75
 40
0.75
 40
0.75
 40
0.875
 40
0.875
 40
0.875
 40
1.0
 40
1.0
 40
1.0
 40
1.0
 10
-16.29675
 20
10.60785
 30
0.0
 10
-16.29675
 20
10.60785
 30
0.0
 10
-16.2445
 20
10.39636
 30
0.0
 10
-16.2445
 20
10.39636
 30
0.0
 10
-16.2445
 20
10.39636
 30
0.0
 10
-16.297
 20
10.31624
 30
0.0
 10
-16.297
 20
10.31624
 30
0.0
 10
-16.327
 20
10.27042
 30
0.0
 10
-16.35053
 20
10.16901
 30
0.0
 10
-16.35191
 20
10.07952
 30
0.0
 10
-16.35191
 20
10.07952
 30
0.0
 10
-16.35431
 20
9.92292
 30
0.0
 10
-16.35431
 20
9.92292
 30
0.0
 10
-16.35431
 20
9.92292
 30
0.0
 10
-16.47465
 20
9.92292
 30
0.0
 10
-16.47465
 20
9.92292
 30
0.0
 10
-16.55218
 20
9.92292
 30
0.0
 10
-16.60137
 20
9.93955
 30
0.0
 10
-16.61295
 20
9.96972
 30
0.0
 10
-16.64755
 20
10.05993
 30
0.0
 10
-16.41032
 20
10.93377
 30
0.0
 10
-16.3711
 20
10.86058
 30
0.0
 10
-16.35893
 20
10.8379
 30
0.0
 10
-16.32549
 20
10.72417
 30
0.0
 10
-16.29675
 20
10.60785
 30
0.0
  0
SPLINE
  5
7E
330
1F
100
AcDbEntity
  8
Layer 1
370
    30
100
AcDbSpline
210
0.0
220
0.0
230
1.0
 70
    11
 71
     3
 72
    29
 73
    25
 74
     0
 42
0.0000000001
 43
0.0000000001
 40
0.0
 40
0.0
 40
0.0
 40
0.0
 40
0.125
 40
0.125
 40
0.125
 40
0.25
 40
0.25
 40
0.25
 40
0.375
 40
0.375
 40
0.375
 40
0.5
 40
0.5
 40
0.5
 40
0.625
 40
0.625
 40
0.625
 40
0.75
 40
0.75
 40
0.75
 40
0.875
 40
0.875
 40
0.875
 40
1.0
 40
1.0
 40
1.0
 40
1.0
 10
-8.17952
 20
9.69903
 30
0.0
 10
-8.01536
 20
9.65345
 30
0.0
 10
-7.86064
 20
9.48797
 30
0.0
 10
-7.83384
 20
9.32935
 30
0.0
 10
-7.79522
 20
9.10075
 30
0.0
 10
-7.86489
 20
8.95848
 30
0.0
 10
-8.1565
 20
8.67059
 30
0.0
 10
-8.43439
 20
8.39622
 30
0.0
 10
-8.51859
 20
8.35583
 30
0.0
 10
-8.36469
 20
8.57075
 30
0.0
 10
-8.31452
 20
8.64077
 30
0.0
 10
-8.22771
 20
8.76259
 30
0.0
 10
-8.17175
 20
8.84144
 30
0.0
 10
-8.03729
 20
9.03089
 30
0.0
 10
-7.98963
 20
9.20907
 30
0.0
 10
-8.03389
 20
9.35681
 30
0.0
 10
-8.08469
 20
9.52635
 30
0.0
 10
-8.22475
 20
9.64383
 30
0.0
 10
-8.39954
 20
9.66355
 30
0.0
 10
-8.49604
 20
9.6744
 30
0.0
 10
-8.53177
 20
9.68915
 30
0.0
 10
-8.50415
 20
9.70664
 30
0.0
 10
-8.44653
 20
9.74319
 30
0.0
 10
-8.32864
 20
9.74042
 30
0.0
 10
-8.17952
 20
9.69903
 30
0.0
  0
SPLINE
  5
7F
330
1F
100
AcDbEntity
  8
Layer 1
370
    30
100
AcDbSpline
210
0.0
220
0.0
230
1.0
 70
    11
 71
     3
 72
    35
 73
    31
 74
     0
 42
0.0000000001
 43
0.0000000001
 40
0.0
 40
0.0
 40
0.0
 40
0.0
 40
0.1
 40
0.1
 40
0.1
 40
0.2
 40
0.2
 40
0.2
 40
0.3
 40
0.3
 40
0.3
 40
0.4
 40
0.4
 40
0.4
 40
0.5
 40
0.5
 40
0.5
 40
0.6000000000000001
 40
0.6000000000000001
 40
0.6000000000000001
 40
0.7000000000000001
 40
0.7000000000000001
 40
0.7000000000000001
 40
0.8
 40
0.8
 40
0.8
 40
0.9
 40
0.9
 40
0.9
 40
1.0
 40
1.0
 40
1.0
 40
1.0
 10
-9.05985
 20
9.36518
 30
0.0
 10
-9.14339
 20
9.34433
 30
0.0
 10
-9.16886
 20
9.2995
 30
0.0
 10
-9.16946
 20
9.17249
 30
0.0
 10
-9.16946
 20
9.17249
 30
0.0
 10
-9.16993
 20
9.06684
 30
0.0
 10
-9.16993
 20
9.06684
 30
0.0
 10
-9.16993
 20
9.06684
 30
0.0
 10
-9.08866
 20
9.08725
 30
0.0
 10
-9.08866
 20
9.08725
 30
0.0
 10
-9.03402
 20
9.10097
 30
0.0
 10
-9.0143
 20
9.09644
 30
0.0
 10
-9.02849
 20
9.07351
 30
0.0
 10
-9.04009
 20
9.05473
 30
0.0
 10
-9.11844
 20
9.0425
 30
0.0
 10
-9.20255
 20
9.04633
 30
0.0
 10
-9.28669
 20
9.05017
 30
0.0
 10
-9.34831
 20
9.06495
 30
0.0
 10
-9.3395
 20
9.0792
 30
0.0
 10
-9.33069
 20
9.09345
 30
0.0
 10
-9.30311
 20
9.10512
 30
0.0
 10
-9.27817
 20
9.10512
 30
0.0
 10
-9.25049
 20
9.10512
 30
0.0
 10
-9.23284
 20
9.13651
 30
0.0
 10
-9.23284
 20
9.18583
 30
0.0
 10
-9.23284
 20
9.31586
 30
0.0
 10
-9.17773
 20
9.38864
 30
0.0
 10
-9.08234
 20
9.38455
 30
0.0
 10
-9.01616
 20
9.38172
 30
0.0
 10
-9.01109
 20
9.37738
 30
0.0
 10
-9.05985
 20
9.36518
 30
0.0
  0
SPLINE
  5
80
330
1F
100
AcDbEntity
  8
Layer 1
370
    30
100
AcDbSpline
210
0.0
220
0.0
230
1.0
 70
    11
 71
     3
 72
    29
 73
    25
 74
     0
 42
0.0000000001
 43
0.0000000001
 40
0.0
 40
0.0
 40
0.0
 40
0.0
 40
0.125
 40
0.125
 40
0.125
 40
0.25
 40
0.25
 40
0.25
 40
0.375
 40
0.375
 40
0.375
 40
0.5
 40
0.5
 40
0.5
 40
0.625
 40
0.625
 40
0.625
 40
0.75
 40
0.75
 40
0.75
 40
0.875
 40
0.875
 40
0.875
 40
1.0
 40
1.0
 40
1.0
 40
1.0
 10
-8.56206
 20
9.19162
 30
0.0
 10
-8.56206
 20
9.19162
 30
0.0
 10
-8.51271
 20
9.12085
 30
0.0
 10
-8.51271
 20
9.12085
 30
0.0
 10
-8.51271
 20
9.12085
 30
0.0
 10
-8.51104
 20
9.19162
 30
0.0
 10
-8.51104
 20
9.19162
 30
0.0
 10
-8.50947
 20
9.25949
 30
0.0
 10
-8.4465
 20
9.29677
 30
0.0
 10
-8.4465
 20
9.22983
 30
0.0
 10
-8.4465
 20
9.18508
 30
0.0
 10
-8.54246
 20
9.04221
 30
0.0
 10
-8.57253
 20
9.04221
 30
0.0
 10
-8.58596
 20
9.04221
 30
0.0
 10
-8.60584
 20
9.0776
 30
0.0
 10
-8.6167
 20
9.12085
 30
0.0
 10
-8.62755
 20
9.1641
 30
0.0
 10
-8.65114
 20
9.19948
 30
0.0
 10
-8.66913
 20
9.19948
 30
0.0
 10
-8.68712
 20
9.19948
 30
0.0
 10
-8.6931
 20
9.21363
 30
0.0
 10
-8.6824
 20
9.23093
 30
0.0
 10
-8.65195
 20
9.28022
 30
0.0
 10
-8.61559
 20
9.26833
 30
0.0
 10
-8.56206
 20
9.19162
 30
0.0
  0
SPLINE
  5
81
330
1F
100
AcDbEntity
  8
Layer 1
370
    30
100
AcDbSpline
210
0.0
220
0.0
230
1.0
 70
    11
 71
     3
 72
    29
 73
    25
 74
     0
 42
0.0000000001
 43
0.0000000001
 40
0.0
 40
0.0
 40
0.0
 40
0.0
 40
0.125
 40
0.125
 40
0.125
 40
0.25
 40
0.25
 40
0.25
 40
0.375
 40
0.375
 40
0.375
 40
0.5
 40
0.5
 40
0.5
 40
0.625
 40
0.625
 40
0.625
 40
0.75
 40
0.75
 40
0.75
 40
0.875
 40
0.875
 40
0.875
 40
1.0
 40
1.0
 40
1.0
 40
1.0
 10
-8.22632
 20
9.23273
 30
0.0
 10
-8.22632
 20
9.2164
 30
0.0
 10
-8.25454
 20
9.18328
 30
0.0
 10
-8.28904
 20
9.15913
 30
0.0
 10
-8.32352
 20
9.13497
 30
0.0
 10
-8.34251
 20
9.10597
 30
0.0
 10
-8.33125
 20
9.09471
 30
0.0
 10
-8.31996
 20
9.08345
 30
0.0
 10
-8.28945
 20
9.09178
 30
0.0
 10
-8.26341
 20
9.11327
 30
0.0
 10
-8.26341
 20
9.11327
 30
0.0
 10
-8.2161
 20
9.1523
 30
0.0
 10
-8.2161
 20
9.1523
 30
0.0
 10
-8.2161
 20
9.1523
 30
0.0
 10
-8.23167
 20
9.10512
 30
0.0
 10
-8.23167
 20
9.10512
 30
0.0
 10
-8.25098
 20
9.04668
 30
0.0
 10
-8.34748
 20
9.02498
 30
0.0
 10
-8.39161
 20
9.06911
 30
0.0
 10
-8.41435
 20
9.09185
 30
0.0
 10
-8.40828
 20
9.12648
 30
0.0
 10
-8.37183
 20
9.18215
 30
0.0
 10
-8.32081
 20
9.25997
 30
0.0
 10
-8.22632
 20
9.2928
 30
0.0
 10
-8.22632
 20
9.23273
 30
0.0
  0
SPLINE
  5
82
330
1F
100
AcDbEntity
  8
Layer 1
370
    30
100
AcDbSpline
210
0.0
220
0.0
230
1.0
 70
    11
 71
     3
 72
    14
 73
    10
 74
     0
 42
0.0000000001
 43
0.0000000001
 40
0.0
 40
0.0
 40
0.0
 40
0.0
 40
0.3333333333333333
 40
0.3333333333333333
 40
0.3333333333333333
 40
0.6666666666666666
 40
0.6666666666666666
 40
0.6666666666666666
 40
1.0
 40
1.0
 40
1.0
 40
1.0
 10
-8.74191
 20
9.21766
 30
0.0
 10
-8.71631
 20
9.15095
 30
0.0
 10
-8.78617
 20
9.04221
 30
0.0
 10
-8.85464
 20
9.04221
 30
0.0
 10
-8.9396
 20
9.04221
 30
0.0
 10
-8.96385
 20
9.09867
 30
0.0
 10
-8.9167
 20
9.18674
 30
0.0
 10
-8.87219
 20
9.26987
 30
0.0
 10
-8.76896
 20
9.28815
 30
0.0
 10
-8.74191
 20
9.21766
 30
0.0
  0
SPLINE
  5
83
330
1F
100
AcDbEntity
  8
Layer 1
370
    30
100
AcDbSpline
210
0.0
220
0.0
230
1.0
 70
    11
 71
     3
 72
    17
 73
    13
 74
     0
 42
0.0000000001
 43
0.0000000001
 40
0.0
 40
0.0
 40
0.0
 40
0.0
 40
0.25
 40
0.25
 40
0.25
 40
0.5
 40
0.5
 40
0.5
 40
0.75
 40
0.75
 40
0.75
 40
1.0
 40
1.0
 40
1.0
 40
1.0
 10
-9.37828
 20
8.82204
 30
0.0
 10
-9.24646
 20
8.65769
 30
0.0
 10
-9.13861
 20
8.50983
 30
0.0
 10
-9.13854
 20
8.49347
 30
0.0
 10
-9.13839
 20
8.42729
 30
0.0
 10
-9.5001
 20
8.80518
 30
0.0
 10
-9.58537
 20
8.96024
 30
0.0
 10
-9.63171
 20
9.04448
 30
0.0
 10
-9.66432
 20
9.1719
 30
0.0
 10
-9.62982
 20
9.13396
 30
0.0
 10
-9.62328
 20
9.12673
 30
0.0
 10
-9.51007
 20
8.98638
 30
0.0
 10
-9.37828
 20
8.82204
 30
0.0
  0
SPLINE
  5
84
330
1F
100
AcDbEntity
  8
Layer 1
370
    30
100
AcDbSpline
210
0.0
220
0.0
230
1.0
 70
    11
 71
     3
 72
    23
 73
    19
 74
     0
 42
0.0000000001
 43
0.0000000001
 40
0.0
 40
0.0
 40
0.0
 40
0.0
 40
0.1666666666666667
 40
0.1666666666666667
 40
0.1666666666666667
 40
0.3333333333333333
 40
0.3333333333333333
 40
0.3333333333333333
 40
0.5
 40
0.5
 40
0.5
 40
0.6666666666666666
 40
0.6666666666666666
 40
0.6666666666666666
 40
0.8333333333333333
 40
0.8333333333333333
 40
0.8333333333333333
 40
1.0
 40
1.0
 40
1.0
 40
1.0
 10
-17.81728
 20
3.60314
 30
0.0
 10
-17.74921
 20
3.53508
 30
0.0
 10
-17.72534
 20
3.48136
 30
0.0
 10
-17.72534
 20
3.39627
 30
0.0
 10
-17.72534
 20
3.31119
 30
0.0
 10
-17.74921
 20
3.25747
 30
0.0
 10
-17.81728
 20
3.1894
 30
0.0
 10
-17.88535
 20
3.12134
 30
0.0
 10
-17.93907
 20
3.09746
 30
0.0
 10
-18.02415
 20
3.09746
 30
0.0
 10
-18.18397
 20
3.09746
 30
0.0
 10
-18.32296
 20
3.23646
 30
0.0
 10
-18.32296
 20
3.39627
 30
0.0
 10
-18.32296
 20
3.55609
 30
0.0
 10
-18.18397
 20
3.69508
 30
0.0
 10
-18.02415
 20
3.69508
 30
0.0
 10
-17.93907
 20
3.69508
 30
0.0
 10
-17.88535
 20
3.67121
 30
0.0
 10
-17.81728
 20
3.60314
 30
0.0
  0
SPLINE
  5
85
330
1F
100
AcDbEntity
  8
Layer 1
370
    30
100
AcDbSpline
210
0.0
220
0.0
230
1.0
 70
    11
 71
     3
 72
    20
 73
    16
 74
     0
 42
0.0000000001
 43
0.0000000001
 40
0.0
 40
0.0
 40
0.0
 40
0.0
 40
0.2
 40
0.2
 40
0.2
 40
0.4
 40
0.4
 40
0.4
 40
0.6000000000000001
 40
0.6000000000000001
 40
0.6000000000000001
 40
0.8
 40
0.8
 40
0.8
 40
1.0
 40
1.0
 40
1.0
 40
1.0
 10
-11.55799
 20
3.57169
 30
0.0
 10
-11.36289
 20
3.37658
 30
0.0
 10
-11.50977
 20
3.06601
 30
0.0
 10
-11.79717
 20
3.06601
 30
0.0
 10
-11.92355
 20
3.06601
 30
0.0
 10
-12.06367
 20
3.22312
 30
0.0
 10
-12.06367
 20
3.36482
 30
0.0
 10
-12.06367
 20
3.4499
 30
0.0
 10
-12.0398
 20
3.50362
 30
0.0
 10
-11.97174
 20
3.57169
 30
0.0
 10
-11.90367
 20
3.63976
 30
0.0
 10
-11.84995
 20
3.66363
 30
0.0
 10
-11.76486
 20
3.66363
 30
0.0
 10
-11.67978
 20
3.66363
 30
0.0
 10
-11.62606
 20
3.63976
 30
0.0
 10
-11.55799
 20
3.57169
 30
0.0
  0
SPLINE
  5
86
330
1F
100
AcDbEntity
  8
Layer 1
 62
    11
370
    30
100
AcDbSpline
210
0.0
220
0.0
230
1.0
 70
    11
 71
     3
 72
    14
 73
    10
 74
     0
 42
0.0000000001
 43
0.0000000001
 40
0.0
 40
0.0
 40
0.0
 40
0.0
 40
0.3333333333333333
 40
0.3333333333333333
 40
0.3333333333333333
 40
0.6666666666666666
 40
0.6666666666666666
 40
0.6666666666666666
 40
1.0
 40
1.0
 40
1.0
 40
1.0
 10
-45.30102
 20
-4.15962
 30
0.0
 10
-45.20964
 20
-4.166
 30
0.0
 10
-45.0681
 20
-4.16594
 30
0.0
 10
-44.98648
 20
-4.15949
 30
0.0
 10
-44.90489
 20
-4.15301
 30
0.0
 10
-44.97969
 20
-4.14782
 30
0.0
 10
-45.15268
 20
-4.14788
 30
0.0
 10
-45.32568
 20
-4.14798
 30
0.0
 10
-45.39242
 20
-4.15326
 30
0.0
 10
-45.30102
 20
-4.15962
 30
0.0
  0
SPLINE
  5
87
330
1F
100
AcDbEntity
  8
Layer 1
 62
    11
370
    30
100
AcDbSpline
210
0.0
220
0.0
230
1.0
 70
    11
 71
     3
 72
    14
 73
    10
 74
     0
 42
0.0000000001
 43
0.0000000001
 40
0.0
 40
0.0
 40
0.0
 40
0.0
 40
0.3333333333333333
 40
0.3333333333333333
 40
0.3333333333333333
 40
0.6666666666666666
 40
0.6666666666666666
 40
0.6666666666666666
 40
1.0
 40
1.0
 40
1.0
 40
1.0
 10
-43.71037
 20
-4.31784
 30
0.0
 10
-43.71047
 20
-4.47354
 30
0.0
 10
-43.70515
 20
-4.54119
 30
0.0
 10
-43.69854
 20
-4.46819
 30
0.0
 10
-43.69197
 20
-4.39519
 30
0.0
 10
-43.69188
 20
-4.2678
 30
0.0
 10
-43.69839
 20
-4.18511
 30
0.0
 10
-43.70487
 20
-4.10242
 30
0.0
 10
-43.71028
 20
-4.16215
 30
0.0
 10
-43.71037
 20
-4.31784
 30
0.0
  0
SPLINE
  5
88
330
1F
100
AcDbEntity
  8
Layer 1
 62
     1
370
    30
100
AcDbSpline
210
0.0
220
0.0
230
1.0
 70
    11
 71
     3
 72
    65
 73
    61
 74
     0
 42
0.0000000001
 43
0.0000000001
 40
0.0
 40
0.0
 40
0.0
 40
0.0
 40
0.05
 40
0.05
 40
0.05
 40
0.1
 40
0.1
 40
0.1
 40
0.15
 40
0.15
 40
0.15
 40
0.2
 40
0.2
 40
0.2
 40
0.25
 40
0.25
 40
0.25
 40
0.3
 40
0.3
 40
0.3
 40
0.35
 40
0.35
 40
0.35
 40
0.4
 40
0.4
 40
0.4
 40
0.45
 40
0.45
 40
0.45
 40
0.5
 40
0.5
 40
0.5
 40
0.55
 40
0.55
 40
0.55
 40
0.6000000000000001
 40
0.6000000000000001
 40
0.6000000000000001
 40
0.65
 40
0.65
 40
0.65
 40
0.7000000000000001
 40
0.7000000000000001
 40
0.7000000000000001
 40
0.75
 40
0.75
 40
0.75
 40
0.8
 40
0.8
 40
0.8
 40
0.8500000000000001
 40
0.8500000000000001
 40
0.8500000000000001
 40
0.9
 40
0.9
 40
0.9
 40
0.9500000000000001
 40
0.9500000000000001
 40
0.9500000000000001
 40
1.0
 40
1.0
 40
1.0
 40
1.0
 10
-64.67387
 20
8.28015
 30
0.0
 10
-64.78038
 20
7.12571
 30
0.0
 10
-65.2872
 20
6.06108
 30
0.0
 10
-66.10878
 20
5.26611
 30
0.0
 10
-66.82001
 20
4.5779
 30
0.0
 10
-67.81771
 20
4.1763
 30
0.0
 10
-69.25573
 20
3.99932
 30
0.0
 10
-69.84791
 20
3.92646
 30
0.0
 10
-71.00746
 20
3.8773
 30
0.0
 10
-71.66983
 20
3.89699
 30
0.0
 10
-71.99845
 20
3.90677
 30
0.0
 10
-74.03619
 20
3.98765
 30
0.0
 10
-76.19813
 20
4.07674
 30
0.0
 10
-76.19813
 20
4.07674
 30
0.0
 10
-80.12896
 20
4.23875
 30
0.0
 10
-80.12896
 20
4.23875
 30
0.0
 10
-80.12896
 20
4.23875
 30
0.0
 10
-80.20757
 20
4.29441
 30
0.0
 10
-80.20757
 20
4.29441
 30
0.0
 10
-80.20757
 20
4.29441
 30
0.0
 10
-80.28619
 20
4.35005
 30
0.0
 10
-80.28619
 20
4.35005
 30
0.0
 10
-80.28619
 20
4.35005
 30
0.0
 10
-80.28754
 20
8.40326
 30
0.0
 10
-80.28754
 20
8.40326
 30
0.0
 10
-80.28911
 20
13.05493
 30
0.0
 10
-80.27726
 20
13.61928
 30
0.0
 10
-80.15613
 20
14.6577
 30
0.0
 10
-79.94952
 20
16.42887
 30
0.0
 10
-79.51399
 20
17.47774
 30
0.0
 10
-78.65009
 20
18.28453
 30
0.0
 10
-77.43531
 20
19.419
 30
0.0
 10
-75.72694
 20
19.81623
 30
0.0
 10
-74.1781
 20
19.32438
 30
0.0
 10
-74.00923
 20
19.27076
 30
0.0
 10
-73.70754
 20
19.1428
 30
0.0
 10
-73.50766
 20
19.04004
 30
0.0
 10
-72.43615
 20
18.48906
 30
0.0
 10
-71.63149
 20
17.53277
 30
0.0
 10
-71.26467
 20
16.37437
 30
0.0
 10
-71.08721
 20
15.81393
 30
0.0
 10
-71.04592
 20
15.5461
 30
0.0
 10
-71.04611
 20
14.95645
 30
0.0
 10
-71.04631
 20
14.40009
 30
0.0
 10
-71.08961
 20
14.07424
 30
0.0
 10
-71.22564
 20
13.60486
 30
0.0
 10
-71.26816
 20
13.45817
 30
0.0
 10
-71.29715
 20
13.3288
 30
0.0
 10
-71.29005
 20
13.31733
 30
0.0
 10
-71.28297
 20
13.30585
 30
0.0
 10
-71.1674
 20
13.33059
 30
0.0
 10
-71.03325
 20
13.37225
 30
0.0
 10
-70.39797
 20
13.56965
 30
0.0
 10
-69.49111
 20
13.63207
 30
0.0
 10
-68.8239
 20
13.52428
 30
0.0
 10
-67.34582
 20
13.28553
 30
0.0
 10
-66.02293
 20
12.36434
 30
0.0
 10
-65.28799
 20
11.06197
 30
0.0
 10
-64.81494
 20
10.22376
 30
0.0
 10
-64.589
 20
9.2003
 30
0.0
 10
-64.67387
 20
8.28015
 30
0.0
  0
SPLINE
  5
89
330
1F
100
AcDbEntity
  8
Layer 1
 62
     1
370
    30
100
AcDbSpline
210
0.0
220
0.0
230
1.0
 70
    11
 71
     3
 72
    29
 73
    25
 74
     0
 42
0.0000000001
 43
0.0000000001
 40
0.0
 40
0.0
 40
0.0
 40
0.0
 40
0.125
 40
0.125
 40
0.125
 40
0.25
 40
0.25
 40
0.25
 40
0.375
 40
0.375
 40
0.375
 40
0.5
 40
0.5
 40
0.5
 40
0.625
 40
0.625
 40
0.625
 40
0.75
 40
0.75
 40
0.75
 40
0.875
 40
0.875
 40
0.875
 40
1.0
 40
1.0
 40
1.0
 40
1.0
 10
-74.90883
 20
7.44071
 30
0.0
 10
-74.90883
 20
7.44071
 30
0.0
 10
-75.33335
 20
7.4407
 30
0.0
 10
-75.33335
 20
7.4407
 30
0.0
 10
-75.33335
 20
7.4407
 30
0.0
 10
-75.33335
 20
6.87466
 30
0.0
 10
-75.33335
 20
6.87466
 30
0.0
 10
-75.33335
 20
6.87466
 30
0.0
 10
-75.33336
 20
6.30863
 30
0.0
 10
-75.33336
 20
6.30863
 30
0.0
 10
-75.33336
 20
6.30863
 30
0.0
 10
-74.90883
 20
6.30863
 30
0.0
 10
-74.90883
 20
6.30863
 30
0.0
 10
-74.90883
 20
6.30863
 30
0.0
 10
-74.48429
 20
6.30863
 30
0.0
 10
-74.48429
 20
6.30863
 30
0.0
 10
-74.48429
 20
6.30863
 30
0.0
 10
-74.48429
 20
6.87467
 30
0.0
 10
-74.48429
 20
6.87467
 30
0.0
 10
-74.48429
 20
6.87467
 30
0.0
 10
-74.48429
 20
7.44071
 30
0.0
 10
-74.48429
 20
7.44071
 30
0.0
 10
-74.48429
 20
7.44071
 30
0.0
 10
-74.90883
 20
7.44071
 30
0.0
 10
-74.90883
 20
7.44071
 30
0.0
  0
SPLINE
  5
8A
330
1F
100
AcDbEntity
  8
Layer 1
 62
     1
370
    30
100
AcDbSpline
210
0.0
220
0.0
230
1.0
 70
    11
 71
     3
 72
    65
 73
    61
 74
     0
 42
0.0000000001
 43
0.0000000001
 40
0.0
 40
0.0
 40
0.0
 40
0.0
 40
0.05
 40
0.05
 40
0.05
 40
0.1
 40
0.1
 40
0.1
 40
0.15
 40
0.15
 40
0.15
 40
0.2
 40
0.2
 40
0.2
 40
0.25
 40
0.25
 40
0.25
 40
0.3
 40
0.3
 40
0.3
 40
0.35
 40
0.35
 40
0.35
 40
0.4
 40
0.4
 40
0.4
 40
0.45
 40
0.45
 40
0.45
 40
0.5
 40
0.5
 40
0.5
 40
0.55
 40
0.55
 40
0.55
 40
0.6000000000000001
 40
0.6000000000000001
 40
0.6000000000000001
 40
0.65
 40
0.65
 40
0.65
 40
0.7000000000000001
 40
0.7000000000000001
 40
0.7000000000000001
 40
0.75
 40
0.75
 40
0.75
 40
0.8
 40
0.8
 40
0.8
 40
0.8500000000000001
 40
0.8500000000000001
 40
0.8500000000000001
 40
0.9
 40
0.9
 40
0.9
 40
0.9500000000000001
 40
0.9500000000000001
 40
0.9500000000000001
 40
1.0
 40
1.0
 40
1.0
 40
1.0
 10
-66.80262
 20
-15.80014
 30
0.0
 10
-66.95221
 20
-16.94979
 30
0.0
 10
-67.49847
 20
-17.99473
 30
0.0
 10
-68.34919
 20
-18.75843
 30
0.0
 10
-69.08564
 20
-19.41958
 30
0.0
 10
-70.09766
 20
-19.7836
 30
0.0
 10
-71.54129
 20
-19.90671
 30
0.0
 10
-72.13578
 20
-19.95739
 30
0.0
 10
-73.29636
 20
-19.96317
 30
0.0
 10
-73.95752
 20
-19.91873
 30
0.0
 10
-74.28554
 20
-19.89668
 30
0.0
 10
-76.31884
 20
-19.73969
 30
0.0
 10
-78.47594
 20
-19.56985
 30
0.0
 10
-78.47594
 20
-19.56985
 30
0.0
 10
-82.39797
 20
-19.26102
 30
0.0
 10
-82.39797
 20
-19.26102
 30
0.0
 10
-82.39797
 20
-19.26102
 30
0.0
 10
-82.47445
 20
-19.20246
 30
0.0
 10
-82.47445
 20
-19.20246
 30
0.0
 10
-82.47445
 20
-19.20246
 30
0.0
 10
-82.55092
 20
-19.14393
 30
0.0
 10
-82.55092
 20
-19.14393
 30
0.0
 10
-82.55092
 20
-19.14393
 30
0.0
 10
-82.40077
 20
-15.0935
 30
0.0
 10
-82.40077
 20
-15.0935
 30
0.0
 10
-82.22847
 20
-10.44503
 30
0.0
 10
-82.19554
 20
-9.88152
 30
0.0
 10
-82.03567
 20
-8.84835
 30
0.0
 10
-81.76301
 20
-7.08614
 30
0.0
 10
-81.28857
 20
-6.05428
 30
0.0
 10
-80.39511
 20
-5.28035
 30
0.0
 10
-79.13878
 20
-4.19208
 30
0.0
 10
-77.41676
 20
-3.85897
 30
0.0
 10
-75.88739
 20
-4.40838
 30
0.0
 10
-75.72064
 20
-4.46828
 30
0.0
 10
-75.42393
 20
-4.60742
 30
0.0
 10
-75.22804
 20
-4.71758
 30
0.0
 10
-74.17788
 20
-5.30822
 30
0.0
 10
-73.40953
 20
-6.29392
 30
0.0
 10
-73.08626
 20
-7.46522
 30
0.0
 10
-72.92988
 20
-8.03191
 30
0.0
 10
-72.89862
 20
-8.30109
 30
0.0
 10
-72.92085
 20
-8.89033
 30
0.0
 10
-72.94184
 20
-9.44628
 30
0.0
 10
-72.99729
 20
-9.77029
 30
0.0
 10
-73.15078
 20
-10.23425
 30
0.0
 10
-73.19875
 20
-10.37925
 30
0.0
 10
-73.23256
 20
-10.50745
 30
0.0
 10
-73.22589
 20
-10.51919
 30
0.0
 10
-73.21925
 20
-10.53092
 30
0.0
 10
-73.10284
 20
-10.51051
 30
0.0
 10
-72.96722
 20
-10.47389
 30
0.0
 10
-72.325
 20
-10.30038
 30
0.0
 10
-71.41644
 20
-10.2719
 30
0.0
 10
-70.75374
 20
-10.40456
 30
0.0
 10
-69.28561
 20
-10.69839
 30
0.0
 10
-67.99807
 20
-11.66839
 30
0.0
 10
-67.31233
 20
-12.99731
 30
0.0
 10
-66.87094
 20
-13.85261
 30
0.0
 10
-66.68341
 20
-14.88381
 30
0.0
 10
-66.80262
 20
-15.80014
 30
0.0
  0
SPLINE
  5
8B
330
1F
100
AcDbEntity
  8
Layer 1
 62
     1
370
    30
100
AcDbSpline
210
0.0
220
0.0
230
1.0
 70
    11
 71
     3
 72
    62
 73
    58
 74
     0
 42
0.0000000001
 43
0.0000000001
 40
0.0
 40
0.0
 40
0.0
 40
0.0
 40
0.0526315789473684
 40
0.0526315789473684
 40
0.0526315789473684
 40
0.1052631578947368
 40
0.1052631578947368
 40
0.1052631578947368
 40
0.1578947368421053
 40
0.1578947368421053
 40
0.1578947368421053
 40
0.2105263157894737
 40
0.2105263157894737
 40
0.2105263157894737
 40
0.2631578947368421
 40
0.2631578947368421
 40
0.2631578947368421
 40
0.3157894736842105
 40
0.3157894736842105
 40
0.3157894736842105
 40
0.3684210526315789
 40
0.3684210526315789
 40
0.3684210526315789
 40
0.4210526315789473
 40
0.4210526315789473
 40
0.4210526315789473
 40
0.4736842105263158
 40
0.4736842105263158
 40
0.4736842105263158
 40
0.5263157894736842
 40
0.5263157894736842
 40
0.5263157894736842
 40
0.5789473684210527
 40
0.5789473684210527
 40
0.5789473684210527
 40
0.631578947368421
 40
0.631578947368421
 40
0.631578947368421
 40
0.6842105263157894
 40
0.6842105263157894
 40
0.6842105263157894
 40
0.7368421052631579
 40
0.7368421052631579
 40
0.7368421052631579
 40
0.7894736842105263
 40
0.7894736842105263
 40
0.7894736842105263
 40
0.8421052631578947
 40
0.8421052631578947
 40
0.8421052631578947
 40
0.894736842105263
 40
0.894736842105263
 40
0.894736842105263
 40
0.9473684210526315
 40
0.9473684210526315
 40
0.9473684210526315
 40
1.0
 40
1.0
 40
1.0
 40
1.0
 10
-67.72612
 20
-14.5287
 30
0.0
 10
-68.0215
 20
-12.9485
 30
0.0
 10
-69.13973
 20
-11.72308
 30
0.0
 10
-70.66959
 20
-11.303
 30
0.0
 10
-71.49026
 20
-11.07766
 30
0.0
 10
-72.36096
 20
-11.12458
 30
0.0
 10
-73.20613
 20
-11.43972
 30
0.0
 10
-73.61958
 20
-11.59391
 30
0.0
 10
-73.71693
 20
-11.61232
 30
0.0
 10
-73.86699
 20
-11.56479
 30
0.0
 10
-74.05455
 20
-11.50538
 30
0.0
 10
-74.18469
 20
-11.38874
 30
0.0
 10
-74.26596
 20
-11.2073
 30
0.0
 10
-74.26596
 20
-11.2073
 30
0.0
 10
-74.34152
 20
-11.03851
 30
0.0
 10
-74.34152
 20
-11.03851
 30
0.0
 10
-74.34152
 20
-11.03851
 30
0.0
 10
-74.22996
 20
-10.79956
 30
0.0
 10
-74.22996
 20
-10.79956
 30
0.0
 10
-73.94086
 20
-10.18012
 30
0.0
 10
-73.83591
 20
-9.8017
 30
0.0
 10
-73.77462
 20
-9.15734
 30
0.0
 10
-73.69691
 20
-8.3403
 30
0.0
 10
-73.86079
 20
-7.51552
 30
0.0
 10
-74.23131
 20
-6.85879
 30
0.0
 10
-74.74272
 20
-5.95238
 30
0.0
 10
-75.54343
 20
-5.34303
 30
0.0
 10
-76.56517
 20
-5.08261
 30
0.0
 10
-76.92401
 20
-4.99114
 30
0.0
 10
-77.63759
 20
-4.96496
 30
0.0
 10
-78.00433
 20
-5.02975
 30
0.0
 10
-79.21304
 20
-5.24337
 30
0.0
 10
-80.26755
 20
-6.01906
 30
0.0
 10
-80.74228
 20
-7.0438
 30
0.0
 10
-80.95209
 20
-7.49668
 30
0.0
 10
-81.12739
 20
-8.12908
 30
0.0
 10
-81.25111
 20
-8.87914
 30
0.0
 10
-81.40887
 20
-9.83577
 30
0.0
 10
-81.42762
 20
-10.14531
 30
0.0
 10
-81.58886
 20
-14.45596
 30
0.0
 10
-81.67528
 20
-16.7662
 30
0.0
 10
-81.73899
 20
-18.66391
 30
0.0
 10
-81.73042
 20
-18.67314
 30
0.0
 10
-81.72189
 20
-18.68233
 30
0.0
 10
-80.14769
 20
-18.80875
 30
0.0
 10
-78.23219
 20
-18.95404
 30
0.0
 10
-74.55014
 20
-19.23333
 30
0.0
 10
-72.92218
 20
-19.3199
 30
0.0
 10
-72.17125
 20
-19.27641
 30
0.0
 10
-70.98773
 20
-19.20783
 30
0.0
 10
-70.20933
 20
-19.04565
 30
0.0
 10
-69.62147
 20
-18.74515
 30
0.0
 10
-68.80771
 20
-18.32921
 30
0.0
 10
-68.10025
 20
-17.42861
 30
0.0
 10
-67.83443
 20
-16.47019
 30
0.0
 10
-67.67554
 20
-15.89739
 30
0.0
 10
-67.62836
 20
-15.05159
 30
0.0
 10
-67.72612
 20
-14.5287
 30
0.0
  0
SPLINE
  5
8C
330
1F
100
AcDbEntity
  8
Layer 1
 62
     1
370
    30
100
AcDbSpline
210
0.0
220
0.0
230
1.0
 70
    11
 71
     3
 72
    65
 73
    61
 74
     0
 42
0.0000000001
 43
0.0000000001
 40
0.0
 40
0.0
 40
0.0
 40
0.0
 40
0.05
 40
0.05
 40
0.05
 40
0.1
 40
0.1
 40
0.1
 40
0.15
 40
0.15
 40
0.15
 40
0.2
 40
0.2
 40
0.2
 40
0.25
 40
0.25
 40
0.25
 40
0.3
 40
0.3
 40
0.3
 40
0.35
 40
0.35
 40
0.35
 40
0.4
 40
0.4
 40
0.4
 40
0.45
 40
0.45
 40
0.45
 40
0.5
 40
0.5
 40
0.5
 40
0.55
 40
0.55
 40
0.55
 40
0.6000000000000001
 40
0.6000000000000001
 40
0.6000000000000001
 40
0.65
 40
0.65
 40
0.65
 40
0.7000000000000001
 40
0.7000000000000001
 40
0.7000000000000001
 40
0.75
 40
0.75
 40
0.75
 40
0.8
 40
0.8
 40
0.8
 40
0.8500000000000001
 40
0.8500000000000001
 40
0.8500000000000001
 40
0.9
 40
0.9
 40
0.9
 40
0.9500000000000001
 40
0.9500000000000001
 40
0.9500000000000001
 40
1.0
 40
1.0
 40
1.0
 40
1.0
 10
2.39868
 20
19.63983
 30
0.0
 10
1.24412
 20
19.53331
 30
0.0
 10
0.17939
 20
19.02644
 30
0.0
 10
-0.61566
 20
18.20478
 30
0.0
 10
-1.30394
 20
17.49348
 30
0.0
 10
-1.70559
 20
16.49567
 30
0.0
 10
-1.88259
 20
15.0575
 30
0.0
 10
-1.95545
 20
14.46527
 30
0.0
 10
-2.00461
 20
13.30559
 30
0.0
 10
-1.98492
 20
12.64317
 30
0.0
 10
-1.97514
 20
12.31452
 30
0.0
 10
-1.89425
 20
10.27657
 30
0.0
 10
-1.80516
 20
8.11439
 30
0.0
 10
-1.80516
 20
8.11439
 30
0.0
 10
-1.64313
 20
4.18317
 30
0.0
 10
-1.64313
 20
4.18317
 30
0.0
 10
-1.64313
 20
4.18317
 30
0.0
 10
-1.58746
 20
4.10455
 30
0.0
 10
-1.58746
 20
4.10455
 30
0.0
 10
-1.58746
 20
4.10455
 30
0.0
 10
-1.53183
 20
4.02592
 30
0.0
 10
-1.53183
 20
4.02592
 30
0.0
 10
-1.53183
 20
4.02592
 30
0.0
 10
2.5218
 20
4.02457
 30
0.0
 10
2.5218
 20
4.02457
 30
0.0
 10
7.17395
 20
4.023
 30
0.0
 10
7.73835
 20
4.03485
 30
0.0
 10
8.77688
 20
4.156
 30
0.0
 10
10.54823
 20
4.36262
 30
0.0
 10
11.59721
 20
4.7982
 30
0.0
 10
12.40408
 20
5.66219
 30
0.0
 10
13.53867
 20
6.8771
 30
0.0
 10
13.93594
 20
8.58564
 30
0.0
 10
13.44403
 20
10.13464
 30
0.0
 10
13.39041
 20
10.30352
 30
0.0
 10
13.26244
 20
10.60525
 30
0.0
 10
13.15967
 20
10.80515
 30
0.0
 10
12.60863
 20
11.87677
 30
0.0
 10
11.65224
 20
12.6815
 30
0.0
 10
10.49373
 20
13.04836
 30
0.0
 10
9.93323
 20
13.22584
 30
0.0
 10
9.66537
 20
13.26713
 30
0.0
 10
9.07566
 20
13.26694
 30
0.0
 10
8.51925
 20
13.26675
 30
0.0
 10
8.19336
 20
13.22345
 30
0.0
 10
7.72394
 20
13.08739
 30
0.0
 10
7.57723
 20
13.04487
 30
0.0
 10
7.44785
 20
13.01588
 30
0.0
 10
7.43637
 20
13.02298
 30
0.0
 10
7.42489
 20
13.03006
 30
0.0
 10
7.44964
 20
13.14564
 30
0.0
 10
7.49131
 20
13.2798
 30
0.0
 10
7.68872
 20
13.91515
 30
0.0
 10
7.75115
 20
14.8221
 30
0.0
 10
7.64334
 20
15.48937
 30
0.0
 10
7.40457
 20
16.96761
 30
0.0
 10
6.48328
 20
18.29064
 30
0.0
 10
5.18079
 20
19.02565
 30
0.0
 10
4.34249
 20
19.49875
 30
0.0
 10
3.31893
 20
19.72472
 30
0.0
 10
2.39868
 20
19.63983
 30
0.0
  0
SPLINE
  5
8D
330
1F
100
AcDbEntity
  8
Layer 1
 62
     1
370
    30
100
AcDbSpline
210
0.0
220
0.0
230
1.0
 70
    11
 71
     3
 72
   167
 73
   163
 74
     0
 42
0.0000000001
 43
0.0000000001
 40
0.0
 40
0.0
 40
0.0
 40
0.0
 40
0.0185185185185185
 40
0.0185185185185185
 40
0.0185185185185185
 40
0.037037037037037
 40
0.037037037037037
 40
0.037037037037037
 40
0.0555555555555556
 40
0.0555555555555556
 40
0.0555555555555556
 40
0.0740740740740741
 40
0.0740740740740741
 40
0.0740740740740741
 40
0.0925925925925926
 40
0.0925925925925926
 40
0.0925925925925926
 40
0.1111111111111111
 40
0.1111111111111111
 40
0.1111111111111111
 40
0.1296296296296296
 40
0.1296296296296296
 40
0.1296296296296296
 40
0.1481481481481481
 40
0.1481481481481481
 40
0.1481481481481481
 40
0.1666666666666667
 40
0.1666666666666667
 40
0.1666666666666667
 40
0.1851851851851852
 40
0.1851851851851852
 40
0.1851851851851852
 40
0.2037037037037037
 40
0.2037037037037037
 40
0.2037037037037037
 40
0.2222222222222222
 40
0.2222222222222222
 40
0.2222222222222222
 40
0.2407407407407407
 40
0.2407407407407407
 40
0.2407407407407407
 40
0.2592592592592592
 40
0.2592592592592592
 40
0.2592592592592592
 40
0.2777777777777778
 40
0.2777777777777778
 40
0.2777777777777778
 40
0.2962962962962963
 40
0.2962962962962963
 40
0.2962962962962963
 40
0.3148148148148148
 40
0.3148148148148148
 40
0.3148148148148148
 40
0.3333333333333333
 40
0.3333333333333333
 40
0.3333333333333333
 40
0.3518518518518519
 40
0.3518518518518519
 40
0.3518518518518519
 40
0.3703703703703703
 40
0.3703703703703703
 40
0.3703703703703703
 40
0.3888888888888888
 40
0.3888888888888888
 40
0.3888888888888888
 40
0.4074074074074074
 40
0.4074074074074074
 40
0.4074074074074074
 40
0.4259259259259259
 40
0.4259259259259259
 40
0.4259259259259259
 40
0.4444444444444444
 40
0.4444444444444444
 40
0.4444444444444444
 40
0.4629629629629629
 40
0.4629629629629629
 40
0.4629629629629629
 40
0.4814814814814815
 40
0.4814814814814815
 40
0.4814814814814815
 40
0.5
 40
0.5
 40
0.5
 40
0.5185185185185185
 40
0.5185185185185185
 40
0.5185185185185185
 40
0.537037037037037
 40
0.537037037037037
 40
0.537037037037037
 40
0.5555555555555556
 40
0.5555555555555556
 40
0.5555555555555556
 40
0.5740740740740741
 40
0.5740740740740741
 40
0.5740740740740741
 40
0.5925925925925926
 40
0.5925925925925926
 40
0.5925925925925926
 40
0.611111111111111
 40
0.611111111111111
 40
0.611111111111111
 40
0.6296296296296295
 40
0.6296296296296295
 40
0.6296296296296295
 40
0.6481481481481481
 40
0.6481481481481481
 40
0.6481481481481481
 40
0.6666666666666666
 40
0.6666666666666666
 40
0.6666666666666666
 40
0.6851851851851851
 40
0.6851851851851851
 40
0.6851851851851851
 40
0.7037037037037037
 40
0.7037037037037037
 40
0.7037037037037037
 40
0.7222222222222222
 40
0.7222222222222222
 40
0.7222222222222222
 40
0.7407407407407407
 40
0.7407407407407407
 40
0.7407407407407407
 40
0.7592592592592592
 40
0.7592592592592592
 40
0.7592592592592592
 40
0.7777777777777777
 40
0.7777777777777777
 40
0.7777777777777777
 40
0.7962962962962963
 40
0.7962962962962963
 40
0.7962962962962963
 40
0.8148148148148148
 40
0.8148148148148148
 40
0.8148148148148148
 40
0.8333333333333333
 40
0.8333333333333333
 40
0.8333333333333333
 40
0.8518518518518519
 40
0.8518518518518519
 40
0.8518518518518519
 40
0.8703703703703703
 40
0.8703703703703703
 40
0.8703703703703703
 40
0.8888888888888888
 40
0.8888888888888888
 40
0.8888888888888888
 40
0.9074074074074073
 40
0.9074074074074073
 40
0.9074074074074073
 40
0.9259259259259258
 40
0.9259259259259258
 40
0.9259259259259258
 40
0.9444444444444444
 40
0.9444444444444444
 40
0.9444444444444444
 40
0.9629629629629629
 40
0.9629629629629629
 40
0.9629629629629629
 40
0.9814814814814814
 40
0.9814814814814814
 40
0.9814814814814814
 40
1.0
 40
1.0
 40
1.0
 40
1.0
 10
3.63484
 20
18.66936
 30
0.0
 10
5.20305
 20
18.31507
 30
0.0
 10
6.38594
 20
17.15171
 30
0.0
 10
6.74859
 20
15.60706
 30
0.0
 10
6.94311
 20
14.77845
 30
0.0
 10
6.86367
 20
13.91003
 30
0.0
 10
6.51712
 20
13.07714
 30
0.0
 10
6.34758
 20
12.66971
 30
0.0
 10
6.32553
 20
12.5731
 30
0.0
 10
6.36742
 20
12.42135
 30
0.0
 10
6.41978
 20
12.23168
 30
0.0
 10
6.53149
 20
12.09726
 30
0.0
 10
6.70978
 20
12.00926
 30
0.0
 10
6.70978
 20
12.00926
 30
0.0
 10
6.87565
 20
11.92743
 30
0.0
 10
6.87565
 20
11.92743
 30
0.0
 10
6.87565
 20
11.92743
 30
0.0
 10
7.11863
 20
12.02999
 30
0.0
 10
7.11863
 20
12.02999
 30
0.0
 10
7.74851
 20
12.29577
 30
0.0
 10
8.13062
 20
12.3865
 30
0.0
 10
8.77688
 20
12.42368
 30
0.0
 10
9.59634
 20
12.47079
 30
0.0
 10
10.41451
 20
12.27618
 30
0.0
 10
11.05699
 20
11.88133
 30
0.0
 10
11.66523
 20
11.50748
 30
0.0
 10
12.16865
 20
10.95529
 30
0.0
 10
12.45544
 20
10.34733
 30
0.0
 10
12.70657
 20
9.81492
 30
0.0
 10
12.80287
 20
9.37273
 30
0.0
 10
12.80129
 20
8.75912
 30
0.0
 10
12.79963
 20
8.10109
 30
0.0
 10
12.69462
 20
7.65928
 30
0.0
 10
12.40128
 20
7.0758
 30
0.0
 10
12.05801
 20
6.39305
 30
0.0
 10
11.42263
 20
5.75129
 30
0.0
 10
10.79675
 20
5.45519
 30
0.0
 10
10.50027
 20
5.31495
 30
0.0
 10
10.4887
 20
5.31851
 30
0.0
 10
10.19873
 20
5.63945
 30
0.0
 10
10.19873
 20
5.63945
 30
0.0
 10
10.0795
 20
5.77138
 30
0.0
 10
10.0795
 20
5.77138
 30
0.0
 10
10.0795
 20
5.77138
 30
0.0
 10
9.80473
 20
5.77138
 30
0.0
 10
9.80473
 20
5.77138
 30
0.0
 10
9.6343
 20
5.77138
 30
0.0
 10
9.50639
 20
5.7867
 30
0.0
 10
9.46793
 20
5.81173
 30
0.0
 10
9.43381
 20
5.83394
 30
0.0
 10
9.35326
 20
5.87007
 30
0.0
 10
9.28898
 20
5.89203
 30
0.0
 10
9.16151
 20
5.93555
 30
0.0
 10
9.11544
 20
5.92162
 30
0.0
 10
8.93413
 20
5.78466
 30
0.0
 10
8.722
 20
5.62442
 30
0.0
 10
8.539
 20
5.66631
 30
0.0
 10
8.3208
 20
5.92508
 30
0.0
 10
8.22107
 20
6.04336
 30
0.0
 10
8.15078
 20
6.09525
 30
0.0
 10
8.05637
 20
6.12029
 30
0.0
 10
7.98561
 20
6.13906
 30
0.0
 10
7.89943
 20
6.18051
 30
0.0
 10
7.86484
 20
6.2124
 30
0.0
 10
7.73671
 20
6.33053
 30
0.0
 10
7.31944
 20
6.42463
 30
0.0
 10
7.17209
 20
6.36862
 30
0.0
 10
7.10297
 20
6.34232
 30
0.0
 10
7.04202
 20
6.34949
 30
0.0
 10
6.87735
 20
6.40327
 30
0.0
 10
6.76315
 20
6.44054
 30
0.0
 10
6.65632
 20
6.48347
 30
0.0
 10
6.63987
 20
6.49863
 30
0.0
 10
6.59509
 20
6.53992
 30
0.0
 10
6.42865
 20
6.5298
 30
0.0
 10
6.33952
 20
6.48033
 30
0.0
 10
6.29628
 20
6.45633
 30
0.0
 10
6.22316
 20
6.44422
 30
0.0
 10
6.17705
 20
6.4534
 30
0.0
 10
6.13095
 20
6.46259
 30
0.0
 10
6.01896
 20
6.44542
 30
0.0
 10
5.92819
 20
6.41529
 30
0.0
 10
5.92819
 20
6.41529
 30
0.0
 10
5.76321
 20
6.36047
 30
0.0
 10
5.76321
 20
6.36047
 30
0.0
 10
5.76321
 20
6.36047
 30
0.0
 10
5.39414
 20
6.4151
 30
0.0
 10
5.39414
 20
6.4151
 30
0.0
 10
5.39414
 20
6.4151
 30
0.0
 10
5.02508
 20
6.4697
 30
0.0
 10
5.02508
 20
6.4697
 30
0.0
 10
5.02508
 20
6.4697
 30
0.0
 10
4.84104
 20
6.38991
 30
0.0
 10
4.84104
 20
6.38991
 30
0.0
 10
4.7398
 20
6.34604
 30
0.0
 10
4.62158
 20
6.30031
 30
0.0
 10
4.57834
 20
6.28832
 30
0.0
 10
4.53509
 20
6.27634
 30
0.0
 10
4.40772
 20
6.20055
 30
0.0
 10
4.29529
 20
6.11988
 30
0.0
 10
3.94242
 20
5.86668
 30
0.0
 10
3.82653
 20
5.81262
 30
0.0
 10
3.62786
 20
5.80856
 30
0.0
 10
3.48954
 20
5.80573
 30
0.0
 10
3.41853
 20
5.78544
 30
0.0
 10
3.32094
 20
5.72088
 30
0.0
 10
3.32094
 20
5.72088
 30
0.0
 10
3.19398
 20
5.63687
 30
0.0
 10
3.19398
 20
5.63687
 30
0.0
 10
3.19398
 20
5.63687
 30
0.0
 10
2.809
 20
5.63942
 30
0.0
 10
2.809
 20
5.63942
 30
0.0
 10
2.4355
 20
5.64191
 30
0.0
 10
2.2169
 20
5.67556
 30
0.0
 10
1.8422
 20
5.78827
 30
0.0
 10
1.74707
 20
5.81686
 30
0.0
 10
1.62677
 20
5.84778
 30
0.0
 10
1.57488
 20
5.85696
 30
0.0
 10
1.52299
 20
5.86614
 30
0.0
 10
1.46594
 20
5.88517
 30
0.0
 10
1.44811
 20
5.89929
 30
0.0
 10
1.40848
 20
5.93058
 30
0.0
 10
0.99586
 20
6.02584
 30
0.0
 10
0.81232
 20
6.04604
 30
0.0
 10
0.71227
 20
6.05707
 30
0.0
 10
0.64937
 20
6.04343
 30
0.0
 10
0.56179
 20
5.99175
 30
0.0
 10
0.47376
 20
5.9398
 30
0.0
 10
0.41592
 20
5.92738
 30
0.0
 10
0.32774
 20
5.9415
 30
0.0
 10
0.26116
 20
5.95213
 30
0.0
 10
0.2021
 20
5.94643
 30
0.0
 10
0.19087
 20
5.92826
 30
0.0
 10
0.14373
 20
5.85199
 30
0.0
 10
-0.07384
 20
5.77868
 30
0.0
 10
-0.29638
 20
5.76406
 30
0.0
 10
-0.42611
 20
5.75557
 30
0.0
 10
-0.58255
 20
5.72412
 30
0.0
 10
-0.644
 20
5.69421
 30
0.0
 10
-0.644
 20
5.69421
 30
0.0
 10
-0.75577
 20
5.63983
 30
0.0
 10
-0.75577
 20
5.63983
 30
0.0
 10
-0.75577
 20
5.63983
 30
0.0
 10
-0.87987
 20
5.67414
 30
0.0
 10
-0.87987
 20
5.67414
 30
0.0
 10
-0.94815
 20
5.69301
 30
0.0
 10
-1.0213
 20
5.71968
 30
0.0
 10
-1.04247
 20
5.73339
 30
0.0
 10
-1.07093
 20
5.75185
 30
0.0
 10
-1.11103
 20
6.54039
 30
0.0
 10
-1.19711
 20
8.77616
 30
0.0
 10
-1.32114
 20
11.99797
 30
0.0
 10
-1.34495
 20
13.68862
 30
0.0
 10
-1.27633
 20
14.40435
 30
0.0
 10
-1.16301
 20
15.58614
 30
0.0
 10
-0.97215
 20
16.3566
 30
0.0
 10
-0.64994
 20
16.93276
 30
0.0
 10
-0.20383
 20
17.73049
 30
0.0
 10
0.72268
 20
18.40386
 30
0.0
 10
1.69046
 20
18.63369
 30
0.0
 10
2.26885
 20
18.77106
 30
0.0
 10
3.11592
 20
18.7866
 30
0.0
 10
3.63484
 20
18.66936
 30
0.0
  0
SPLINE
  5
8E
330
1F
100
AcDbEntity
  8
Layer 1
 62
     1
370
    30
100
AcDbSpline
210
0.0
220
0.0
230
1.0
 70
    11
 71
     3
 72
    65
 73
    61
 74
     0
 42
0.0000000001
 43
0.0000000001
 40
0.0
 40
0.0
 40
0.0
 40
0.0
 40
0.05
 40
0.05
 40
0.05
 40
0.1
 40
0.1
 40
0.1
 40
0.15
 40
0.15
 40
0.15
 40
0.2
 40
0.2
 40
0.2
 40
0.25
 40
0.25
 40
0.25
 40
0.3
 40
0.3
 40
0.3
 40
0.35
 40
0.35
 40
0.35
 40
0.4
 40
0.4
 40
0.4
 40
0.45
 40
0.45
 40
0.45
 40
0.5
 40
0.5
 40
0.5
 40
0.55
 40
0.55
 40
0.55
 40
0.6000000000000001
 40
0.6000000000000001
 40
0.6000000000000001
 40
0.65
 40
0.65
 40
0.65
 40
0.7000000000000001
 40
0.7000000000000001
 40
0.7000000000000001
 40
0.75
 40
0.75
 40
0.75
 40
0.8
 40
0.8
 40
0.8
 40
0.8500000000000001
 40
0.8500000000000001
 40
0.8500000000000001
 40
0.9
 40
0.9
 40
0.9
 40
0.9500000000000001
 40
0.9500000000000001
 40
0.9500000000000001
 40
1.0
 40
1.0
 40
1.0
 40
1.0
 10
18.6442
 20
19.91455
 30
0.0
 10
17.48662
 20
19.80775
 30
0.0
 10
16.41909
 20
19.29954
 30
0.0
 10
15.62195
 20
18.47573
 30
0.0
 10
14.93187
 20
17.76256
 30
0.0
 10
14.52917
 20
16.76214
 30
0.0
 10
14.35171
 20
15.3202
 30
0.0
 10
14.27865
 20
14.72641
 30
0.0
 10
14.22936
 20
13.56369
 30
0.0
 10
14.2491
 20
12.89952
 30
0.0
 10
14.25891
 20
12.57001
 30
0.0
 10
14.34001
 20
10.52672
 30
0.0
 10
14.42934
 20
8.35887
 30
0.0
 10
14.42934
 20
8.35887
 30
0.0
 10
14.59179
 20
4.41734
 30
0.0
 10
14.59179
 20
4.41734
 30
0.0
 10
14.59179
 20
4.41734
 30
0.0
 10
14.64761
 20
4.3385
 30
0.0
 10
14.64761
 20
4.3385
 30
0.0
 10
14.64761
 20
4.3385
 30
0.0
 10
14.70339
 20
4.25967
 30
0.0
 10
14.70339
 20
4.25967
 30
0.0
 10
14.70339
 20
4.25967
 30
0.0
 10
18.76765
 20
4.25832
 30
0.0
 10
18.76765
 20
4.25832
 30
0.0
 10
23.432
 20
4.25674
 30
0.0
 10
23.99788
 20
4.26863
 30
0.0
 10
25.03914
 20
4.39009
 30
0.0
 10
26.81513
 20
4.59726
 30
0.0
 10
27.86686
 20
5.03398
 30
0.0
 10
28.67585
 20
5.90024
 30
0.0
 10
29.81341
 20
7.11833
 30
0.0
 10
30.21173
 20
8.83135
 30
0.0
 10
29.71853
 20
10.38441
 30
0.0
 10
29.66477
 20
10.55374
 30
0.0
 10
29.53646
 20
10.85626
 30
0.0
 10
29.43342
 20
11.05668
 30
0.0
 10
28.88094
 20
12.13111
 30
0.0
 10
27.92204
 20
12.93796
 30
0.0
 10
26.76049
 20
13.30579
 30
0.0
 10
26.19852
 20
13.48372
 30
0.0
 10
25.92996
 20
13.52512
 30
0.0
 10
25.3387
 20
13.52494
 30
0.0
 10
24.78083
 20
13.52475
 30
0.0
 10
24.45409
 20
13.48133
 30
0.0
 10
23.98344
 20
13.34492
 30
0.0
 10
23.83634
 20
13.30229
 30
0.0
 10
23.70662
 20
13.27321
 30
0.0
 10
23.69511
 20
13.28034
 30
0.0
 10
23.6836
 20
13.28743
 30
0.0
 10
23.70841
 20
13.40332
 30
0.0
 10
23.75019
 20
13.53783
 30
0.0
 10
23.94812
 20
14.17485
 30
0.0
 10
24.01071
 20
15.08418
 30
0.0
 10
23.90262
 20
15.7532
 30
0.0
 10
23.66323
 20
17.23531
 30
0.0
 10
22.73952
 20
18.56181
 30
0.0
 10
21.43361
 20
19.29875
 30
0.0
 10
20.59312
 20
19.77309
 30
0.0
 10
19.56687
 20
19.99965
 30
0.0
 10
18.6442
 20
19.91455
 30
0.0
  0
SPLINE
  5
8F
330
1F
100
AcDbEntity
  8
Layer 1
 62
     1
370
    30
100
AcDbSpline
210
0.0
220
0.0
230
1.0
 70
    11
 71
     3
 72
   170
 73
   166
 74
     0
 42
0.0000000001
 43
0.0000000001
 40
0.0
 40
0.0
 40
0.0
 40
0.0
 40
0.0181818181818182
 40
0.0181818181818182
 40
0.0181818181818182
 40
0.0363636363636364
 40
0.0363636363636364
 40
0.0363636363636364
 40
0.0545454545454545
 40
0.0545454545454545
 40
0.0545454545454545
 40
0.0727272727272727
 40
0.0727272727272727
 40
0.0727272727272727
 40
0.0909090909090909
 40
0.0909090909090909
 40
0.0909090909090909
 40
0.1090909090909091
 40
0.1090909090909091
 40
0.1090909090909091
 40
0.1272727272727273
 40
0.1272727272727273
 40
0.1272727272727273
 40
0.1454545454545454
 40
0.1454545454545454
 40
0.1454545454545454
 40
0.1636363636363636
 40
0.1636363636363636
 40
0.1636363636363636
 40
0.1818181818181818
 40
0.1818181818181818
 40
0.1818181818181818
 40
0.2
 40
0.2
 40
0.2
 40
0.2181818181818182
 40
0.2181818181818182
 40
0.2181818181818182
 40
0.2363636363636364
 40
0.2363636363636364
 40
0.2363636363636364
 40
0.2545454545454545
 40
0.2545454545454545
 40
0.2545454545454545
 40
0.2727272727272727
 40
0.2727272727272727
 40
0.2727272727272727
 40
0.2909090909090909
 40
0.2909090909090909
 40
0.2909090909090909
 40
0.3090909090909091
 40
0.3090909090909091
 40
0.3090909090909091
 40
0.3272727272727273
 40
0.3272727272727273
 40
0.3272727272727273
 40
0.3454545454545455
 40
0.3454545454545455
 40
0.3454545454545455
 40
0.3636363636363636
 40
0.3636363636363636
 40
0.3636363636363636
 40
0.3818181818181818
 40
0.3818181818181818
 40
0.3818181818181818
 40
0.4
 40
0.4
 40
0.4
 40
0.4181818181818182
 40
0.4181818181818182
 40
0.4181818181818182
 40
0.4363636363636363
 40
0.4363636363636363
 40
0.4363636363636363
 40
0.4545454545454545
 40
0.4545454545454545
 40
0.4545454545454545
 40
0.4727272727272727
 40
0.4727272727272727
 40
0.4727272727272727
 40
0.4909090909090909
 40
0.4909090909090909
 40
0.4909090909090909
 40
0.509090909090909
 40
0.509090909090909
 40
0.509090909090909
 40
0.5272727272727272
 40
0.5272727272727272
 40
0.5272727272727272
 40
0.5454545454545454
 40
0.5454545454545454
 40
0.5454545454545454
 40
0.5636363636363636
 40
0.5636363636363636
 40
0.5636363636363636
 40
0.5818181818181818
 40
0.5818181818181818
 40
0.5818181818181818
 40
0.6
 40
0.6
 40
0.6
 40
0.6181818181818182
 40
0.6181818181818182
 40
0.6181818181818182
 40
0.6363636363636364
 40
0.6363636363636364
 40
0.6363636363636364
 40
0.6545454545454545
 40
0.6545454545454545
 40
0.6545454545454545
 40
0.6727272727272727
 40
0.6727272727272727
 40
0.6727272727272727
 40
0.6909090909090909
 40
0.6909090909090909
 40
0.6909090909090909
 40
0.7090909090909091
 40
0.7090909090909091
 40
0.7090909090909091
 40
0.7272727272727273
 40
0.7272727272727273
 40
0.7272727272727273
 40
0.7454545454545454
 40
0.7454545454545454
 40
0.7454545454545454
 40
0.7636363636363636
 40
0.7636363636363636
 40
0.7636363636363636
 40
0.7818181818181817
 40
0.7818181818181817
 40
0.7818181818181817
 40
0.7999999999999999
 40
0.7999999999999999
 40
0.7999999999999999
 40
0.8181818181818181
 40
0.8181818181818181
 40
0.8181818181818181
 40
0.8363636363636363
 40
0.8363636363636363
 40
0.8363636363636363
 40
0.8545454545454545
 40
0.8545454545454545
 40
0.8545454545454545
 40
0.8727272727272727
 40
0.8727272727272727
 40
0.8727272727272727
 40
0.8909090909090909
 40
0.8909090909090909
 40
0.8909090909090909
 40
0.9090909090909091
 40
0.9090909090909091
 40
0.9090909090909091
 40
0.9272727272727272
 40
0.9272727272727272
 40
0.9272727272727272
 40
0.9454545454545454
 40
0.9454545454545454
 40
0.9454545454545454
 40
0.9636363636363636
 40
0.9636363636363636
 40
0.9636363636363636
 40
0.9818181818181818
 40
0.9818181818181818
 40
0.9818181818181818
 40
1.0
 40
1.0
 40
1.0
 40
1.0
 10
19.88361
 20
18.94152
 30
0.0
 10
21.45593
 20
18.58631
 30
0.0
 10
22.64193
 20
17.4199
 30
0.0
 10
23.00553
 20
15.87119
 30
0.0
 10
23.20055
 20
15.04041
 30
0.0
 10
23.1209
 20
14.16971
 30
0.0
 10
22.77345
 20
13.33464
 30
0.0
 10
22.60346
 20
12.92614
 30
0.0
 10
22.58135
 20
12.82927
 30
0.0
 10
22.62335
 20
12.67713
 30
0.0
 10
22.67586
 20
12.48696
 30
0.0
 10
22.78786
 20
12.35219
 30
0.0
 10
22.96662
 20
12.26396
 30
0.0
 10
22.96662
 20
12.26396
 30
0.0
 10
23.13292
 20
12.18191
 30
0.0
 10
23.13292
 20
12.18191
 30
0.0
 10
23.13292
 20
12.18191
 30
0.0
 10
23.37654
 20
12.28474
 30
0.0
 10
23.37654
 20
12.28474
 30
0.0
 10
24.00806
 20
12.55122
 30
0.0
 10
24.39118
 20
12.64219
 30
0.0
 10
25.03914
 20
12.67946
 30
0.0
 10
25.86074
 20
12.7267
 30
0.0
 10
26.68106
 20
12.53157
 30
0.0
 10
27.32523
 20
12.13569
 30
0.0
 10
27.93507
 20
11.76086
 30
0.0
 10
28.4398
 20
11.20722
 30
0.0
 10
28.72735
 20
10.59767
 30
0.0
 10
28.97913
 20
10.06386
 30
0.0
 10
29.07568
 20
9.62051
 30
0.0
 10
29.07411
 20
9.00528
 30
0.0
 10
29.07244
 20
8.34553
 30
0.0
 10
28.96715
 20
7.90257
 30
0.0
 10
28.67305
 20
7.31755
 30
0.0
 10
28.52485
 20
7.02282
 30
0.0
 10
28.22683
 20
6.59846
 30
0.0
 10
28.05501
 20
6.43758
 30
0.0
 10
28.05501
 20
6.43758
 30
0.0
 10
27.95629
 20
6.34519
 30
0.0
 10
27.95629
 20
6.34519
 30
0.0
 10
27.95629
 20
6.34519
 30
0.0
 10
27.88474
 20
6.41242
 30
0.0
 10
27.88474
 20
6.41242
 30
0.0
 10
27.77583
 20
6.51474
 30
0.0
 10
27.55948
 20
6.59912
 30
0.0
 10
27.25022
 20
6.65988
 30
0.0
 10
27.25022
 20
6.65988
 30
0.0
 10
26.97046
 20
6.71484
 30
0.0
 10
26.97046
 20
6.71484
 30
0.0
 10
26.97046
 20
6.71484
 30
0.0
 10
26.4305
 20
6.62967
 30
0.0
 10
26.4305
 20
6.62967
 30
0.0
 10
25.54239
 20
6.48957
 30
0.0
 10
25.50329
 20
6.48566
 30
0.0
 10
24.89724
 20
6.47611
 30
0.0
 10
24.89724
 20
6.47611
 30
0.0
 10
24.3139
 20
6.46693
 30
0.0
 10
24.3139
 20
6.46693
 30
0.0
 10
24.3139
 20
6.46693
 30
0.0
 10
24.30447
 20
6.82956
 30
0.0
 10
24.30447
 20
6.82956
 30
0.0
 10
24.29926
 20
7.029
 30
0.0
 10
24.30346
 20
7.23828
 30
0.0
 10
24.31377
 20
7.29466
 30
0.0
 10
24.31377
 20
7.29466
 30
0.0
 10
24.33253
 20
7.39714
 30
0.0
 10
24.33253
 20
7.39714
 30
0.0
 10
24.33253
 20
7.39714
 30
0.0
 10
25.01048
 20
7.39714
 30
0.0
 10
25.01048
 20
7.39714
 30
0.0
 10
25.01048
 20
7.39714
 30
0.0
 10
25.68842
 20
7.39714
 30
0.0
 10
25.68842
 20
7.39714
 30
0.0
 10
25.68842
 20
7.39714
 30
0.0
 10
25.7658
 20
7.47455
 30
0.0
 10
25.7658
 20
7.47455
 30
0.0
 10
25.7658
 20
7.47455
 30
0.0
 10
25.84321
 20
7.55193
 30
0.0
 10
25.84321
 20
7.55193
 30
0.0
 10
25.84321
 20
7.55193
 30
0.0
 10
25.84321
 20
8.29288
 30
0.0
 10
25.84321
 20
8.29288
 30
0.0
 10
25.84321
 20
9.04694
 30
0.0
 10
25.82704
 20
9.16834
 30
0.0
 10
25.72071
 20
9.21185
 30
0.0
 10
25.63472
 20
9.24701
 30
0.0
 10
22.86524
 20
9.25732
 30
0.0
 10
22.74065
 20
9.22292
 30
0.0
 10
22.6785
 20
9.20577
 30
0.0
 10
22.6133
 20
9.1649
 30
0.0
 10
22.59576
 20
9.13211
 30
0.0
 10
22.57672
 20
9.09657
 30
0.0
 10
22.56385
 20
8.76075
 30
0.0
 10
22.56385
 20
8.30016
 30
0.0
 10
22.56385
 20
8.30016
 30
0.0
 10
22.56385
 20
7.52784
 30
0.0
 10
22.56385
 20
7.52784
 30
0.0
 10
22.56385
 20
7.52784
 30
0.0
 10
22.64694
 20
7.4625
 30
0.0
 10
22.64694
 20
7.4625
 30
0.0
 10
22.64694
 20
7.4625
 30
0.0
 10
22.73003
 20
7.39714
 30
0.0
 10
22.73003
 20
7.39714
 30
0.0
 10
22.73003
 20
7.39714
 30
0.0
 10
23.40372
 20
7.39714
 30
0.0
 10
23.40372
 20
7.39714
 30
0.0
 10
23.40372
 20
7.39714
 30
0.0
 10
24.0774
 20
7.39714
 30
0.0
 10
24.0774
 20
7.39714
 30
0.0
 10
24.0774
 20
7.39714
 30
0.0
 10
24.0774
 20
6.92415
 30
0.0
 10
24.0774
 20
6.92415
 30
0.0
 10
24.0774
 20
6.92415
 30
0.0
 10
24.0774
 20
6.45117
 30
0.0
 10
24.0774
 20
6.45117
 30
0.0
 10
24.0774
 20
6.45117
 30
0.0
 10
23.64383
 20
6.45066
 30
0.0
 10
23.64383
 20
6.45066
 30
0.0
 10
22.92392
 20
6.44984
 30
0.0
 10
22.53661
 20
6.40412
 30
0.0
 10
21.89811
 20
6.24466
 30
0.0
 10
21.21768
 20
6.0747
 30
0.0
 10
21.07941
 20
6.0725
 30
0.0
 10
20.77424
 20
6.22653
 30
0.0
 10
20.528
 20
6.35083
 30
0.0
 10
20.01579
 20
6.49503
 30
0.0
 10
19.63674
 20
6.54677
 30
0.0
 10
19.41857
 20
6.57657
 30
0.0
 10
19.17829
 20
6.57991
 30
0.0
 10
18.70654
 20
6.5598
 30
0.0
 10
17.80342
 20
6.5213
 30
0.0
 10
17.49863
 20
6.52842
 30
0.0
 10
17.32949
 20
6.59196
 30
0.0
 10
17.25145
 20
6.62129
 30
0.0
 10
17.0528
 20
6.65272
 30
0.0
 10
16.88804
 20
6.66184
 30
0.0
 10
16.88804
 20
6.66184
 30
0.0
 10
16.58848
 20
6.67839
 30
0.0
 10
16.58848
 20
6.67839
 30
0.0
 10
16.58848
 20
6.67839
 30
0.0
 10
16.25739
 20
6.59335
 30
0.0
 10
16.25739
 20
6.59335
 30
0.0
 10
16.07529
 20
6.54659
 30
0.0
 10
15.86955
 20
6.4944
 30
0.0
 10
15.80017
 20
6.4774
 30
0.0
 10
15.73002
 20
6.46022
 30
0.0
 10
15.55438
 20
6.4558
 30
0.0
 10
15.40444
 20
6.46744
 30
0.0
 10
15.40444
 20
6.46744
 30
0.0
 10
15.13484
 20
6.48841
 30
0.0
 10
15.13484
 20
6.48841
 30
0.0
 10
15.13484
 20
6.48841
 30
0.0
 10
15.02606
 20
9.37863
 30
0.0
 10
15.02606
 20
9.37863
 30
0.0
 10
14.91185
 20
12.41273
 30
0.0
 10
14.89296
 20
13.93952
 30
0.0
 10
14.96063
 20
14.66533
 30
0.0
 10
15.06989
 20
15.8371
 30
0.0
 10
15.26391
 20
16.62157
 30
0.0
 10
15.58758
 20
17.20037
 30
0.0
 10
16.03487
 20
18.00019
 30
0.0
 10
16.96381
 20
18.67533
 30
0.0
 10
17.93412
 20
18.90576
 30
0.0
 10
18.51403
 20
19.0435
 30
0.0
 10
19.36332
 20
19.05907
 30
0.0
 10
19.88361
 20
18.94152
 30
0.0
  0
SPLINE
  5
90
330
1F
100
AcDbEntity
  8
Layer 1
 62
     1
370
    30
100
AcDbSpline
210
0.0
220
0.0
230
1.0
 70
    11
 71
     3
 72
    23
 73
    19
 74
     0
 42
0.0000000001
 43
0.0000000001
 40
0.0
 40
0.0
 40
0.0
 40
0.0
 40
0.1666666666666667
 40
0.1666666666666667
 40
0.1666666666666667
 40
0.3333333333333333
 40
0.3333333333333333
 40
0.3333333333333333
 40
0.5
 40
0.5
 40
0.5
 40
0.6666666666666666
 40
0.6666666666666666
 40
0.6666666666666666
 40
0.8333333333333333
 40
0.8333333333333333
 40
0.8333333333333333
 40
1.0
 40
1.0
 40
1.0
 40
1.0
 10
17.26885
 20
5.60222
 30
0.0
 10
17.33709
 20
5.53399
 30
0.0
 10
17.36102
 20
5.48013
 30
0.0
 10
17.36102
 20
5.39484
 30
0.0
 10
17.36102
 20
5.30954
 30
0.0
 10
17.33709
 20
5.25568
 30
0.0
 10
17.26885
 20
5.18745
 30
0.0
 10
17.20062
 20
5.11921
 30
0.0
 10
17.14676
 20
5.09528
 30
0.0
 10
17.06147
 20
5.09528
 30
0.0
 10
16.90125
 20
5.09528
 30
0.0
 10
16.76191
 20
5.23462
 30
0.0
 10
16.76191
 20
5.39484
 30
0.0
 10
16.76191
 20
5.55505
 30
0.0
 10
16.90125
 20
5.69439
 30
0.0
 10
17.06147
 20
5.69439
 30
0.0
 10
17.14676
 20
5.69439
 30
0.0
 10
17.20062
 20
5.67046
 30
0.0
 10
17.26885
 20
5.60222
 30
0.0
  0
SPLINE
  5
91
330
1F
100
AcDbEntity
  8
Layer 1
 62
     1
370
    30
100
AcDbSpline
210
0.0
220
0.0
230
1.0
 70
    11
 71
     3
 72
    20
 73
    16
 74
     0
 42
0.0000000001
 43
0.0000000001
 40
0.0
 40
0.0
 40
0.0
 40
0.0
 40
0.2
 40
0.2
 40
0.2
 40
0.4
 40
0.4
 40
0.4
 40
0.6000000000000001
 40
0.6000000000000001
 40
0.6000000000000001
 40
0.8
 40
0.8
 40
0.8
 40
1.0
 40
1.0
 40
1.0
 40
1.0
 10
23.54378
 20
5.57069
 30
0.0
 10
23.73938
 20
5.3751
 30
0.0
 10
23.59212
 20
5.06375
 30
0.0
 10
23.30401
 20
5.06375
 30
0.0
 10
23.17731
 20
5.06375
 30
0.0
 10
23.03684
 20
5.22125
 30
0.0
 10
23.03684
 20
5.3633
 30
0.0
 10
23.03684
 20
5.4486
 30
0.0
 10
23.06077
 20
5.50246
 30
0.0
 10
23.12901
 20
5.57069
 30
0.0
 10
23.19724
 20
5.63893
 30
0.0
 10
23.2511
 20
5.66286
 30
0.0
 10
23.33639
 20
5.66286
 30
0.0
 10
23.42169
 20
5.66286
 30
0.0
 10
23.47555
 20
5.63893
 30
0.0
 10
23.54378
 20
5.57069
 30
0.0
  0
ENDSEC
  0
SECTION
  2
OBJECTS
  0
DICTIONARY
  5
C
330
0
100
AcDbDictionary
281
     1
  3
ACAD_DETAILVIEWSTYLE
350
99
  3
ACAD_GROUP
350
D
  3
ACAD_LAYOUT
350
1A
  3
ACAD_MATERIAL
350
43
  3
ACAD_MLEADERSTYLE
350
5B
  3
ACAD_MLINESTYLE
350
17
  3
ACAD_PLOTSETTINGS
350
19
  3
ACAD_PLOTSTYLENAME
350
E
  3
ACAD_SCALELIST
350
47
  3
ACAD_SECTIONVIEWSTYLE
350
9A
  3
ACAD_TABLESTYLE
350
59
  3
ACAD_VISUALSTYLE
350
2A
  3
ACDB_RECOMPOSE_DATA
350
96
  3
AcDbVariableDictionary
350
92
  0
SUN
  5
5D
330
29
100
AcDbSun
 90
        1
290
     0
 63
     7
421
 16777215
 40
1.0
291
     1
 91
  2455826
 92
 54000000
292
     0
 70
     2
 71
   256
280
     1
  0
DICTIONARY
  5
99
102
{ACAD_REACTORS
330
C
102
}
330
C
100
AcDbDictionary
281
     1
  0
DICTIONARY
  5
D
102
{ACAD_REACTORS
330
C
102
}
330
C
100
AcDbDictionary
281
     1
  0
DICTIONARY
  5
1A
102
{ACAD_REACTORS
330
C
102
}
330
C
100
AcDbDictionary
281
     1
  3
Layout1
350
1E
  3
Layout2
350
26
  3
Model
350
22
  0
DICTIONARY
  5
43
102
{ACAD_REACTORS
330
C
102
}
330
C
100
AcDbDictionary
281
     1
  3
ByBlock
350
45
  3
ByLayer
350
44
  3
Global
350
46
  0
DICTIONARY
  5
5B
102
{ACAD_REACTORS
330
C
102
}
330
C
100
AcDbDictionary
281
     1
  3
Standard
350
5C
  0
DICTIONARY
  5
17
102
{ACAD_REACTORS
330
C
102
}
330
C
100
AcDbDictionary
281
     1
  3
Standard
350
18
  0
DICTIONARY
  5
19
102
{ACAD_REACTORS
330
C
102
}
330
C
100
AcDbDictionary
281
     1
  0
ACDBDICTIONARYWDFLT
  5
E
102
{ACAD_REACTORS
330
C
102
}
330
C
100
AcDbDictionary
281
     1
  3
Normal
350
F
100
AcDbDictionaryWithDefault
340
F
  0
DICTIONARY
  5
47
102
{ACAD_REACTORS
330
C
102
}
330
C
100
AcDbDictionary
281
     1
  3
A0
350
48
  3
A1
350
49
  3
A2
350
4A
  3
A3
350
4B
  3
A4
350
4C
  3
A5
350
4D
  3
A6
350
4E
  3
A7
350
4F
  3
A8
350
50
  3
A9
350
51
  3
B1
350
52
  3
B2
350
53
  3
B3
350
54
  3
B4
350
55
  3
B5
350
56
  3
B6
350
57
  3
B7
350
58
  0
DICTIONARY
  5
9A
102
{ACAD_REACTORS
330
C
102
}
330
C
100
AcDbDictionary
281
     1
  0
DICTIONARY
  5
59
102
{ACAD_REACTORS
330
C
102
}
330
C
100
AcDbDictionary
281
     1
  3
Standard
350
5A
  0
DICTIONARY
  5
2A
102
{ACAD_REACTORS
330
C
102
}
330
C
100
AcDbDictionary
281
     1
  3
2dWireframe
350
2F
  3
Basic
350
32
  3
Brighten
350
36
  3
ColorChange
350
3A
  3
Conceptual
350
34
  3
Dim
350
35
  3
EdgeColorOff
350
3D
  3
Facepattern
350
39
  3
Flat
350
2B
  3
FlatWithEdges
350
2C
  3
Gouraud
350
2D
  3
GouraudWithEdges
350
2E
  3
Hidden
350
31
  3
JitterOff
350
3B
  3
Linepattern
350
38
  3
OverhangOff
350
3C
  3
Realistic
350
33
  3
Shaded
350
42
  3
Shaded with edges
350
41
  3
Shades of Gray
350
3E
  3
Sketchy
350
3F
  3
Thicken
350
37
  3
Wireframe
350
30
  3
X-Ray
350
40
  0
XRECORD
  5
96
102
{ACAD_REACTORS
330
C
102
}
330
C
100
AcDbXrecord
280
     1
 90
        1
330
5A
  0
DICTIONARY
  5
92
102
{ACAD_REACTORS
330
C
102
}
330
C
100
AcDbDictionary
281
     1
  3
CANNOSCALE
350
93
  3
CMLEADERSTYLE
350
98
  3
CTABLESTYLE
350
97
  0
LAYOUT
  5
1E
102
{ACAD_REACTORS
330
1A
102
}
330
1A
100
AcDbPlotSettings
  1

  2
none_device
  4

  6

 40
0.0
 41
0.0
 42
0.0
 43
0.0
 44
0.0
 45
0.0
 46
0.0
 47
0.0
 48
0.0
 49
0.0
140
0.0
141
0.0
142
1.0
143
1.0
 70
   688
 72
     0
 73
     0
 74
     5
  7

 75
    16
 76
     0
 77
     2
 78
   300
147
1.0
148
0.0
149
0.0
100
AcDbLayout
  1
Layout1
 70
     1
 71
     1
 10
0.0
 20
0.0
 11
12.0
 21
9.0
 12
0.0
 22
0.0
 32
0.0
 14
1.000000000000000E+20
 24
1.000000000000000E+20
 34
1.000000000000000E+20
 15
-1.000000000000000E+20
 25
-1.000000000000000E+20
 35
-1.000000000000000E+20
146
0.0
 13
0.0
 23
0.0
 33
0.0
 16
1.0
 26
0.0
 36
0.0
 17
0.0
 27
1.0
 37
0.0
 76
     0
330
1B
  0
LAYOUT
  5
26
102
{ACAD_REACTORS
330
1A
102
}
330
1A
100
AcDbPlotSettings
  1

  2
none_device
  4

  6

 40
0.0
 41
0.0
 42
0.0
 43
0.0
 44
0.0
 45
0.0
 46
0.0
 47
0.0
 48
0.0
 49
0.0
140
0.0
141
0.0
142
1.0
143
1.0
 70
   688
 72
     0
 73
     0
 74
     5
  7

 75
    16
 76
     0
 77
     2
 78
   300
147
1.0
148
0.0
149
0.0
100
AcDbLayout
  1
Layout2
 70
     1
 71
     2
 10
0.0
 20
0.0
 11
0.0
 21
0.0
 12
0.0
 22
0.0
 32
0.0
 14
0.0
 24
0.0
 34
0.0
 15
0.0
 25
0.0
 35
0.0
146
0.0
 13
0.0
 23
0.0
 33
0.0
 16
1.0
 26
0.0
 36
0.0
 17
0.0
 27
1.0
 37
0.0
 76
     0
330
23
  0
LAYOUT
  5
22
102
{ACAD_REACTORS
330
1A
102
}
330
1A
100
AcDbPlotSettings
  1

  2
none_device
  4
Letter_(8.50_x_11.00_Inches)
  6

 40
6.35
 41
6.35
 42
6.35000508
 43
6.35000508
 44
215.9
 45
279.4
 46
0.0
 47
0.0
 48
0.0
 49
0.0
140
0.0
141
0.0
142
1.0
143
1.0
 70
  1712
 72
     0
 73
     0
 74
     0
  7

 75
     0
 76
     0
 77
     2
 78
   300
147
1.0
148
0.0
149
0.0
100
AcDbLayout
  1
Model
 70
     1
 71
     0
 10
0.0
 20
0.0
 11
12.0
 21
9.0
 12
0.0
 22
0.0
 32
0.0
 14
-82.56693
 24
-19.96439
 34
0.0
 15
41.47301
 25
19.94774
 35
0.0
146
0.0
 13
0.0
 23
0.0
 33
0.0
 16
1.0
 26
0.0
 36
0.0
 17
0.0
 27
1.0
 37
0.0
 76
     0
330
1F
331
29
  0
MATERIAL
  5
45
102
{ACAD_REACTORS
330
43
102
}
330
43
100
AcDbMaterial
  1
ByBlock
 72
     1
 94
      127
  0
MATERIAL
  5
44
102
{ACAD_REACTORS
330
43
102
}
330
43
100
AcDbMaterial
  1
ByLayer
 72
     1
 94
      127
  0
MATERIAL
  5
46
102
{ACAD_REACTORS
330
43
102
}
330
43
100
AcDbMaterial
  1
Global
 72
     1
 94
      127
  0
MLEADERSTYLE
  5
5C
102
{ACAD_REACTORS
330
5B
102
}
330
5B
100
AcDbMLeaderStyle
179
     2
170
     2
171
     1
172
     0
 90
        2
 40
0.0
 41
0.0
173
     1
 91
-1056964608
340
14
 92
       -2
290
     1
 42
0.09
291
     1
 43
0.36
  3
Standard
341
0
 44
0.18
300

342
11
174
     1
178
     6
175
     1
176
     0
 93
-1056964608
 45
0.18
292
     0
297
     0
 46
0.18
343
0
 94
-1056964608
 47
1.0
 49
1.0
140
1.0
293
     1
141
0.0
294
     1
177
     0
142
1.0
295
     0
296
     0
143
0.125
271
     0
272
     9
273
     9
298
     0
  0
MLINESTYLE
  5
18
102
{ACAD_REACTORS
330
17
102
}
330
17
100
AcDbMlineStyle
  2
Standard
 70
     0
  3

 62
   256
 51
90.0
 52
90.0
 71
     2
 49
0.5
 62
   256
  6
BYLAYER
 49
-0.5
 62
   256
  6
BYLAYER
  0
ACDBPLACEHOLDER
  5
F
102
{ACAD_REACTORS
330
E
102
}
330
E
  0
SCALE
  5
48
102
{ACAD_REACTORS
330
47
102
}
330
47
100
AcDbScale
 70
     0
300
1:1
140
1.0
141
1.0
290
     1
  0
SCALE
  5
49
102
{ACAD_REACTORS
330
47
102
}
330
47
100
AcDbScale
 70
     0
300
1/128" = 1'-0"
140
0.0078125
141
12.0
290
     0
  0
SCALE
  5
4A
102
{ACAD_REACTORS
330
47
102
}
330
47
100
AcDbScale
 70
     0
300
1/64" = 1'-0"
140
0.015625
141
12.0
290
     0
  0
SCALE
  5
4B
102
{ACAD_REACTORS
330
47
102
}
330
47
100
AcDbScale
 70
     0
300
1/32" = 1'-0"
140
0.03125
141
12.0
290
     0
  0
SCALE
  5
4C
102
{ACAD_REACTORS
330
47
102
}
330
47
100
AcDbScale
 70
     0
300
1/16" = 1'-0"
140
0.0625
141
12.0
290
     0
  0
SCALE
  5
4D
102
{ACAD_REACTORS
330
47
102
}
330
47
100
AcDbScale
 70
     0
300
3/32" = 1'-0"
140
0.09375
141
12.0
290
     0
  0
SCALE
  5
4E
102
{ACAD_REACTORS
330
47
102
}
330
47
100
AcDbScale
 70
     0
300
1/8" = 1'-0"
140
0.125
141
12.0
290
     0
  0
SCALE
  5
4F
102
{ACAD_REACTORS
330
47
102
}
330
47
100
AcDbScale
 70
     0
300
3/16" = 1'-0"
140
0.1875
141
12.0
290
     0
  0
SCALE
  5
50
102
{ACAD_REACTORS
330
47
102
}
330
47
100
AcDbScale
 70
     0
300
1/4" = 1'-0"
140
0.25
141
12.0
290
     0
  0
SCALE
  5
51
102
{ACAD_REACTORS
330
47
102
}
330
47
100
AcDbScale
 70
     0
300
3/8" = 1'-0"
140
0.375
141
12.0
290
     0
  0
SCALE
  5
52
102
{ACAD_REACTORS
330
47
102
}
330
47
100
AcDbScale
 70
     0
300
1/2" = 1'-0"
140
0.5
141
12.0
290
     0
  0
SCALE
  5
53
102
{ACAD_REACTORS
330
47
102
}
330
47
100
AcDbScale
 70
     0
300
3/4" = 1'-0"
140
0.75
141
12.0
290
     0
  0
SCALE
  5
54
102
{ACAD_REACTORS
330
47
102
}
330
47
100
AcDbScale
 70
     0
300
1" = 1'-0"
140
1.0
141
12.0
290
     0
  0
SCALE
  5
55
102
{ACAD_REACTORS
330
47
102
}
330
47
100
AcDbScale
 70
     0
300
1-1/2" = 1'-0"
140
1.5
141
12.0
290
     0
  0
SCALE
  5
56
102
{ACAD_REACTORS
330
47
102
}
330
47
100
AcDbScale
 70
     0
300
3" = 1'-0"
140
3.0
141
12.0
290
     0
  0
SCALE
  5
57
102
{ACAD_REACTORS
330
47
102
}
330
47
100
AcDbScale
 70
     0
300
6" = 1'-0"
140
6.0
141
12.0
290
     0
  0
SCALE
  5
58
102
{ACAD_REACTORS
330
47
102
}
330
47
100
AcDbScale
 70
     0
300
1'-0" = 1'-0"
140
12.0
141
12.0
290
     0
  0
TABLESTYLE
  5
5A
102
{ACAD_REACTORS
330
59
102
}
102
{ACAD_XDICTIONARY
360
94
102
}
330
59
100
AcDbTableStyle
  3
Standard
 70
     0
 71
     0
 40
0.06
 41
0.06
280
     0
281
     0
  7
Standard
140
0.18
170
     2
 62
     0
 63
   257
283
     0
 90
        4
 91
        0
  1

274
    -2
284
     1
 64
     0
275
    -2
285
     1
 65
     0
276
    -2
286
     1
 66
     0
277
    -2
287
     1
 67
     0
278
    -2
288
     1
 68
     0
279
    -2
289
     1
 69
     0
  7
Standard
140
0.25
170
     5
 62
     0
 63
   257
283
     0
 90
        4
 91
        0
  1

274
    -2
284
     1
 64
     0
275
    -2
285
     1
 65
     0
276
    -2
286
     1
 66
     0
277
    -2
287
     1
 67
     0
278
    -2
288
     1
 68
     0
279
    -2
289
     1
 69
     0
  7
Standard
140
0.18
170
     5
 62
     0
 63
   257
283
     0
 90
        4
 91
        0
  1

274
    -2
284
     1
 64
     0
275
    -2
285
     1
 65
     0
276
    -2
286
     1
 66
     0
277
    -2
287
     1
 67
     0
278
    -2
288
     1
 68
     0
279
    -2
289
     1
 69
     0
  0
VISUALSTYLE
  5
2F
102
{ACAD_REACTORS
330
2A
102
}
330
2A
100
AcDbVisualStyle
  2
2dWireframe
 70
     4
177
     3
291
     0
 70
    58
 90
        0
176
     1
 90
        2
176
     1
 90
        0
176
     1
 90
        0
176
     1
 40
0.6
176
     1
 40
30.0
176
     1
 62
     7
420
 16777215
176
     1
 90
        1
176
     1
 90
        4
176
     1
 62
     7
176
     1
 62
   257
176
     1
 90
        1
176
     1
 90
        1
176
     1
 40
1.0
176
     1
 90
        0
176
     1
 62
   257
176
     1
 40
1.0
176
     1
 90
        1
176
     1
 90
        6
176
     1
 90
        2
176
     1
 62
     7
176
     1
 90
        5
176
     1
 90
        0
176
     1
 90
        0
176
     1
290
     0
176
     1
 90
        1
176
     1
 40
0.0
176
     1
 90
        0
176
     1
290
     1
176
     1
290
     1
176
     1
290
     0
176
     1
290
     0
176
     1
290
     0
176
     1
290
     0
176
     1
290
     0
176
     1
290
     0
176
     1
290
     0
176
     1
 90
       50
176
     1
 40
0.0
176
     1
 40
1.0
176
     1
 90
        0
176
     1
 62
    18
420
        0
176
     1
 90
       50
176
     1
 90
        3
176
     1
 62
     5
420
      255
176
     1
290
     0
176
     1
 90
       50
176
     1
 90
       50
176
     1
 90
       50
176
     1
290
     0
176
     1
 90
       50
176
     1
 62
   256
176
     0
 40
1.0
176
     0
 90
        2
176
     1
  1
strokes_ogs.tif
176
     1
290
     0
176
     1
 40
1.0
176
     1
 40
1.0
176
     1
  0
VISUALSTYLE
  5
32
102
{ACAD_REACTORS
330
2A
102
}
330
2A
100
AcDbVisualStyle
  2
Basic
 70
     7
177
     3
291
     1
 70
    58
 90
        1
176
     1
 90
        0
176
     1
 90
        1
176
     1
 90
        0
176
     1
 40
0.6
176
     1
 40
30.0
176
     1
 62
     7
420
 16777215
176
     1
 90
        0
176
     1
 90
        4
176
     1
 62
     7
176
     1
 62
   257
176
     1
 90
        1
176
     1
 90
        1
176
     1
 40
1.0
176
     1
 90
        8
176
     1
 62
     7
176
     1
 40
1.0
176
     1
 90
        1
176
     1
 90
        6
176
     1
 90
        2
176
     1
 62
     7
176
     1
 90
        5
176
     1
 90
        0
176
     1
 90
        0
176
     1
290
     0
176
     1
 90
        1
176
     1
 40
0.0
176
     1
 90
        0
176
     1
290
     0
176
     1
290
     1
176
     1
290
     1
176
     1
290
     0
176
     1
290
     0
176
     1
290
     0
176
     1
290
     0
176
     1
290
     0
176
     1
290
     0
176
     1
 90
       50
176
     1
 40
0.0
176
     1
 40
1.0
176
     1
 90
        0
176
     1
 62
    18
420
        0
176
     1
 90
       50
176
     1
 90
        3
176
     1
 62
     5
420
      255
176
     1
290
     0
176
     1
 90
       50
176
     1
 90
       50
176
     1
 90
       50
176
     1
290
     0
176
     1
 90
       50
176
     1
 62
   256
176
     0
 40
1.0
176
     0
 90
        2
176
     1
  1
strokes_ogs.tif
176
     1
290
     0
176
     1
 40
1.0
176
     1
 40
1.0
176
     1
  0
VISUALSTYLE
  5
36
102
{ACAD_REACTORS
330
2A
102
}
330
2A
100
AcDbVisualStyle
  2
Brighten
 70
    12
177
     3
291
     1
 70
    58
 90
        2
176
     1
 90
        2
176
     1
 90
        0
176
     1
 90
        0
176
     1
 40
0.6
176
     1
 40
30.0
176
     1
 62
     7
420
 16777215
176
     1
 90
        1
176
     1
 90
        4
176
     1
 62
     7
176
     1
 62
   257
176
     1
 90
        1
176
     1
 90
        1
176
     1
 40
1.0
176
     1
 90
        8
176
     1
 62
     7
176
     1
 40
1.0
176
     1
 90
        1
176
     1
 90
        6
176
     1
 90
        2
176
     1
 62
     7
176
     1
 90
        5
176
     1
 90
        0
176
     1
 90
        0
176
     1
290
     0
176
     1
 90
        1
176
     1
 40
50.0
176
     1
 90
        0
176
     1
290
     0
176
     1
290
     1
176
     1
290
     1
176
     1
290
     0
176
     1
290
     0
176
     1
290
     0
176
     1
290
     0
176
     1
290
     0
176
     1
290
     0
176
     1
 90
       50
176
     1
 40
0.0
176
     1
 40
1.0
176
     1
 90
        0
176
     1
 62
    18
420
        0
176
     1
 90
       50
176
     1
 90
        3
176
     1
 62
     5
420
      255
176
     1
290
     0
176
     1
 90
       50
176
     1
 90
       50
176
     1
 90
       50
176
     1
290
     0
176
     1
 90
       50
176
     1
 62
   256
176
     0
 40
1.0
176
     0
 90
        2
176
     1
  1
strokes_ogs.tif
176
     1
290
     0
176
     1
 40
1.0
176
     1
 40
1.0
176
     1
  0
VISUALSTYLE
  5
3A
102
{ACAD_REACTORS
330
2A
102
}
330
2A
100
AcDbVisualStyle
  2
ColorChange
 70
    16
177
     3
291
     1
 70
    58
 90
        2
176
     1
 90
        2
176
     1
 90
        3
176
     1
 90
        0
176
     1
 40
0.6
176
     1
 40
30.0
176
     1
 62
     8
420
  8421504
176
     1
 90
        1
176
     1
 90
        4
176
     1
 62
     7
176
     1
 62
   257
176
     1
 90
        1
176
     1
 90
        1
176
     1
 40
1.0
176
     1
 90
        8
176
     1
 62
     8
420
  8421504
176
     1
 40
1.0
176
     1
 90
        1
176
     1
 90
        6
176
     1
 90
        2
176
     1
 62
     7
176
     1
 90
        5
176
     1
 90
        0
176
     1
 90
        0
176
     1
290
     0
176
     1
 90
        1
176
     1
 40
0.0
176
     1
 90
        0
176
     1
290
     0
176
     1
290
     1
176
     1
290
     1
176
     1
290
     0
176
     1
290
     0
176
     1
290
     0
176
     1
290
     0
176
     1
290
     0
176
     1
290
     0
176
     1
 90
       50
176
     1
 40
0.0
176
     1
 40
1.0
176
     1
 90
        0
176
     1
 62
    18
420
        0
176
     1
 90
       50
176
     1
 90
        3
176
     1
 62
     5
420
      255
176
     1
290
     0
176
     1
 90
       50
176
     1
 90
       50
176
     1
 90
       50
176
     1
290
     0
176
     1
 90
       50
176
     1
 62
   256
176
     0
 40
1.0
176
     0
 90
        2
176
     1
  1
strokes_ogs.tif
176
     1
290
     0
176
     1
 40
1.0
176
     1
 40
1.0
176
     1
  0
VISUALSTYLE
  5
34
102
{ACAD_REACTORS
330
2A
102
}
330
2A
100
AcDbVisualStyle
  2
Conceptual
 70
     9
177
     3
291
     0
 70
    58
 90
        3
176
     1
 90
        2
176
     1
 90
        0
176
     1
 90
        0
176
     1
 40
0.6
176
     1
 40
30.0
176
     1
 62
     7
420
 16777215
176
     1
 90
        2
176
     1
 90
        2
176
     1
 62
     7
176
     1
 62
   257
176
     1
 90
        1
176
     1
 90
        1
176
     1
 40
179.0
176
     1
 90
        8
176
     1
 62
     7
176
     1
 40
1.0
176
     1
 90
        1
176
     1
 90
        6
176
     1
 90
        2
176
     1
 62
     7
176
     1
 90
        3
176
     1
 90
        0
176
     1
 90
        0
176
     1
290
     0
176
     1
 90
        1
176
     1
 40
0.0
176
     1
 90
        0
176
     1
290
     0
176
     1
290
     1
176
     1
290
     1
176
     1
290
     0
176
     1
290
     0
176
     1
290
     0
176
     1
290
     0
176
     1
290
     0
176
     1
290
     0
176
     1
 90
       50
176
     1
 40
0.0
176
     1
 40
1.0
176
     1
 90
        0
176
     1
 62
    18
420
        0
176
     1
 90
       50
176
     1
 90
        3
176
     1
 62
     5
420
      255
176
     1
290
     0
176
     1
 90
       50
176
     1
 90
       50
176
     1
 90
       50
176
     1
290
     0
176
     1
 90
       50
176
     1
 62
   256
176
     0
 40
1.0
176
     0
 90
        2
176
     1
  1
strokes_ogs.tif
176
     1
290
     0
176
     1
 40
1.0
176
     1
 40
1.0
176
     1
  0
VISUALSTYLE
  5
35
102
{ACAD_REACTORS
330
2A
102
}
330
2A
100
AcDbVisualStyle
  2
Dim
 70
    11
177
     3
291
     1
 70
    58
 90
        2
176
     1
 90
        2
176
     1
 90
        0
176
     1
 90
        0
176
     1
 40
0.6
176
     1
 40
30.0
176
     1
 62
     7
420
 16777215
176
     1
 90
        1
176
     1
 90
        4
176
     1
 62
     7
176
     1
 62
   257
176
     1
 90
        1
176
     1
 90
        1
176
     1
 40
1.0
176
     1
 90
        8
176
     1
 62
     7
176
     1
 40
1.0
176
     1
 90
        1
176
     1
 90
        6
176
     1
 90
        2
176
     1
 62
     7
176
     1
 90
        5
176
     1
 90
        0
176
     1
 90
        0
176
     1
290
     0
176
     1
 90
        1
176
     1
 40
-50.0
176
     1
 90
        0
176
     1
290
     0
176
     1
290
     1
176
     1
290
     1
176
     1
290
     0
176
     1
290
     0
176
     1
290
     0
176
     1
290
     0
176
     1
290
     0
176
     1
290
     0
176
     1
 90
       50
176
     1
 40
0.0
176
     1
 40
1.0
176
     1
 90
        0
176
     1
 62
    18
420
        0
176
     1
 90
       50
176
     1
 90
        3
176
     1
 62
     5
420
      255
176
     1
290
     0
176
     1
 90
       50
176
     1
 90
       50
176
     1
 90
       50
176
     1
290
     0
176
     1
 90
       50
176
     1
 62
   256
176
     0
 40
1.0
176
     0
 90
        2
176
     1
  1
strokes_ogs.tif
176
     1
290
     0
176
     1
 40
1.0
176
     1
 40
1.0
176
     1
  0
VISUALSTYLE
  5
3D
102
{ACAD_REACTORS
330
2A
102
}
330
2A
100
AcDbVisualStyle
  2
EdgeColorOff
 70
    22
177
     3
291
     1
 70
    58
 90
        2
176
     0
 90
        2
176
     0
 90
        0
176
     0
 90
        0
176
     0
 40
0.6
176
     0
 40
30.0
176
     0
 62
     7
420
 16777215
176
     0
 90
        1
176
     0
 90
        4
176
     0
 62
     7
176
     0
 62
   257
176
     0
 90
        1
176
     0
 90
        1
176
     0
 40
1.0
176
     0
 90
        8
176
     2
 62
     7
176
     0
 40
1.0
176
     0
 90
        1
176
     0
 90
        6
176
     0
 90
        2
176
     0
 62
     7
176
     0
 90
        5
176
     0
 90
        0
176
     0
 90
        0
176
     0
290
     0
176
     0
 90
        1
176
     0
 40
0.0
176
     0
 90
        0
176
     0
290
     0
176
     0
290
     1
176
     0
290
     1
176
     0
290
     0
176
     0
290
     0
176
     0
290
     0
176
     0
290
     0
176
     0
290
     0
176
     0
290
     0
176
     0
 90
       50
176
     0
 40
0.0
176
     0
 40
1.0
176
     0
 90
        0
176
     0
 62
    18
420
        0
176
     0
 90
       50
176
     0
 90
        3
176
     0
 62
     5
420
      255
176
     0
290
     0
176
     0
 90
       50
176
     0
 90
       50
176
     0
 90
       50
176
     0
290
     0
176
     0
 90
       50
176
     0
 62
   256
176
     0
 40
1.0
176
     0
 90
        2
176
     0
  1
strokes_ogs.tif
176
     0
290
     0
176
     0
 40
1.0
176
     0
 40
1.0
176
     0
  0
VISUALSTYLE
  5
39
102
{ACAD_REACTORS
330
2A
102
}
330
2A
100
AcDbVisualStyle
  2
Facepattern
 70
    15
177
     3
291
     1
 70
    58
 90
        2
176
     1
 90
        2
176
     1
 90
        0
176
     1
 90
        0
176
     1
 40
0.6
176
     1
 40
30.0
176
     1
 62
     7
420
 16777215
176
     1
 90
        1
176
     1
 90
        4
176
     1
 62
     7
176
     1
 62
   257
176
     1
 90
        1
176
     1
 90
        1
176
     1
 40
1.0
176
     1
 90
        8
176
     1
 62
     7
176
     1
 40
1.0
176
     1
 90
        1
176
     1
 90
        6
176
     1
 90
        2
176
     1
 62
     7
176
     1
 90
        5
176
     1
 90
        0
176
     1
 90
        0
176
     1
290
     0
176
     1
 90
        1
176
     1
 40
0.0
176
     1
 90
        0
176
     1
290
     0
176
     1
290
     1
176
     1
290
     1
176
     1
290
     0
176
     1
290
     0
176
     1
290
     0
176
     1
290
     0
176
     1
290
     0
176
     1
290
     0
176
     1
 90
       50
176
     1
 40
0.0
176
     1
 40
1.0
176
     1
 90
        0
176
     1
 62
    18
420
        0
176
     1
 90
       50
176
     1
 90
        3
176
     1
 62
     5
420
      255
176
     1
290
     0
176
     1
 90
       50
176
     1
 90
       50
176
     1
 90
       50
176
     1
290
     0
176
     1
 90
       50
176
     1
 62
   256
176
     0
 40
1.0
176
     0
 90
        2
176
     1
  1
strokes_ogs.tif
176
     1
290
     0
176
     1
 40
1.0
176
     1
 40
1.0
176
     1
  0
VISUALSTYLE
  5
2B
102
{ACAD_REACTORS
330
2A
102
}
330
2A
100
AcDbVisualStyle
  2
Flat
 70
     0
177
     3
291
     1
 70
    58
 90
        2
176
     1
 90
        1
176
     1
 90
        1
176
     1
 90
        2
176
     1
 40
0.6
176
     1
 40
30.0
176
     1
 62
     7
420
 16777215
176
     1
 90
        0
176
     1
 90
        0
176
     1
 62
     7
176
     1
 62
   257
176
     1
 90
        1
176
     1
 90
        1
176
     1
 40
1.0
176
     1
 90
        8
176
     1
 62
     7
176
     1
 40
1.0
176
     1
 90
        1
176
     1
 90
        6
176
     1
 90
        2
176
     1
 62
     7
176
     1
 90
        5
176
     1
 90
        0
176
     1
 90
        0
176
     1
290
     0
176
     1
 90
       13
176
     1
 40
0.0
176
     1
 90
        0
176
     1
290
     0
176
     1
290
     1
176
     1
290
     1
176
     1
290
     0
176
     1
290
     0
176
     1
290
     0
176
     1
290
     0
176
     1
290
     0
176
     1
290
     0
176
     1
 90
       50
176
     1
 40
0.0
176
     1
 40
1.0
176
     1
 90
        0
176
     1
 62
    18
420
        0
176
     1
 90
       50
176
     1
 90
        3
176
     1
 62
     5
420
      255
176
     1
290
     0
176
     1
 90
       50
176
     1
 90
       50
176
     1
 90
       50
176
     1
290
     0
176
     1
 90
       50
176
     1
 62
   256
176
     0
 40
1.0
176
     0
 90
        2
176
     1
  1
strokes_ogs.tif
176
     1
290
     0
176
     1
 40
1.0
176
     1
 40
1.0
176
     1
  0
VISUALSTYLE
  5
2C
102
{ACAD_REACTORS
330
2A
102
}
330
2A
100
AcDbVisualStyle
  2
FlatWithEdges
 70
     1
177
     3
291
     1
 70
    58
 90
        2
176
     1
 90
        1
176
     1
 90
        1
176
     1
 90
        2
176
     1
 40
0.6
176
     1
 40
30.0
176
     1
 62
     7
420
 16777215
176
     1
 90
        1
176
     1
 90
        0
176
     1
 62
     7
176
     1
 62
   257
176
     1
 90
        1
176
     1
 90
        1
176
     1
 40
1.0
176
     1
 90
        0
176
     1
 62
   257
176
     1
 40
1.0
176
     1
 90
        1
176
     1
 90
        6
176
     1
 90
        2
176
     1
 62
     7
176
     1
 90
        5
176
     1
 90
        0
176
     1
 90
        0
176
     1
290
     0
176
     1
 90
       13
176
     1
 40
0.0
176
     1
 90
        0
176
     1
290
     0
176
     1
290
     1
176
     1
290
     1
176
     1
290
     0
176
     1
290
     0
176
     1
290
     0
176
     1
290
     0
176
     1
290
     0
176
     1
290
     0
176
     1
 90
       50
176
     1
 40
0.0
176
     1
 40
1.0
176
     1
 90
        0
176
     1
 62
    18
420
        0
176
     1
 90
       50
176
     1
 90
        3
176
     1
 62
     5
420
      255
176
     1
290
     0
176
     1
 90
       50
176
     1
 90
       50
176
     1
 90
       50
176
     1
290
     0
176
     1
 90
       50
176
     1
 62
   256
176
     0
 40
1.0
176
     0
 90
        2
176
     1
  1
strokes_ogs.tif
176
     1
290
     0
176
     1
 40
1.0
176
     1
 40
1.0
176
     1
  0
VISUALSTYLE
  5
2D
102
{ACAD_REACTORS
330
2A
102
}
330
2A
100
AcDbVisualStyle
  2
Gouraud
 70
     2
177
     3
291
     1
 70
    58
 90
        2
176
     1
 90
        2
176
     1
 90
        1
176
     1
 90
        2
176
     1
 40
0.6
176
     1
 40
30.0
176
     1
 62
     7
420
 16777215
176
     1
 90
        0
176
     1
 90
        0
176
     1
 62
     7
176
     1
 62
   257
176
     1
 90
        1
176
     1
 90
        1
176
     1
 40
1.0
176
     1
 90
        0
176
     1
 62
     7
176
     1
 40
1.0
176
     1
 90
        1
176
     1
 90
        6
176
     1
 90
        2
176
     1
 62
     7
176
     1
 90
        5
176
     1
 90
        0
176
     1
 90
        0
176
     1
290
     0
176
     1
 90
       13
176
     1
 40
0.0
176
     1
 90
        0
176
     1
290
     0
176
     1
290
     1
176
     1
290
     1
176
     1
290
     0
176
     1
290
     0
176
     1
290
     0
176
     1
290
     0
176
     1
290
     0
176
     1
290
     0
176
     1
 90
       50
176
     1
 40
0.0
176
     1
 40
1.0
176
     1
 90
        0
176
     1
 62
    18
420
        0
176
     1
 90
       50
176
     1
 90
        3
176
     1
 62
     5
420
      255
176
     1
290
     0
176
     1
 90
       50
176
     1
 90
       50
176
     1
 90
       50
176
     1
290
     0
176
     1
 90
       50
176
     1
 62
   256
176
     0
 40
1.0
176
     0
 90
        2
176
     1
  1
strokes_ogs.tif
176
     1
290
     0
176
     1
 40
1.0
176
     1
 40
1.0
176
     1
  0
VISUALSTYLE
  5
2E
102
{ACAD_REACTORS
330
2A
102
}
330
2A
100
AcDbVisualStyle
  2
GouraudWithEdges
 70
     3
177
     3
291
     1
 70
    58
 90
        2
176
     1
 90
        2
176
     1
 90
        1
176
     1
 90
        2
176
     1
 40
0.6
176
     1
 40
30.0
176
     1
 62
     7
420
 16777215
176
     1
 90
        1
176
     1
 90
        0
176
     1
 62
     7
176
     1
 62
   257
176
     1
 90
        1
176
     1
 90
        1
176
     1
 40
1.0
176
     1
 90
        0
176
     1
 62
   257
176
     1
 40
1.0
176
     1
 90
        1
176
     1
 90
        6
176
     1
 90
        2
176
     1
 62
     7
176
     1
 90
        5
176
     1
 90
        0
176
     1
 90
        0
176
     1
290
     0
176
     1
 90
       13
176
     1
 40
0.0
176
     1
 90
        0
176
     1
290
     0
176
     1
290
     1
176
     1
290
     1
176
     1
290
     0
176
     1
290
     0
176
     1
290
     0
176
     1
290
     0
176
     1
290
     0
176
     1
290
     0
176
     1
 90
       50
176
     1
 40
0.0
176
     1
 40
1.0
176
     1
 90
        0
176
     1
 62
    18
420
        0
176
     1
 90
       50
176
     1
 90
        3
176
     1
 62
     5
420
      255
176
     1
290
     0
176
     1
 90
       50
176
     1
 90
       50
176
     1
 90
       50
176
     1
290
     0
176
     1
 90
       50
176
     1
 62
   256
176
     0
 40
1.0
176
     0
 90
        2
176
     1
  1
strokes_ogs.tif
176
     1
290
     0
176
     1
 40
1.0
176
     1
 40
1.0
176
     1
  0
VISUALSTYLE
  5
31
102
{ACAD_REACTORS
330
2A
102
}
330
2A
100
AcDbVisualStyle
  2
Hidden
 70
     6
177
     3
291
     0
 70
    58
 90
        1
176
     1
 90
        2
176
     1
 90
        2
176
     1
 90
        0
176
     1
 40
0.6
176
     1
 40
30.0
176
     1
 62
     7
420
 16777215
176
     1
 90
        2
176
     1
 90
        2
176
     1
 62
     7
176
     1
 62
   257
176
     1
 90
        2
176
     1
 90
        1
176
     1
 40
40.0
176
     1
 90
        0
176
     1
 62
   257
176
     1
 40
1.0
176
     1
 90
        1
176
     1
 90
        6
176
     1
 90
        2
176
     1
 62
     7
176
     1
 90
        3
176
     1
 90
        0
176
     1
 90
        0
176
     1
290
     0
176
     1
 90
        1
176
     1
 40
0.0
176
     1
 90
        0
176
     1
290
     0
176
     1
290
     1
176
     1
290
     1
176
     1
290
     0
176
     1
290
     0
176
     1
290
     0
176
     1
290
     0
176
     1
290
     0
176
     1
290
     0
176
     1
 90
       50
176
     1
 40
0.0
176
     1
 40
1.0
176
     1
 90
        0
176
     1
 62
    18
420
        0
176
     1
 90
       50
176
     1
 90
        3
176
     1
 62
     5
420
      255
176
     1
290
     0
176
     1
 90
       50
176
     1
 90
       50
176
     1
 90
       50
176
     1
290
     0
176
     1
 90
       50
176
     1
 62
   256
176
     0
 40
1.0
176
     0
 90
        2
176
     1
  1
strokes_ogs.tif
176
     1
290
     0
176
     1
 40
1.0
176
     1
 40
1.0
176
     1
  0
VISUALSTYLE
  5
3B
102
{ACAD_REACTORS
330
2A
102
}
330
2A
100
AcDbVisualStyle
  2
JitterOff
 70
    20
177
     3
291
     1
 70
    58
 90
        2
176
     0
 90
        2
176
     0
 90
        0
176
     0
 90
        0
176
     0
 40
0.6
176
     0
 40
30.0
176
     0
 62
     7
420
 16777215
176
     0
 90
        1
176
     0
 90
        4
176
     0
 62
     7
176
     0
 62
   257
176
     0
 90
        1
176
     0
 90
        1
176
     0
 40
1.0
176
     0
 90
       10
176
     2
 62
     7
176
     0
 40
1.0
176
     0
 90
        1
176
     0
 90
        6
176
     0
 90
        2
176
     0
 62
     7
176
     0
 90
        5
176
     0
 90
        0
176
     0
 90
        0
176
     0
290
     0
176
     0
 90
        1
176
     0
 40
0.0
176
     0
 90
        0
176
     0
290
     0
176
     0
290
     1
176
     0
290
     1
176
     0
290
     0
176
     0
290
     0
176
     0
290
     0
176
     0
290
     0
176
     0
290
     0
176
     0
290
     0
176
     0
 90
       50
176
     0
 40
0.0
176
     0
 40
1.0
176
     0
 90
        0
176
     0
 62
    18
420
        0
176
     0
 90
       50
176
     0
 90
        3
176
     0
 62
     5
420
      255
176
     0
290
     0
176
     0
 90
       50
176
     0
 90
       50
176
     0
 90
       50
176
     0
290
     0
176
     0
 90
       50
176
     0
 62
   256
176
     0
 40
1.0
176
     0
 90
        2
176
     0
  1
strokes_ogs.tif
176
     0
290
     0
176
     0
 40
1.0
176
     0
 40
1.0
176
     0
  0
VISUALSTYLE
  5
38
102
{ACAD_REACTORS
330
2A
102
}
330
2A
100
AcDbVisualStyle
  2
Linepattern
 70
    14
177
     3
291
     1
 70
    58
 90
        2
176
     1
 90
        2
176
     1
 90
        0
176
     1
 90
        0
176
     1
 40
0.6
176
     1
 40
30.0
176
     1
 62
     7
420
 16777215
176
     1
 90
        1
176
     1
 90
        4
176
     1
 62
     7
176
     1
 62
   257
176
     1
 90
        7
176
     1
 90
        7
176
     1
 40
1.0
176
     1
 90
        8
176
     1
 62
     7
176
     1
 40
1.0
176
     1
 90
        1
176
     1
 90
        6
176
     1
 90
        2
176
     1
 62
     7
176
     1
 90
        5
176
     1
 90
        0
176
     1
 90
        0
176
     1
290
     0
176
     1
 90
        1
176
     1
 40
0.0
176
     1
 90
        0
176
     1
290
     0
176
     1
290
     1
176
     1
290
     1
176
     1
290
     0
176
     1
290
     0
176
     1
290
     0
176
     1
290
     0
176
     1
290
     0
176
     1
290
     0
176
     1
 90
       50
176
     1
 40
0.0
176
     1
 40
1.0
176
     1
 90
        0
176
     1
 62
    18
420
        0
176
     1
 90
       50
176
     1
 90
        3
176
     1
 62
     5
420
      255
176
     1
290
     0
176
     1
 90
       50
176
     1
 90
       50
176
     1
 90
       50
176
     1
290
     0
176
     1
 90
       50
176
     1
 62
   256
176
     0
 40
1.0
176
     0
 90
        2
176
     1
  1
strokes_ogs.tif
176
     1
290
     0
176
     1
 40
1.0
176
     1
 40
1.0
176
     1
  0
VISUALSTYLE
  5
3C
102
{ACAD_REACTORS
330
2A
102
}
330
2A
100
AcDbVisualStyle
  2
OverhangOff
 70
    21
177
     3
291
     1
 70
    58
 90
        2
176
     0
 90
        2
176
     0
 90
        0
176
     0
 90
        0
176
     0
 40
0.6
176
     0
 40
30.0
176
     0
 62
     7
420
 16777215
176
     0
 90
        1
176
     0
 90
        4
176
     0
 62
     7
176
     0
 62
   257
176
     0
 90
        1
176
     0
 90
        1
176
     0
 40
1.0
176
     0
 90
        9
176
     2
 62
     7
176
     0
 40
1.0
176
     0
 90
        1
176
     0
 90
        6
176
     0
 90
        2
176
     0
 62
     7
176
     0
 90
        5
176
     0
 90
        0
176
     0
 90
        0
176
     0
290
     0
176
     0
 90
        1
176
     0
 40
0.0
176
     0
 90
        0
176
     0
290
     0
176
     0
290
     1
176
     0
290
     1
176
     0
290
     0
176
     0
290
     0
176
     0
290
     0
176
     0
290
     0
176
     0
290
     0
176
     0
290
     0
176
     0
 90
       50
176
     0
 40
0.0
176
     0
 40
1.0
176
     0
 90
        0
176
     0
 62
    18
420
        0
176
     0
 90
       50
176
     0
 90
        3
176
     0
 62
     5
420
      255
176
     0
290
     0
176
     0
 90
       50
176
     0
 90
       50
176
     0
 90
       50
176
     0
290
     0
176
     0
 90
       50
176
     0
 62
   256
176
     0
 40
1.0
176
     0
 90
        2
176
     0
  1
strokes_ogs.tif
176
     0
290
     0
176
     0
 40
1.0
176
     0
 40
1.0
176
     0
  0
VISUALSTYLE
  5
33
102
{ACAD_REACTORS
330
2A
102
}
330
2A
100
AcDbVisualStyle
  2
Realistic
 70
     8
177
     3
291
     0
 70
    58
 90
        2
176
     1
 90
        3
176
     1
 90
        0
176
     1
 90
        2
176
     1
 40
0.6
176
     1
 40
30.0
176
     1
 62
     7
420
 16777215
176
     1
 90
        0
176
     1
 90
        0
176
     1
 62
     7
176
     1
 62
   257
176
     1
 90
        1
176
     1
 90
        1
176
     1
 40
1.0
176
     1
 90
        8
176
     1
 62
   257
176
     1
 40
1.0
176
     1
 90
        1
176
     1
 90
        6
176
     1
 90
        2
176
     1
 62
     7
176
     1
 90
        3
176
     1
 90
        0
176
     1
 90
        0
176
     1
290
     0
176
     1
 90
       13
176
     1
 40
0.0
176
     1
 90
        0
176
     1
290
     0
176
     1
290
     1
176
     1
290
     1
176
     1
290
     0
176
     1
290
     0
176
     1
290
     0
176
     1
290
     0
176
     1
290
     0
176
     1
290
     0
176
     1
 90
       50
176
     1
 40
0.0
176
     1
 40
1.0
176
     1
 90
        0
176
     1
 62
    18
420
        0
176
     1
 90
       50
176
     1
 90
        3
176
     1
 62
     5
420
      255
176
     1
290
     0
176
     1
 90
       50
176
     1
 90
       50
176
     1
 90
       50
176
     1
290
     0
176
     1
 90
       50
176
     1
 62
   256
176
     0
 40
1.0
176
     0
 90
        2
176
     1
  1
strokes_ogs.tif
176
     1
290
     0
176
     1
 40
1.0
176
     1
 40
1.0
176
     1
  0
VISUALSTYLE
  5
42
102
{ACAD_REACTORS
330
2A
102
}
330
2A
100
AcDbVisualStyle
  2
Shaded
 70
    27
177
     3
291
     0
 70
    58
 90
        2
176
     1
 90
        2
176
     1
 90
        1
176
     1
 90
        2
176
     1
 40
0.6
176
     1
 40
30.0
176
     1
 62
     7
420
 16777215
176
     1
 90
        0
176
     1
 90
        4
176
     1
 62
     7
176
     1
 62
   257
176
     1
 90
        1
176
     1
 90
        1
176
     1
 40
1.0
176
     1
 90
        8
176
     1
 62
   257
176
     1
 40
1.0
176
     1
 90
        1
176
     1
 90
        6
176
     1
 90
        2
176
     1
 62
     8
420
  7895160
176
     1
 90
        3
176
     1
 90
        0
176
     1
 90
        0
176
     1
290
     0
176
     1
 90
        5
176
     1
 40
0.0
176
     1
 90
        0
176
     1
290
     0
176
     1
290
     1
176
     1
290
     1
176
     1
290
     0
176
     1
290
     0
176
     1
290
     0
176
     1
290
     0
176
     1
290
     0
176
     1
290
     0
176
     1
 90
       50
176
     1
 40
0.0
176
     1
 40
1.0
176
     1
 90
        0
176
     1
 62
    18
420
        0
176
     1
 90
       50
176
     1
 90
        3
176
     1
 62
     5
420
      255
176
     1
290
     0
176
     1
 90
       50
176
     1
 90
       50
176
     1
 90
       50
176
     1
290
     0
176
     1
 90
       50
176
     1
 62
   256
176
     0
 40
1.0
176
     0
 90
        2
176
     1
  1
strokes_ogs.tif
176
     1
290
     0
176
     1
 40
1.0
176
     1
 40
1.0
176
     1
  0
VISUALSTYLE
  5
41
102
{ACAD_REACTORS
330
2A
102
}
330
2A
100
AcDbVisualStyle
  2
Shaded with edges
 70
    26
177
     3
291
     0
 70
    58
 90
        2
176
     1
 90
        2
176
     1
 90
        1
176
     1
 90
        2
176
     1
 40
0.6
176
     1
 40
30.0
176
     1
 62
     7
420
 16777215
176
     1
 90
        1
176
     1
 90
       10
176
     1
 62
     7
176
     1
 62
   257
176
     1
 90
        2
176
     1
 90
        1
176
     1
 40
1.0
176
     1
 90
        8
176
     1
 62
   257
176
     1
 40
1.0
176
     1
 90
        1
176
     1
 90
        6
176
     1
 90
        2
176
     1
 62
     7
176
     1
 90
        3
176
     1
 90
        0
176
     1
 90
        0
176
     1
290
     0
176
     1
 90
        5
176
     1
 40
0.0
176
     1
 90
        0
176
     1
290
     0
176
     1
290
     1
176
     1
290
     1
176
     1
290
     0
176
     1
290
     0
176
     1
290
     0
176
     1
290
     0
176
     1
290
     0
176
     1
290
     0
176
     1
 90
       50
176
     1
 40
0.0
176
     1
 40
1.0
176
     1
 90
        0
176
     1
 62
    18
420
        0
176
     1
 90
       50
176
     1
 90
        3
176
     1
 62
     5
420
      255
176
     1
290
     0
176
     1
 90
       50
176
     1
 90
       50
176
     1
 90
       50
176
     1
290
     0
176
     1
 90
       50
176
     1
 62
   256
176
     0
 40
1.0
176
     0
 90
        2
176
     1
  1
strokes_ogs.tif
176
     1
290
     0
176
     1
 40
1.0
176
     1
 40
1.0
176
     1
  0
VISUALSTYLE
  5
3E
102
{ACAD_REACTORS
330
2A
102
}
330
2A
100
AcDbVisualStyle
  2
Shades of Gray
 70
    23
177
     3
291
     0
 70
    58
 90
        2
176
     1
 90
        2
176
     1
 90
        3
176
     1
 90
        0
176
     1
 40
0.6
176
     1
 40
30.0
176
     1
 62
     7
420
 16777215
176
     1
 90
        2
176
     1
 90
        2
176
     1
 62
     7
176
     1
 62
     7
176
     1
 90
        1
176
     1
 90
        1
176
     1
 40
40.0
176
     1
 90
        8
176
     1
 62
     7
176
     1
 40
1.0
176
     1
 90
        1
176
     1
 90
        6
176
     1
 90
        2
176
     1
 62
     7
176
     1
 90
        3
176
     1
 90
        0
176
     1
 90
        0
176
     1
290
     0
176
     1
 90
        1
176
     1
 40
0.0
176
     1
 90
        0
176
     1
290
     0
176
     1
290
     1
176
     1
290
     1
176
     1
290
     0
176
     1
290
     0
176
     1
290
     0
176
     1
290
     0
176
     1
290
     0
176
     1
290
     0
176
     1
 90
       50
176
     1
 40
0.0
176
     1
 40
1.0
176
     1
 90
        0
176
     1
 62
    18
420
        0
176
     1
 90
       50
176
     1
 90
        3
176
     1
 62
     5
420
      255
176
     1
290
     0
176
     1
 90
       50
176
     1
 90
       50
176
     1
 90
       50
176
     1
290
     0
176
     1
 90
       50
176
     1
 62
   256
176
     0
 40
1.0
176
     0
 90
        2
176
     1
  1
strokes_ogs.tif
176
     1
290
     0
176
     1
 40
1.0
176
     1
 40
1.0
176
     1
  0
VISUALSTYLE
  5
3F
102
{ACAD_REACTORS
330
2A
102
}
330
2A
100
AcDbVisualStyle
  2
Sketchy
 70
    24
177
     3
291
     0
 70
    58
 90
        1
176
     1
 90
        2
176
     1
 90
        2
176
     1
 90
        0
176
     1
 40
0.6
176
     1
 40
30.0
176
     1
 62
     7
420
 16777215
176
     1
 90
        2
176
     1
 90
        2
176
     1
 62
     7
176
     1
 62
     7
176
     1
 90
        1
176
     1
 90
        1
176
     1
 40
40.0
176
     1
 90
       11
176
     1
 62
     7
176
     1
 40
1.0
176
     1
 90
        1
176
     1
 90
        6
176
     1
 90
        2
176
     1
 62
     7
176
     1
 90
        6
176
     1
 90
        0
176
     1
 90
        0
176
     1
290
     0
176
     1
 90
        1
176
     1
 40
0.0
176
     1
 90
        0
176
     1
290
     0
176
     1
290
     1
176
     1
290
     1
176
     1
290
     0
176
     1
290
     0
176
     1
290
     0
176
     1
290
     0
176
     1
290
     0
176
     1
290
     0
176
     1
 90
       50
176
     1
 40
0.0
176
     1
 40
1.0
176
     1
 90
        0
176
     1
 62
    18
420
        0
176
     1
 90
       50
176
     1
 90
        3
176
     1
 62
     5
420
      255
176
     1
290
     0
176
     1
 90
       50
176
     1
 90
       50
176
     1
 90
       50
176
     1
290
     0
176
     1
 90
       50
176
     1
 62
   256
176
     0
 40
1.0
176
     0
 90
        2
176
     1
  1
strokes_ogs.tif
176
     1
290
     0
176
     1
 40
1.0
176
     1
 40
1.0
176
     1
  0
VISUALSTYLE
  5
37
102
{ACAD_REACTORS
330
2A
102
}
330
2A
100
AcDbVisualStyle
  2
Thicken
 70
    13
177
     3
291
     1
 70
    58
 90
        2
176
     1
 90
        2
176
     1
 90
        0
176
     1
 90
        0
176
     1
 40
0.6
176
     1
 40
30.0
176
     1
 62
     7
420
 16777215
176
     1
 90
        1
176
     1
 90
        4
176
     1
 62
     7
176
     1
 62
   257
176
     1
 90
        1
176
     1
 90
        1
176
     1
 40
1.0
176
     1
 90
       12
176
     1
 62
     7
176
     1
 40
1.0
176
     1
 90
        1
176
     1
 90
        6
176
     1
 90
        2
176
     1
 62
     7
176
     1
 90
        5
176
     1
 90
        0
176
     1
 90
        0
176
     1
290
     0
176
     1
 90
        1
176
     1
 40
0.0
176
     1
 90
        0
176
     1
290
     0
176
     1
290
     1
176
     1
290
     1
176
     1
290
     0
176
     1
290
     0
176
     1
290
     0
176
     1
290
     0
176
     1
290
     0
176
     1
290
     0
176
     1
 90
       50
176
     1
 40
0.0
176
     1
 40
1.0
176
     1
 90
        0
176
     1
 62
    18
420
        0
176
     1
 90
       50
176
     1
 90
        3
176
     1
 62
     5
420
      255
176
     1
290
     0
176
     1
 90
       50
176
     1
 90
       50
176
     1
 90
       50
176
     1
290
     0
176
     1
 90
       50
176
     1
 62
   256
176
     0
 40
1.0
176
     0
 90
        2
176
     1
  1
strokes_ogs.tif
176
     1
290
     0
176
     1
 40
1.0
176
     1
 40
1.0
176
     1
  0
VISUALSTYLE
  5
30
102
{ACAD_REACTORS
330
2A
102
}
330
2A
100
AcDbVisualStyle
  2
Wireframe
 70
     5
177
     3
291
     0
 70
    58
 90
        0
176
     1
 90
        2
176
     1
 90
        0
176
     1
 90
        0
176
     1
 40
0.6
176
     1
 40
30.0
176
     1
 62
     7
420
 16777215
176
     1
 90
        1
176
     1
 90
        4
176
     1
 62
     7
176
     1
 62
   257
176
     1
 90
        1
176
     1
 90
        1
176
     1
 40
1.0
176
     1
 90
        0
176
     1
 62
   257
176
     1
 40
1.0
176
     1
 90
        1
176
     1
 90
        6
176
     1
 90
        2
176
     1
 62
     7
176
     1
 90
        3
176
     1
 90
        0
176
     1
 90
        0
176
     1
290
     0
176
     1
 90
        1
176
     1
 40
0.0
176
     1
 90
        0
176
     1
290
     0
176
     1
290
     1
176
     1
290
     1
176
     1
290
     0
176
     1
290
     0
176
     1
290
     0
176
     1
290
     0
176
     1
290
     0
176
     1
290
     0
176
     1
 90
       50
176
     1
 40
0.0
176
     1
 40
1.0
176
     1
 90
        0
176
     1
 62
    18
420
        0
176
     1
 90
       50
176
     1
 90
        3
176
     1
 62
     5
420
      255
176
     1
290
     0
176
     1
 90
       50
176
     1
 90
       50
176
     1
 90
       50
176
     1
290
     0
176
     1
 90
       50
176
     1
 62
   256
176
     0
 40
1.0
176
     0
 90
        2
176
     1
  1
strokes_ogs.tif
176
     1
290
     0
176
     1
 40
1.0
176
     1
 40
1.0
176
     1
  0
VISUALSTYLE
  5
40
102
{ACAD_REACTORS
330
2A
102
}
330
2A
100
AcDbVisualStyle
  2
X-Ray
 70
    25
177
     3
291
     0
 70
    58
 90
        2
176
     1
 90
        2
176
     1
 90
        1
176
     1
 90
        1
176
     1
 40
0.5
176
     1
 40
30.0
176
     1
 62
     7
420
 16777215
176
     1
 90
        1
176
     1
 90
        0
176
     1
 62
     7
176
     1
 62
   257
176
     1
 90
        1
176
     1
 90
        1
176
     1
 40
1.0
176
     1
 90
        8
176
     1
 62
     7
176
     1
 40
1.0
176
     1
 90
        1
176
     1
 90
        6
176
     1
 90
        2
176
     1
 62
     7
176
     1
 90
        3
176
     1
 90
        0
176
     1
 90
        0
176
     1
290
     0
176
     1
 90
       13
176
     1
 40
0.0
176
     1
 90
        0
176
     1
290
     0
176
     1
290
     1
176
     1
290
     1
176
     1
290
     0
176
     1
290
     0
176
     1
290
     0
176
     1
290
     0
176
     1
290
     0
176
     1
290
     0
176
     1
 90
       50
176
     1
 40
0.0
176
     1
 40
1.0
176
     1
 90
        0
176
     1
 62
    18
420
        0
176
     1
 90
       50
176
     1
 90
        3
176
     1
 62
     5
420
      255
176
     1
290
     0
176
     1
 90
       50
176
     1
 90
       50
176
     1
 90
       50
176
     1
290
     0
176
     1
 90
       50
176
     1
 62
   256
176
     0
 40
1.0
176
     0
 90
        2
176
     1
  1
strokes_ogs.tif
176
     1
290
     0
176
     1
 40
1.0
176
     1
 40
1.0
176
     1
  0
DICTIONARYVAR
  5
93
102
{ACAD_REACTORS
330
92
102
}
330
92
100
DictionaryVariables
280
     0
  1
1:1
  0
DICTIONARYVAR
  5
98
102
{ACAD_REACTORS
330
92
102
}
330
92
100
DictionaryVariables
280
     0
  1
Standard
  0
DICTIONARYVAR
  5
97
102
{ACAD_REACTORS
330
92
102
}
330
92
100
DictionaryVariables
280
     0
  1
Standard
  0
DICTIONARY
  5
94
330
5A
100
AcDbDictionary
280
     1
281
     1
  3
ACAD_ROUNDTRIP_2008_TABLESTYLE_CELLSTYLEMAP
360
95
  0
CELLSTYLEMAP
  5
95
102
{ACAD_REACTORS
330
94
102
}
330
94
100
AcDbCellStyleMap
 90
        3
300
CELLSTYLE
  1
TABLEFORMAT_BEGIN
 90
        5
170
     1
 91
        0
 92
    32768
 62
   257
 93
        1
300
CONTENTFORMAT
  1
CONTENTFORMAT_BEGIN
 90
        0
 91
        0
 92
        4
 93
        0
300

 40
0.0
140
1.0
 94
        5
 62
     0
340
11
144
0.25
309
CONTENTFORMAT_END
171
     1
301
MARGIN
  1
CELLMARGIN_BEGIN
 40
0.06
 40
0.06
 40
0.06
 40
0.06
 40
0.06
 40
0.06
309
CELLMARGIN_END
 94
        6
 95
        1
302
GRIDFORMAT
  1
GRIDFORMAT_BEGIN
 90
        0
 91
        1
 62
     0
 92
       -2
340
14
 93
        0
 40
0.045
309
GRIDFORMAT_END
 95
        2
302
GRIDFORMAT
  1
GRIDFORMAT_BEGIN
 90
        0
 91
        1
 62
     0
 92
       -2
340
14
 93
        0
 40
0.045
309
GRIDFORMAT_END
 95
        4
302
GRIDFORMAT
  1
GRIDFORMAT_BEGIN
 90
        0
 91
        1
 62
     0
 92
       -2
340
14
 93
        0
 40
0.045
309
GRIDFORMAT_END
 95
        8
302
GRIDFORMAT
  1
GRIDFORMAT_BEGIN
 90
        0
 91
        1
 62
     0
 92
       -2
340
14
 93
        0
 40
0.045
309
GRIDFORMAT_END
 95
       16
302
GRIDFORMAT
  1
GRIDFORMAT_BEGIN
 90
        0
 91
        1
 62
     0
 92
       -2
340
14
 93
        0
 40
0.045
309
GRIDFORMAT_END
 95
       32
302
GRIDFORMAT
  1
GRIDFORMAT_BEGIN
 90
        0
 91
        1
 62
     0
 92
       -2
340
14
 93
        0
 40
0.045
309
GRIDFORMAT_END
309
TABLEFORMAT_END
  1
CELLSTYLE_BEGIN
 90
        1
 91
        1
300
_TITLE
309
CELLSTYLE_END
300
CELLSTYLE
  1
TABLEFORMAT_BEGIN
 90
        5
170
     1
 91
        0
 92
        0
 62
   257
 93
        1
300
CONTENTFORMAT
  1
CONTENTFORMAT_BEGIN
 90
        0
 91
        0
 92
        4
 93
        0
300

 40
0.0
140
1.0
 94
        5
 62
     0
340
11
144
0.18
309
CONTENTFORMAT_END
171
     1
301
MARGIN
  1
CELLMARGIN_BEGIN
 40
0.06
 40
0.06
 40
0.06
 40
0.06
 40
0.06
 40
0.06
309
CELLMARGIN_END
 94
        6
 95
        1
302
GRIDFORMAT
  1
GRIDFORMAT_BEGIN
 90
        0
 91
        1
 62
     0
 92
       -2
340
14
 93
        0
 40
0.045
309
GRIDFORMAT_END
 95
        2
302
GRIDFORMAT
  1
GRIDFORMAT_BEGIN
 90
        0
 91
        1
 62
     0
 92
       -2
340
14
 93
        0
 40
0.045
309
GRIDFORMAT_END
 95
        4
302
GRIDFORMAT
  1
GRIDFORMAT_BEGIN
 90
        0
 91
        1
 62
     0
 92
       -2
340
14
 93
        0
 40
0.045
309
GRIDFORMAT_END
 95
        8
302
GRIDFORMAT
  1
GRIDFORMAT_BEGIN
 90
        0
 91
        1
 62
     0
 92
       -2
340
14
 93
        0
 40
0.045
309
GRIDFORMAT_END
 95
       16
302
GRIDFORMAT
  1
GRIDFORMAT_BEGIN
 90
        0
 91
        1
 62
     0
 92
       -2
340
14
 93
        0
 40
0.045
309
GRIDFORMAT_END
 95
       32
302
GRIDFORMAT
  1
GRIDFORMAT_BEGIN
 90
        0
 91
        1
 62
     0
 92
       -2
340
14
 93
        0
 40
0.045
309
GRIDFORMAT_END
309
TABLEFORMAT_END
  1
CELLSTYLE_BEGIN
 90
        2
 91
        1
300
_HEADER
309
CELLSTYLE_END
300
CELLSTYLE
  1
TABLEFORMAT_BEGIN
 90
        5
170
     1
 91
        0
 92
        0
 62
   257
 93
        1
300
CONTENTFORMAT
  1
CONTENTFORMAT_BEGIN
 90
        0
 91
        0
 92
        4
 93
        0
300

 40
0.0
140
1.0
 94
        2
 62
     0
340
11
144
0.18
309
CONTENTFORMAT_END
171
     1
301
MARGIN
  1
CELLMARGIN_BEGIN
 40
0.06
 40
0.06
 40
0.06
 40
0.06
 40
0.06
 40
0.06
309
CELLMARGIN_END
 94
        6
 95
        1
302
GRIDFORMAT
  1
GRIDFORMAT_BEGIN
 90
        0
 91
        1
 62
     0
 92
       -2
340
14
 93
        0
 40
0.045
309
GRIDFORMAT_END
 95
        2
302
GRIDFORMAT
  1
GRIDFORMAT_BEGIN
 90
        0
 91
        1
 62
     0
 92
       -2
340
14
 93
        0
 40
0.045
309
GRIDFORMAT_END
 95
        4
302
GRIDFORMAT
  1
GRIDFORMAT_BEGIN
 90
        0
 91
        1
 62
     0
 92
       -2
340
14
 93
        0
 40
0.045
309
GRIDFORMAT_END
 95
        8
302
GRIDFORMAT
  1
GRIDFORMAT_BEGIN
 90
        0
 91
        1
 62
     0
 92
       -2
340
14
 93
        0
 40
0.045
309
GRIDFORMAT_END
 95
       16
302
GRIDFORMAT
  1
GRIDFORMAT_BEGIN
 90
        0
 91
        1
 62
     0
 92
       -2
340
14
 93
        0
 40
0.045
309
GRIDFORMAT_END
 95
       32
302
GRIDFORMAT
  1
GRIDFORMAT_BEGIN
 90
        0
 91
        1
 62
     0
 92
       -2
340
14
 93
        0
 40
0.045
309
GRIDFORMAT_END
309
TABLEFORMAT_END
  1
CELLSTYLE_BEGIN
 90
        3
 91
        2
300
_DATA
309
CELLSTYLE_END
  0
ENDSEC
  0
EOF
