  0
SECTION
  2
HEADER
  9
$ACADVER
  1
AC1032
  9
$ACADMAINTVER
 90
       55
  9
$DWGCODEPAGE
  3
ANSI_1251
  9
$LASTSAVEDBY
  1
torde
  9
$REQUIREDVERSIONS
160
                 0
  9
$INSBASE
 10
0.0
 20
0.0
 30
0.0
  9
$EXTMIN
 10
-34.29818
 20
-14.24607
 30
0.0
  9
$EXTMAX
 10
34.29819
 20
14.24608
 30
0.0
  9
$LIMMIN
 10
0.0
 20
0.0
  9
$LIMMAX
 10
12.0
 20
9.0
  9
$ORTHOMODE
 70
     0
  9
$REGENMODE
 70
     1
  9
$FILLMODE
 70
     1
  9
$QTEXTMODE
 70
     0
  9
$MIRRTEXT
 70
     1
  9
$LTSCALE
 40
1.0
  9
$ATTMODE
 70
     1
  9
$TEXTSIZE
 40
0.2
  9
$TRACEWID
 40
0.05
  9
$TEXTSTYLE
  7
Standard
  9
$CLAYER
  8
0
  9
$CELTYPE
  6
ByLayer
  9
$CECOLOR
 62
   256
  9
$CELTSCALE
 40
1.0
  9
$DISPSILH
 70
     0
  9
$DIMSCALE
 40
1.0
  9
$DIMASZ
 40
0.18
  9
$DIMEXO
 40
0.0625
  9
$DIMDLI
 40
0.38
  9
$DIMRND
 40
0.0
  9
$DIMDLE
 40
0.0
  9
$DIMEXE
 40
0.18
  9
$DIMTP
 40
0.0
  9
$DIMTM
 40
0.0
  9
$DIMTXT
 40
0.18
  9
$DIMCEN
 40
0.09
  9
$DIMTSZ
 40
0.0
  9
$DIMTOL
 70
     0
  9
$DIMLIM
 70
     0
  9
$DIMTIH
 70
     1
  9
$DIMTOH
 70
     1
  9
$DIMSE1
 70
     0
  9
$DIMSE2
 70
     0
  9
$DIMTAD
 70
     0
  9
$DIMZIN
 70
     0
  9
$DIMBLK
  1

  9
$DIMASO
 70
     1
  9
$DIMSHO
 70
     1
  9
$DIMPOST
  1

  9
$DIMAPOST
  1

  9
$DIMALT
 70
     0
  9
$DIMALTD
 70
     2
  9
$DIMALTF
 40
25.4
  9
$DIMLFAC
 40
1.0
  9
$DIMTOFL
 70
     0
  9
$DIMTVP
 40
0.0
  9
$DIMTIX
 70
     0
  9
$DIMSOXD
 70
     0
  9
$DIMSAH
 70
     0
  9
$DIMBLK1
  1

  9
$DIMBLK2
  1

  9
$DIMSTYLE
  2
Standard
  9
$DIMCLRD
 70
     0
  9
$DIMCLRE
 70
     0
  9
$DIMCLRT
 70
     0
  9
$DIMTFAC
 40
1.0
  9
$DIMGAP
 40
0.09
  9
$DIMJUST
 70
     0
  9
$DIMSD1
 70
     0
  9
$DIMSD2
 70
     0
  9
$DIMTOLJ
 70
     1
  9
$DIMTZIN
 70
     0
  9
$DIMALTZ
 70
     0
  9
$DIMALTTZ
 70
     0
  9
$DIMUPT
 70
     0
  9
$DIMDEC
 70
     4
  9
$DIMTDEC
 70
     4
  9
$DIMALTU
 70
     2
  9
$DIMALTTD
 70
     2
  9
$DIMTXSTY
  7
Standard
  9
$DIMAUNIT
 70
     0
  9
$DIMADEC
 70
     0
  9
$DIMALTRND
 40
0.0
  9
$DIMAZIN
 70
     0
  9
$DIMDSEP
 70
    46
  9
$DIMATFIT
 70
     3
  9
$DIMFRAC
 70
     0
  9
$DIMLDRBLK
  1

  9
$DIMLUNIT
 70
     2
  9
$DIMLWD
 70
    -2
  9
$DIMLWE
 70
    -2
  9
$DIMTMOVE
 70
     0
  9
$DIMFXL
 40
1.0
  9
$DIMFXLON
 70
     0
  9
$DIMJOGANG
 40
0.7853981633974483
  9
$DIMTFILL
 70
     0
  9
$DIMTFILLCLR
 70
     0
  9
$DIMARCSYM
 70
     0
  9
$DIMLTYPE
  6

  9
$DIMLTEX1
  6

  9
$DIMLTEX2
  6

  9
$DIMTXTDIRECTION
 70
     0
  9
$LUNITS
 70
     2
  9
$LUPREC
 70
     4
  9
$SKETCHINC
 40
0.1
  9
$FILLETRAD
 40
0.0
  9
$AUNITS
 70
     0
  9
$AUPREC
 70
     0
  9
$MENU
  1
.
  9
$ELEVATION
 40
0.0
  9
$PELEVATION
 40
0.0
  9
$THICKNESS
 40
0.0
  9
$LIMCHECK
 70
     0
  9
$CHAMFERA
 40
0.0
  9
$CHAMFERB
 40
0.0
  9
$CHAMFERC
 40
0.0
  9
$CHAMFERD
 40
0.0
  9
$SKPOLY
 70
     0
  9
$TDCREATE
 40
2461096.52159434
  9
$TDUCREATE
 40
2461096.39659434
  9
$TDUPDATE
 40
2461096.52159434
  9
$TDUUPDATE
 40
2461096.39659434
  9
$TDINDWG
 40
0.0000000116
  9
$TDUSRTIMER
 40
0.0000000116
  9
$USRTIMER
 70
     1
  9
$ANGBASE
 50
0.0
  9
$ANGDIR
 70
     0
  9
$PDMODE
 70
     0
  9
$PDSIZE
 40
0.0
  9
$PLINEWID
 40
0.0
  9
$SPLFRAME
 70
     0
  9
$SPLINETYPE
 70
     6
  9
$SPLINESEGS
 70
     8
  9
$HANDSEED
  5
E4
  9
$SURFTAB1
 70
     6
  9
$SURFTAB2
 70
     6
  9
$SURFTYPE
 70
     6
  9
$SURFU
 70
     6
  9
$SURFV
 70
     6
  9
$UCSBASE
  2

  9
$UCSNAME
  2

  9
$UCSORG
 10
0.0
 20
0.0
 30
0.0
  9
$UCSXDIR
 10
1.0
 20
0.0
 30
0.0
  9
$UCSYDIR
 10
0.0
 20
1.0
 30
0.0
  9
$UCSORTHOREF
  2

  9
$UCSORTHOVIEW
 70
     0
  9
$UCSORGTOP
 10
0.0
 20
0.0
 30
0.0
  9
$UCSORGBOTTOM
 10
0.0
 20
0.0
 30
0.0
  9
$UCSORGLEFT
 10
0.0
 20
0.0
 30
0.0
  9
$UCSORGRIGHT
 10
0.0
 20
0.0
 30
0.0
  9
$UCSORGFRONT
 10
0.0
 20
0.0
 30
0.0
  9
$UCSORGBACK
 10
0.0
 20
0.0
 30
0.0
  9
$PUCSBASE
  2

  9
$PUCSNAME
  2

  9
$PUCSORG
 10
0.0
 20
0.0
 30
0.0
  9
$PUCSXDIR
 10
1.0
 20
0.0
 30
0.0
  9
$PUCSYDIR
 10
0.0
 20
1.0
 30
0.0
  9
$PUCSORTHOREF
  2

  9
$PUCSORTHOVIEW
 70
     0
  9
$PUCSORGTOP
 10
0.0
 20
0.0
 30
0.0
  9
$PUCSORGBOTTOM
 10
0.0
 20
0.0
 30
0.0
  9
$PUCSORGLEFT
 10
0.0
 20
0.0
 30
0.0
  9
$PUCSORGRIGHT
 10
0.0
 20
0.0
 30
0.0
  9
$PUCSORGFRONT
 10
0.0
 20
0.0
 30
0.0
  9
$PUCSORGBACK
 10
0.0
 20
0.0
 30
0.0
  9
$USERI1
 70
     0
  9
$USERI2
 70
     0
  9
$USERI3
 70
     0
  9
$USERI4
 70
     0
  9
$USERI5
 70
     0
  9
$USERR1
 40
0.0
  9
$USERR2
 40
0.0
  9
$USERR3
 40
0.0
  9
$USERR4
 40
0.0
  9
$USERR5
 40
0.0
  9
$WORLDVIEW
 70
     1
  9
$SHADEDGE
 70
     3
  9
$SHADEDIF
 70
    70
  9
$TILEMODE
 70
     1
  9
$MAXACTVP
 70
    64
  9
$PINSBASE
 10
0.0
 20
0.0
 30
0.0
  9
$PLIMCHECK
 70
     0
  9
$PEXTMIN
 10
1.000000000000000E+20
 20
1.000000000000000E+20
 30
1.000000000000000E+20
  9
$PEXTMAX
 10
-1.000000000000000E+20
 20
-1.000000000000000E+20
 30
-1.000000000000000E+20
  9
$PLIMMIN
 10
0.0
 20
0.0
  9
$PLIMMAX
 10
12.0
 20
9.0
  9
$UNITMODE
 70
     0
  9
$VISRETAIN
 70
     1
  9
$PLINEGEN
 70
     0
  9
$PSLTSCALE
 70
     1
  9
$TREEDEPTH
 70
  3020
  9
$CMLSTYLE
  2
Standard
  9
$CMLJUST
 70
     0
  9
$CMLSCALE
 40
1.0
  9
$PROXYGRAPHICS
 70
     1
  9
$MEASUREMENT
 70
     0
  9
$CELWEIGHT
370
    -1
  9
$ENDCAPS
280
     0
  9
$JOINSTYLE
280
     0
  9
$LWDISPLAY
290
     0
  9
$INSUNITS
 70
     5
  9
$HYPERLINKBASE
  1

  9
$STYLESHEET
  1

  9
$XEDIT
290
     1
  9
$CEPSNTYPE
380
     0
  9
$PSTYLEMODE
290
     1
  9
$FINGERPRINTGUID
  2
{360d4acc-8fb7-4d60-96b6-cff2efeb712f}
  9
$VERSIONGUID
  2
{FAEB1C32-E019-11D5-929B-00C0DF256EC4}
  9
$EXTNAMES
290
     1
  9
$PSVPSCALE
 40
0.0
  9
$OLESTARTUP
290
     0
  9
$SORTENTS
280
   127
  9
$INDEXCTL
280
     0
  9
$HIDETEXT
280
     1
  9
$XCLIPFRAME
280
     2
  9
$HALOGAP
280
     0
  9
$OBSCOLOR
 70
   257
  9
$OBSLTYPE
280
     0
  9
$INTERSECTIONDISPLAY
280
     0
  9
$INTERSECTIONCOLOR
 70
   257
  9
$DIMASSOC
280
     2
  9
$PROJECTNAME
  1

  9
$CAMERADISPLAY
290
     0
  9
$LENSLENGTH
 40
50.0
  9
$CAMERAHEIGHT
 40
0.0
  9
$STEPSPERSEC
 40
2.0
  9
$STEPSIZE
 40
6.0
  9
$3DDWFPREC
 40
2.0
  9
$PSOLWIDTH
 40
0.25
  9
$PSOLHEIGHT
 40
4.0
  9
$LOFTANG1
 40
1.570796326794897
  9
$LOFTANG2
 40
1.570796326794897
  9
$LOFTMAG1
 40
0.0
  9
$LOFTMAG2
 40
0.0
  9
$LOFTPARAM
 70
     7
  9
$LOFTNORMALS
280
     1
  9
$LATITUDE
 40
37.795
  9
$LONGITUDE
 40
-122.394
  9
$NORTHDIRECTION
 40
0.0
  9
$TIMEZONE
 70
 -8000
  9
$LIGHTGLYPHDISPLAY
280
     1
  9
$TILEMODELIGHTSYNCH
280
     1
  9
$CMATERIAL
347
44
  9
$SOLIDHIST
280
     0
  9
$SHOWHIST
280
     1
  9
$DWFFRAME
280
     2
  9
$DGNFRAME
280
     2
  9
$REALWORLDSCALE
290
     1
  9
$INTERFERECOLOR
 62
   256
  9
$CSHADOW
280
     0
  9
$SHADOWPLANELOCATION
 40
0.0
  0
ENDSEC
  0
SECTION
  2
CLASSES
  0
CLASS
  1
ACDBDICTIONARYWDFLT
  2
AcDbDictionaryWithDefault
  3
ObjectDBX Classes
 90
        0
 91
        3
280
     0
281
     0
  0
CLASS
  1
VISUALSTYLE
  2
AcDbVisualStyle
  3
ObjectDBX Classes
 90
     4095
 91
        3
280
     0
281
     0
  0
CLASS
  1
MATERIAL
  2
AcDbMaterial
  3
ObjectDBX Classes
 90
     1153
 91
        3
280
     0
281
     0
  0
CLASS
  1
SCALE
  2
AcDbScale
  3
ObjectDBX Classes
 90
     1153
 91
        3
280
     0
281
     0
  0
CLASS
  1
TABLESTYLE
  2
AcDbTableStyle
  3
ObjectDBX Classes
 90
     4095
 91
        3
280
     0
281
     0
  0
CLASS
  1
MLEADERSTYLE
  2
AcDbMLeaderStyle
  3
ACDB_MLEADERSTYLE_CLASS
 90
     4095
 91
        3
280
     0
281
     0
  0
CLASS
  1
SUN
  2
AcDbSun
  3
SCENEOE
 90
     1153
 91
        3
280
     0
281
     0
  0
CLASS
  1
DICTIONARYVAR
  2
AcDbDictionaryVar
  3
ObjectDBX Classes
 90
        0
 91
        3
280
     0
281
     0
  0
CLASS
  1
CELLSTYLEMAP
  2
AcDbCellStyleMap
  3
ObjectDBX Classes
 90
     1152
 91
        3
280
     0
281
     0
  0
ENDSEC
  0
SECTION
  2
TABLES
  0
TABLE
  2
VPORT
  5
8
330
0
100
AcDbSymbolTable
 70
     1
  0
VPORT
  5
29
330
8
100
AcDbSymbolTableRecord
100
AcDbViewportTableRecord
  2
*Active
 70
     0
 10
0.0
 20
0.0
 11
1.0
 21
1.0
 12
10.42990654205607
 22
4.5
 13
0.0
 23
0.0
 14
0.5
 24
0.5
 15
0.5
 25
0.5
 16
0.0
 26
0.0
 36
1.0
 17
0.0
 27
0.0
 37
0.0
 40
9.0
 41
1.972972972850329
 42
50.0
 43
0.0
 44
0.0
 50
0.0
 51
0.0
 71
     0
 72
   100
 73
     1
 74
     3
 75
     0
 76
     0
 77
     0
 78
     0
281
     0
 65
     1
110
0.0
120
0.0
130
0.0
111
1.0
121
0.0
131
0.0
112
0.0
122
1.0
132
0.0
 79
     0
146
0.0
348
2F
 60
     3
 61
     5
292
     1
282
     1
141
0.0
142
0.0
 63
   250
361
5D
  0
ENDTAB
  0
TABLE
  2
LTYPE
  5
5
330
0
100
AcDbSymbolTable
 70
     1
  0
LTYPE
  5
14
330
5
100
AcDbSymbolTableRecord
100
AcDbLinetypeTableRecord
  2
ByBlock
 70
     0
  3

 72
    65
 73
     0
 40
0.0
  0
LTYPE
  5
15
330
5
100
AcDbSymbolTableRecord
100
AcDbLinetypeTableRecord
  2
ByLayer
 70
     0
  3

 72
    65
 73
     0
 40
0.0
  0
LTYPE
  5
16
330
5
100
AcDbSymbolTableRecord
100
AcDbLinetypeTableRecord
  2
Continuous
 70
     0
  3
Solid line
 72
    65
 73
     0
 40
0.0
  0
ENDTAB
  0
TABLE
  2
LAYER
  5
2
330
0
100
AcDbSymbolTable
 70
     3
  0
LAYER
  5
10
330
2
100
AcDbSymbolTableRecord
100
AcDbLayerTableRecord
  2
0
 70
     0
 62
     7
  6
Continuous
370
    -3
390
F
347
46
348
0
  0
LAYER
  5
5F
330
2
100
AcDbSymbolTableRecord
100
AcDbLayerTableRecord
  2
layer 1
 70
     0
 62
     7
  6
Continuous
370
    -3
390
F
347
46
348
0
  0
LAYER
  5
DA
330
2
100
AcDbSymbolTableRecord
100
AcDbLayerTableRecord
  2
layer 2
 70
     0
 62
     7
  6
Continuous
290
     0
370
    -3
390
F
347
46
348
0
  0
ENDTAB
  0
TABLE
  2
STYLE
  5
3
330
0
100
AcDbSymbolTable
 70
     1
  0
STYLE
  5
11
330
3
100
AcDbSymbolTableRecord
100
AcDbTextStyleTableRecord
  2
Standard
 70
     0
 40
0.0
 41
1.0
 50
0.0
 71
     0
 42
0.2
  3
txt
  4

  0
ENDTAB
  0
TABLE
  2
VIEW
  5
6
330
0
100
AcDbSymbolTable
 70
     0
  0
ENDTAB
  0
TABLE
  2
UCS
  5
7
330
0
100
AcDbSymbolTable
 70
     0
  0
ENDTAB
  0
TABLE
  2
APPID
  5
9
330
0
100
AcDbSymbolTable
 70
     2
  0
APPID
  5
12
330
9
100
AcDbSymbolTableRecord
100
AcDbRegAppTableRecord
  2
ACAD
 70
     0
  0
APPID
  5
5E
330
9
100
AcDbSymbolTableRecord
100
AcDbRegAppTableRecord
  2
ODA
 70
     0
  0
ENDTAB
  0
TABLE
  2
DIMSTYLE
  5
A
330
0
100
AcDbSymbolTable
 70
     1
100
AcDbDimStyleTable
  0
DIMSTYLE
105
27
330
A
100
AcDbSymbolTableRecord
100
AcDbDimStyleTableRecord
  2
Standard
 70
     0
178
     0
340
11
  0
ENDTAB
  0
TABLE
  2
BLOCK_RECORD
  5
1
330
0
100
AcDbSymbolTable
 70
     1
  0
BLOCK_RECORD
  5
1F
330
1
100
AcDbSymbolTableRecord
100
AcDbBlockTableRecord
  2
*Model_Space
340
22
 70
     0
280
     1
281
     0
  0
BLOCK_RECORD
  5
1B
330
1
100
AcDbSymbolTableRecord
100
AcDbBlockTableRecord
  2
*Paper_Space
340
1E
 70
     0
280
     1
281
     0
  0
BLOCK_RECORD
  5
23
330
1
100
AcDbSymbolTableRecord
100
AcDbBlockTableRecord
  2
*Paper_Space0
340
26
 70
     0
280
     1
281
     0
  0
ENDTAB
  0
ENDSEC
  0
SECTION
  2
BLOCKS
  0
BLOCK
  5
20
330
1F
100
AcDbEntity
  8
0
100
AcDbBlockBegin
  2
*Model_Space
 70
     0
 10
0.0
 20
0.0
 30
0.0
  3
*Model_Space
  1

  0
ENDBLK
  5
21
330
1F
100
AcDbEntity
  8
0
100
AcDbBlockEnd
  0
BLOCK
  5
1C
330
1B
100
AcDbEntity
 67
     1
  8
0
100
AcDbBlockBegin
  2
*Paper_Space
 70
     0
 10
0.0
 20
0.0
 30
0.0
  3
*Paper_Space
  1

  0
ENDBLK
  5
1D
330
1B
100
AcDbEntity
 67
     1
  8
0
100
AcDbBlockEnd
  0
BLOCK
  5
24
330
23
100
AcDbEntity
  8
0
100
AcDbBlockBegin
  2
*Paper_Space0
 70
     0
 10
0.0
 20
0.0
 30
0.0
  3
*Paper_Space0
  1

  0
ENDBLK
  5
25
330
23
100
AcDbEntity
  8
0
100
AcDbBlockEnd
  0
ENDSEC
  0
SECTION
  2
ENTITIES
  0
SPLINE
  5
60
330
1F
100
AcDbEntity
  8
layer 1
 62
   250
370
     9
100
AcDbSpline
210
0.0
220
0.0
230
1.0
 70
    11
 71
     3
 72
    50
 73
    46
 74
     0
 42
0.0000000001
 43
0.0000000001
 40
0.0
 40
0.0
 40
0.0
 40
0.0
 40
0.0666666666666667
 40
0.0666666666666667
 40
0.0666666666666667
 40
0.1333333333333333
 40
0.1333333333333333
 40
0.1333333333333333
 40
0.2
 40
0.2
 40
0.2
 40
0.2666666666666667
 40
0.2666666666666667
 40
0.2666666666666667
 40
0.3333333333333333
 40
0.3333333333333333
 40
0.3333333333333333
 40
0.4
 40
0.4
 40
0.4
 40
0.4666666666666667
 40
0.4666666666666667
 40
0.4666666666666667
 40
0.5333333333333333
 40
0.5333333333333333
 40
0.5333333333333333
 40
0.6
 40
0.6
 40
0.6
 40
0.6666666666666666
 40
0.6666666666666666
 40
0.6666666666666666
 40
0.7333333333333333
 40
0.7333333333333333
 40
0.7333333333333333
 40
0.8
 40
0.8
 40
0.8
 40
0.8666666666666667
 40
0.8666666666666667
 40
0.8666666666666667
 40
0.9333333333333333
 40
0.9333333333333333
 40
0.9333333333333333
 40
1.0
 40
1.0
 40
1.0
 40
1.0
 10
5.87518
 20
-6.96008
 30
0.0
 10
5.87518
 20
-6.68394
 30
0.0
 10
5.65133
 20
-6.46008
 30
0.0
 10
5.37518
 20
-6.46008
 30
0.0
 10
5.09903
 20
-6.46008
 30
0.0
 10
4.87518
 20
-6.68394
 30
0.0
 10
4.87518
 20
-6.96008
 30
0.0
 10
4.87518
 20
-6.96008
 30
0.0
 10
4.87441
 20
-7.24032
 30
0.0
 10
4.87441
 20
-7.24032
 30
0.0
 10
4.87441
 20
-7.24032
 30
0.0
 10
-9.11928
 20
-7.24032
 30
0.0
 10
-9.11928
 20
-7.24032
 30
0.0
 10
-9.11928
 20
-7.24032
 30
0.0
 10
-9.11928
 20
-9.59646
 30
0.0
 10
-9.11928
 20
-9.59646
 30
0.0
 10
-9.11928
 20
-9.59646
 30
0.0
 10
-8.72135
 20
-9.59646
 30
0.0
 10
-8.72135
 20
-9.59646
 30
0.0
 10
-8.72135
 20
-9.59646
 30
0.0
 10
-8.72135
 20
-11.87459
 30
0.0
 10
-8.72135
 20
-11.87459
 30
0.0
 10
-8.72135
 20
-11.87459
 30
0.0
 10
-9.11928
 20
-11.87459
 30
0.0
 10
-9.11928
 20
-11.87459
 30
0.0
 10
-9.11928
 20
-11.87459
 30
0.0
 10
-9.11928
 20
-14.24226
 30
0.0
 10
-9.11928
 20
-14.24226
 30
0.0
 10
-9.11928
 20
-14.24226
 30
0.0
 10
5.87518
 20
-14.24226
 30
0.0
 10
5.87518
 20
-14.24226
 30
0.0
 10
5.87518
 20
-14.24226
 30
0.0
 10
5.87518
 20
-11.87459
 30
0.0
 10
5.87518
 20
-11.87459
 30
0.0
 10
5.87518
 20
-11.87459
 30
0.0
 10
5.47725
 20
-11.87459
 30
0.0
 10
5.47725
 20
-11.87459
 30
0.0
 10
5.47725
 20
-11.87459
 30
0.0
 10
5.47725
 20
-9.59646
 30
0.0
 10
5.47725
 20
-9.59646
 30
0.0
 10
5.47725
 20
-9.59646
 30
0.0
 10
5.87518
 20
-9.59646
 30
0.0
 10
5.87518
 20
-9.59646
 30
0.0
 10
5.87518
 20
-9.59646
 30
0.0
 10
5.87518
 20
-6.96008
 30
0.0
 10
5.87518
 20
-6.96008
 30
0.0
  0
SPLINE
  5
61
330
1F
100
AcDbEntity
  8
layer 1
 62
   250
370
     9
100
AcDbSpline
210
0.0
220
0.0
230
1.0
 70
    11
 71
     3
 72
    17
 73
    13
 74
     0
 42
0.0000000001
 43
0.0000000001
 40
0.0
 40
0.0
 40
0.0
 40
0.0
 40
0.25
 40
0.25
 40
0.25
 40
0.5
 40
0.5
 40
0.5
 40
0.75
 40
0.75
 40
0.75
 40
1.0
 40
1.0
 40
1.0
 40
1.0
 10
5.37809
 20
-13.44226
 30
0.0
 10
5.37809
 20
-13.44226
 30
0.0
 10
3.37805
 20
-13.44226
 30
0.0
 10
3.37805
 20
-13.44226
 30
0.0
 10
3.37805
 20
-13.44226
 30
0.0
 10
3.37805
 20
-13.84226
 30
0.0
 10
3.37805
 20
-13.84226
 30
0.0
 10
3.37805
 20
-13.84226
 30
0.0
 10
5.37809
 20
-13.84226
 30
0.0
 10
5.37809
 20
-13.84226
 30
0.0
 10
5.37809
 20
-13.84226
 30
0.0
 10
5.37809
 20
-13.44226
 30
0.0
 10
5.37809
 20
-13.44226
 30
0.0
  0
SPLINE
  5
62
330
1F
100
AcDbEntity
  8
layer 1
 62
   250
370
     9
100
AcDbSpline
210
0.0
220
0.0
230
1.0
 70
    11
 71
     3
 72
    17
 73
    13
 74
     0
 42
0.0000000001
 43
0.0000000001
 40
0.0
 40
0.0
 40
0.0
 40
0.0
 40
0.25
 40
0.25
 40
0.25
 40
0.5
 40
0.5
 40
0.5
 40
0.75
 40
0.75
 40
0.75
 40
1.0
 40
1.0
 40
1.0
 40
1.0
 10
1.37801
 20
-13.44226
 30
0.0
 10
1.37801
 20
-13.44226
 30
0.0
 10
-0.62203
 20
-13.44226
 30
0.0
 10
-0.62203
 20
-13.44226
 30
0.0
 10
-0.62203
 20
-13.44226
 30
0.0
 10
-0.62203
 20
-13.84226
 30
0.0
 10
-0.62203
 20
-13.84226
 30
0.0
 10
-0.62203
 20
-13.84226
 30
0.0
 10
1.37801
 20
-13.84226
 30
0.0
 10
1.37801
 20
-13.84226
 30
0.0
 10
1.37801
 20
-13.84226
 30
0.0
 10
1.37801
 20
-13.44226
 30
0.0
 10
1.37801
 20
-13.44226
 30
0.0
  0
SPLINE
  5
63
330
1F
100
AcDbEntity
  8
layer 1
 62
   250
370
     9
100
AcDbSpline
210
0.0
220
0.0
230
1.0
 70
    11
 71
     3
 72
    17
 73
    13
 74
     0
 42
0.0000000001
 43
0.0000000001
 40
0.0
 40
0.0
 40
0.0
 40
0.0
 40
0.25
 40
0.25
 40
0.25
 40
0.5
 40
0.5
 40
0.5
 40
0.75
 40
0.75
 40
0.75
 40
1.0
 40
1.0
 40
1.0
 40
1.0
 10
-2.62207
 20
-13.44226
 30
0.0
 10
-2.62207
 20
-13.44226
 30
0.0
 10
-4.62211
 20
-13.44226
 30
0.0
 10
-4.62211
 20
-13.44226
 30
0.0
 10
-4.62211
 20
-13.44226
 30
0.0
 10
-4.62211
 20
-13.84226
 30
0.0
 10
-4.62211
 20
-13.84226
 30
0.0
 10
-4.62211
 20
-13.84226
 30
0.0
 10
-2.62207
 20
-13.84226
 30
0.0
 10
-2.62207
 20
-13.84226
 30
0.0
 10
-2.62207
 20
-13.84226
 30
0.0
 10
-2.62207
 20
-13.44226
 30
0.0
 10
-2.62207
 20
-13.44226
 30
0.0
  0
SPLINE
  5
64
330
1F
100
AcDbEntity
  8
layer 1
 62
   250
370
     9
100
AcDbSpline
210
0.0
220
0.0
230
1.0
 70
    11
 71
     3
 72
    17
 73
    13
 74
     0
 42
0.0000000001
 43
0.0000000001
 40
0.0
 40
0.0
 40
0.0
 40
0.0
 40
0.25
 40
0.25
 40
0.25
 40
0.5
 40
0.5
 40
0.5
 40
0.75
 40
0.75
 40
0.75
 40
1.0
 40
1.0
 40
1.0
 40
1.0
 10
-6.62215
 20
-13.44226
 30
0.0
 10
-6.62215
 20
-13.44226
 30
0.0
 10
-8.62219
 20
-13.44226
 30
0.0
 10
-8.62219
 20
-13.44226
 30
0.0
 10
-8.62219
 20
-13.44226
 30
0.0
 10
-8.62219
 20
-13.84226
 30
0.0
 10
-8.62219
 20
-13.84226
 30
0.0
 10
-8.62219
 20
-13.84226
 30
0.0
 10
-6.62215
 20
-13.84226
 30
0.0
 10
-6.62215
 20
-13.84226
 30
0.0
 10
-6.62215
 20
-13.84226
 30
0.0
 10
-6.62215
 20
-13.44226
 30
0.0
 10
-6.62215
 20
-13.44226
 30
0.0
  0
SPLINE
  5
65
330
1F
100
AcDbEntity
  8
layer 1
 62
   250
370
     9
100
AcDbSpline
210
0.0
220
0.0
230
1.0
 70
    11
 71
     3
 72
    17
 73
    13
 74
     0
 42
0.0000000001
 43
0.0000000001
 40
0.0
 40
0.0
 40
0.0
 40
0.0
 40
0.25
 40
0.25
 40
0.25
 40
0.5
 40
0.5
 40
0.5
 40
0.75
 40
0.75
 40
0.75
 40
1.0
 40
1.0
 40
1.0
 40
1.0
 10
4.12258
 20
-11.89998
 30
0.0
 10
4.12258
 20
-11.89998
 30
0.0
 10
-7.35821
 20
-11.89998
 30
0.0
 10
-7.35821
 20
-11.89998
 30
0.0
 10
-7.35821
 20
-11.89998
 30
0.0
 10
-7.35821
 20
-12.10952
 30
0.0
 10
-7.35821
 20
-12.10952
 30
0.0
 10
-7.35821
 20
-12.10952
 30
0.0
 10
4.12258
 20
-12.10952
 30
0.0
 10
4.12258
 20
-12.10952
 30
0.0
 10
4.12258
 20
-12.10952
 30
0.0
 10
4.12258
 20
-11.89998
 30
0.0
 10
4.12258
 20
-11.89998
 30
0.0
  0
SPLINE
  5
66
330
1F
100
AcDbEntity
  8
layer 1
 62
   250
370
     9
100
AcDbSpline
210
0.0
220
0.0
230
1.0
 70
    11
 71
     3
 72
    17
 73
    13
 74
     0
 42
0.0000000001
 43
0.0000000001
 40
0.0
 40
0.0
 40
0.0
 40
0.0
 40
0.25
 40
0.25
 40
0.25
 40
0.5
 40
0.5
 40
0.5
 40
0.75
 40
0.75
 40
0.75
 40
1.0
 40
1.0
 40
1.0
 40
1.0
 10
4.12258
 20
-9.36232
 30
0.0
 10
4.12258
 20
-9.36232
 30
0.0
 10
-7.35821
 20
-9.36232
 30
0.0
 10
-7.35821
 20
-9.36232
 30
0.0
 10
-7.35821
 20
-9.36232
 30
0.0
 10
-7.35821
 20
-9.62186
 30
0.0
 10
-7.35821
 20
-9.62186
 30
0.0
 10
-7.35821
 20
-9.62186
 30
0.0
 10
4.12258
 20
-9.62186
 30
0.0
 10
4.12258
 20
-9.62186
 30
0.0
 10
4.12258
 20
-9.62186
 30
0.0
 10
4.12258
 20
-9.36232
 30
0.0
 10
4.12258
 20
-9.36232
 30
0.0
  0
SPLINE
  5
67
330
1F
100
AcDbEntity
  8
layer 1
 62
   250
370
     9
100
AcDbSpline
210
0.0
220
0.0
230
1.0
 70
    11
 71
     3
 72
    17
 73
    13
 74
     0
 42
0.0000000001
 43
0.0000000001
 40
0.0
 40
0.0
 40
0.0
 40
0.0
 40
0.25
 40
0.25
 40
0.25
 40
0.5
 40
0.5
 40
0.5
 40
0.75
 40
0.75
 40
0.75
 40
1.0
 40
1.0
 40
1.0
 40
1.0
 10
5.37518
 20
-6.68508
 30
0.0
 10
5.2233
 20
-6.68508
 30
0.0
 10
5.10018
 20
-6.8082
 30
0.0
 10
5.10018
 20
-6.96008
 30
0.0
 10
5.10018
 20
-7.11196
 30
0.0
 10
5.2233
 20
-7.23508
 30
0.0
 10
5.37518
 20
-7.23508
 30
0.0
 10
5.52706
 20
-7.23508
 30
0.0
 10
5.65018
 20
-7.11196
 30
0.0
 10
5.65018
 20
-6.96008
 30
0.0
 10
5.65018
 20
-6.8082
 30
0.0
 10
5.52706
 20
-6.68508
 30
0.0
 10
5.37518
 20
-6.68508
 30
0.0
  0
SPLINE
  5
68
330
1F
100
AcDbEntity
  8
layer 1
 62
   250
370
     9
100
AcDbSpline
210
0.0
220
0.0
230
1.0
 70
    11
 71
     3
 72
   101
 73
    97
 74
     0
 42
0.0000000001
 43
0.0000000001
 40
0.0
 40
0.0
 40
0.0
 40
0.0
 40
0.03125
 40
0.03125
 40
0.03125
 40
0.0625
 40
0.0625
 40
0.0625
 40
0.09375
 40
0.09375
 40
0.09375
 40
0.125
 40
0.125
 40
0.125
 40
0.15625
 40
0.15625
 40
0.15625
 40
0.1875
 40
0.1875
 40
0.1875
 40
0.21875
 40
0.21875
 40
0.21875
 40
0.25
 40
0.25
 40
0.25
 40
0.28125
 40
0.28125
 40
0.28125
 40
0.3125
 40
0.3125
 40
0.3125
 40
0.34375
 40
0.34375
 40
0.34375
 40
0.375
 40
0.375
 40
0.375
 40
0.40625
 40
0.40625
 40
0.40625
 40
0.4375
 40
0.4375
 40
0.4375
 40
0.46875
 40
0.46875
 40
0.46875
 40
0.5
 40
0.5
 40
0.5
 40
0.53125
 40
0.53125
 40
0.53125
 40
0.5625
 40
0.5625
 40
0.5625
 40
0.59375
 40
0.59375
 40
0.59375
 40
0.625
 40
0.625
 40
0.625
 40
0.65625
 40
0.65625
 40
0.65625
 40
0.6875
 40
0.6875
 40
0.6875
 40
0.71875
 40
0.71875
 40
0.71875
 40
0.75
 40
0.75
 40
0.75
 40
0.78125
 40
0.78125
 40
0.78125
 40
0.8125
 40
0.8125
 40
0.8125
 40
0.84375
 40
0.84375
 40
0.84375
 40
0.875
 40
0.875
 40
0.875
 40
0.90625
 40
0.90625
 40
0.90625
 40
0.9375
 40
0.9375
 40
0.9375
 40
0.96875
 40
0.96875
 40
0.96875
 40
1.0
 40
1.0
 40
1.0
 40
1.0
 10
23.40508
 20
-9.84573
 30
0.0
 10
22.58506
 20
-9.66534
 30
0.0
 10
22.20606
 20
-9.43985
 30
0.0
 10
21.90172
 20
-9.21436
 30
0.0
 10
21.59737
 20
-8.98886
 30
0.0
 10
21.36767
 20
-8.76336
 30
0.0
 10
21.11041
 20
-8.43032
 30
0.0
 10
20.85315
 20
-8.09728
 30
0.0
 10
20.56833
 20
-7.65671
 30
0.0
 10
20.33978
 20
-7.23694
 30
0.0
 10
20.11123
 20
-6.81717
 30
0.0
 10
19.93896
 20
-6.41821
 30
0.0
 10
19.76783
 20
-5.94642
 30
0.0
 10
19.59671
 20
-5.4746
 30
0.0
 10
19.42673
 20
-4.92994
 30
0.0
 10
19.29006
 20
-4.38354
 30
0.0
 10
19.1534
 20
-3.83715
 30
0.0
 10
19.05002
 20
-3.28903
 30
0.0
 10
18.9949
 20
-2.89181
 30
0.0
 10
18.93977
 20
-2.49459
 30
0.0
 10
18.93288
 20
-2.2483
 30
0.0
 10
18.92828
 20
-2.07137
 30
0.0
 10
18.92369
 20
-1.89443
 30
0.0
 10
18.92139
 20
-1.78689
 30
0.0
 10
18.94551
 20
-1.73313
 30
0.0
 10
18.96963
 20
-1.67934
 30
0.0
 10
19.02016
 20
-1.67934
 30
0.0
 10
19.13961
 20
-1.64812
 30
0.0
 10
19.25905
 20
-1.61689
 30
0.0
 10
19.4474
 20
-1.55446
 30
0.0
 10
19.63116
 20
-1.48334
 30
0.0
 10
19.81491
 20
-1.41222
 30
0.0
 10
19.99408
 20
-1.33242
 30
0.0
 10
20.16291
 20
-1.2353
 30
0.0
 10
20.33174
 20
-1.13814
 30
0.0
 10
20.49022
 20
-1.02367
 30
0.0
 10
20.64412
 20
-0.89357
 30
0.0
 10
20.79802
 20
-0.76348
 30
0.0
 10
20.94732
 20
-0.61776
 30
0.0
 10
21.04839
 20
-0.51024
 30
0.0
 10
21.14946
 20
-0.40268
 30
0.0
 10
21.20228
 20
-0.3333
 30
0.0
 10
21.25627
 20
-0.29341
 30
0.0
 10
21.31024
 20
-0.25351
 30
0.0
 10
21.36537
 20
-0.24311
 30
0.0
 10
21.59622
 20
-0.23966
 30
0.0
 10
21.82707
 20
-0.23618
 30
0.0
 10
22.23363
 20
-0.23966
 30
0.0
 10
23.40508
 20
-0.24311
 30
0.0
 10
24.57654
 20
-0.23966
 30
0.0
 10
24.9831
 20
-0.23618
 30
0.0
 10
25.21395
 20
-0.23966
 30
0.0
 10
25.4448
 20
-0.24311
 30
0.0
 10
25.49993
 20
-0.25351
 30
0.0
 10
25.5539
 20
-0.29341
 30
0.0
 10
25.60789
 20
-0.3333
 30
0.0
 10
25.66071
 20
-0.40268
 30
0.0
 10
25.76178
 20
-0.51024
 30
0.0
 10
25.86285
 20
-0.61776
 30
0.0
 10
26.01215
 20
-0.76348
 30
0.0
 10
26.16605
 20
-0.89357
 30
0.0
 10
26.31995
 20
-1.02367
 30
0.0
 10
26.47843
 20
-1.13814
 30
0.0
 10
26.64726
 20
-1.2353
 30
0.0
 10
26.81609
 20
-1.33242
 30
0.0
 10
26.99526
 20
-1.41222
 30
0.0
 10
27.17901
 20
-1.48334
 30
0.0
 10
27.36277
 20
-1.55446
 30
0.0
 10
27.55112
 20
-1.61689
 30
0.0
 10
27.67056
 20
-1.64812
 30
0.0
 10
27.79001
 20
-1.67934
 30
0.0
 10
27.84054
 20
-1.67934
 30
0.0
 10
27.86466
 20
-1.73313
 30
0.0
 10
27.88878
 20
-1.78689
 30
0.0
 10
27.88648
 20
-1.89443
 30
0.0
 10
27.88189
 20
-2.07137
 30
0.0
 10
27.87729
 20
-2.2483
 30
0.0
 10
27.8704
 20
-2.49459
 30
0.0
 10
27.81527
 20
-2.89181
 30
0.0
 10
27.76015
 20
-3.28903
 30
0.0
 10
27.65677
 20
-3.83715
 30
0.0
 10
27.52011
 20
-4.38354
 30
0.0
 10
27.38344
 20
-4.92994
 30
0.0
 10
27.21346
 20
-5.4746
 30
0.0
 10
27.04234
 20
-5.94642
 30
0.0
 10
26.87121
 20
-6.41821
 30
0.0
 10
26.69894
 20
-6.81717
 30
0.0
 10
26.47039
 20
-7.23694
 30
0.0
 10
26.24184
 20
-7.65671
 30
0.0
 10
25.95702
 20
-8.09728
 30
0.0
 10
25.69976
 20
-8.43032
 30
0.0
 10
25.4425
 20
-8.76336
 30
0.0
 10
25.2128
 20
-8.98886
 30
0.0
 10
24.90845
 20
-9.21436
 30
0.0
 10
24.60411
 20
-9.43985
 30
0.0
 10
24.22511
 20
-9.66534
 30
0.0
 10
23.40508
 20
-9.84573
 30
0.0
  0
SPLINE
  5
69
330
1F
100
AcDbEntity
  8
layer 1
 62
   250
370
     9
100
AcDbSpline
210
0.0
220
0.0
230
1.0
 70
    11
 71
     3
 72
    38
 73
    34
 74
     0
 42
0.0000000001
 43
0.0000000001
 40
0.0
 40
0.0
 40
0.0
 40
0.0
 40
0.0909090909090909
 40
0.0909090909090909
 40
0.0909090909090909
 40
0.1818181818181818
 40
0.1818181818181818
 40
0.1818181818181818
 40
0.2727272727272727
 40
0.2727272727272727
 40
0.2727272727272727
 40
0.3636363636363636
 40
0.3636363636363636
 40
0.3636363636363636
 40
0.4545454545454546
 40
0.4545454545454546
 40
0.4545454545454546
 40
0.5454545454545454
 40
0.5454545454545454
 40
0.5454545454545454
 40
0.6363636363636364
 40
0.6363636363636364
 40
0.6363636363636364
 40
0.7272727272727273
 40
0.7272727272727273
 40
0.7272727272727273
 40
0.8181818181818182
 40
0.8181818181818182
 40
0.8181818181818182
 40
0.9090909090909092
 40
0.9090909090909092
 40
0.9090909090909092
 40
1.0
 40
1.0
 40
1.0
 40
1.0
 10
20.78154
 20
-6.08622
 30
0.0
 10
20.78154
 20
-6.08622
 30
0.0
 10
26.02863
 20
-6.08622
 30
0.0
 10
26.02863
 20
-6.08622
 30
0.0
 10
26.02863
 20
-6.08622
 30
0.0
 10
26.02863
 20
-6.54908
 30
0.0
 10
26.02863
 20
-6.54908
 30
0.0
 10
26.1596
 20
-6.27482
 30
0.0
 10
26.2732
 20
-5.99544
 30
0.0
 10
26.37834
 20
-5.70558
 30
0.0
 10
26.46708
 20
-5.46091
 30
0.0
 10
26.54989
 20
-5.21293
 30
0.0
 10
26.62629
 20
-4.963
 30
0.0
 10
26.3962
 20
-5.33834
 30
0.0
 10
25.84712
 20
-5.66251
 30
0.0
 10
25.01502
 20
-5.66251
 30
0.0
 10
24.28518
 20
-5.66251
 30
0.0
 10
23.64855
 20
-5.39903
 30
0.0
 10
23.50876
 20
-4.94234
 30
0.0
 10
23.50876
 20
-4.94234
 30
0.0
 10
23.47892
 20
-5.61142
 30
0.0
 10
23.47892
 20
-5.61142
 30
0.0
 10
23.47892
 20
-5.61142
 30
0.0
 10
20.39802
 20
-5.61142
 30
0.0
 10
20.39802
 20
-5.61142
 30
0.0
 10
20.4092
 20
-5.64286
 30
0.0
 10
20.42046
 20
-5.67424
 30
0.0
 10
20.43183
 20
-5.70558
 30
0.0
 10
20.53697
 20
-5.99544
 30
0.0
 10
20.65057
 20
-6.27482
 30
0.0
 10
20.78154
 20
-6.54908
 30
0.0
 10
20.78154
 20
-6.54908
 30
0.0
 10
20.78154
 20
-6.08622
 30
0.0
 10
20.78154
 20
-6.08622
 30
0.0
  0
SPLINE
  5
6A
330
1F
100
AcDbEntity
  8
layer 1
 62
   250
370
     9
100
AcDbSpline
210
0.0
220
0.0
230
1.0
 70
    11
 71
     3
 72
    23
 73
    19
 74
     0
 42
0.0000000001
 43
0.0000000001
 40
0.0
 40
0.0
 40
0.0
 40
0.0
 40
0.1666666666666667
 40
0.1666666666666667
 40
0.1666666666666667
 40
0.3333333333333333
 40
0.3333333333333333
 40
0.3333333333333333
 40
0.5
 40
0.5
 40
0.5
 40
0.6666666666666666
 40
0.6666666666666666
 40
0.6666666666666666
 40
0.8333333333333333
 40
0.8333333333333333
 40
0.8333333333333333
 40
1.0
 40
1.0
 40
1.0
 40
1.0
 10
25.65422
 20
-7.24148
 30
0.0
 10
25.65422
 20
-7.24148
 30
0.0
 10
21.15595
 20
-7.24148
 30
0.0
 10
21.15595
 20
-7.24148
 30
0.0
 10
21.31356
 20
-7.50386
 30
0.0
 10
21.48659
 20
-7.76191
 30
0.0
 10
21.66938
 20
-7.99854
 30
0.0
 10
21.8682
 20
-8.25592
 30
0.0
 10
22.0617
 20
-8.45382
 30
0.0
 10
22.3222
 20
-8.64683
 30
0.0
 10
23.09677
 20
-9.22074
 30
0.0
 10
23.7134
 20
-9.22073
 30
0.0
 10
24.48797
 20
-8.64683
 30
0.0
 10
24.74847
 20
-8.45382
 30
0.0
 10
24.94197
 20
-8.25592
 30
0.0
 10
25.14079
 20
-7.99854
 30
0.0
 10
25.32358
 20
-7.76191
 30
0.0
 10
25.49661
 20
-7.50386
 30
0.0
 10
25.65422
 20
-7.24148
 30
0.0
  0
SPLINE
  5
6B
330
1F
100
AcDbEntity
  8
layer 1
 62
   250
370
     9
100
AcDbSpline
210
0.0
220
0.0
230
1.0
 70
    11
 71
     3
 72
    32
 73
    28
 74
     0
 42
0.0000000001
 43
0.0000000001
 40
0.0
 40
0.0
 40
0.0
 40
0.0
 40
0.1111111111111111
 40
0.1111111111111111
 40
0.1111111111111111
 40
0.2222222222222222
 40
0.2222222222222222
 40
0.2222222222222222
 40
0.3333333333333333
 40
0.3333333333333333
 40
0.3333333333333333
 40
0.4444444444444444
 40
0.4444444444444444
 40
0.4444444444444444
 40
0.5555555555555556
 40
0.5555555555555556
 40
0.5555555555555556
 40
0.6666666666666666
 40
0.6666666666666666
 40
0.6666666666666666
 40
0.7777777777777777
 40
0.7777777777777777
 40
0.7777777777777777
 40
0.8888888888888888
 40
0.8888888888888888
 40
0.8888888888888888
 40
1.0
 40
1.0
 40
1.0
 40
1.0
 10
25.75389
 20
-6.95191
 30
0.0
 10
25.75389
 20
-6.95191
 30
0.0
 10
25.72149
 20
-6.9749
 30
0.0
 10
25.72149
 20
-6.9749
 30
0.0
 10
25.70407
 20
-6.97211
 30
0.0
 10
25.67655
 20
-6.97073
 30
0.0
 10
25.63893
 20
-6.97073
 30
0.0
 10
25.61222
 20
-6.97073
 30
0.0
 10
25.59023
 20
-6.97154
 30
0.0
 10
25.57294
 20
-6.97318
 30
0.0
 10
25.57294
 20
-6.97318
 30
0.0
 10
25.57294
 20
-6.36055
 30
0.0
 10
25.57294
 20
-6.36055
 30
0.0
 10
25.59018
 20
-6.3618
 30
0.0
 10
25.60381
 20
-6.36244
 30
0.0
 10
25.61384
 20
-6.36244
 30
0.0
 10
25.6243
 20
-6.36244
 30
0.0
 10
25.65879
 20
-6.36
 30
0.0
 10
25.71731
 20
-6.35512
 30
0.0
 10
25.71731
 20
-6.35512
 30
0.0
 10
25.74762
 20
-6.37811
 30
0.0
 10
25.74762
 20
-6.37811
 30
0.0
 10
25.74344
 20
-6.44796
 30
0.0
 10
25.74135
 20
-6.53001
 30
0.0
 10
25.74135
 20
-6.62425
 30
0.0
 10
25.74135
 20
-6.74636
 30
0.0
 10
25.74554
 20
-6.85558
 30
0.0
 10
25.75389
 20
-6.95191
 30
0.0
  0
SPLINE
  5
6C
330
1F
100
AcDbEntity
  8
layer 1
 62
   250
370
     9
100
AcDbSpline
210
0.0
220
0.0
230
1.0
 70
    11
 71
     3
 72
    38
 73
    34
 74
     0
 42
0.0000000001
 43
0.0000000001
 40
0.0
 40
0.0
 40
0.0
 40
0.0
 40
0.0909090909090909
 40
0.0909090909090909
 40
0.0909090909090909
 40
0.1818181818181818
 40
0.1818181818181818
 40
0.1818181818181818
 40
0.2727272727272727
 40
0.2727272727272727
 40
0.2727272727272727
 40
0.3636363636363636
 40
0.3636363636363636
 40
0.3636363636363636
 40
0.4545454545454546
 40
0.4545454545454546
 40
0.4545454545454546
 40
0.5454545454545454
 40
0.5454545454545454
 40
0.5454545454545454
 40
0.6363636363636364
 40
0.6363636363636364
 40
0.6363636363636364
 40
0.7272727272727273
 40
0.7272727272727273
 40
0.7272727272727273
 40
0.8181818181818182
 40
0.8181818181818182
 40
0.8181818181818182
 40
0.9090909090909092
 40
0.9090909090909092
 40
0.9090909090909092
 40
1.0
 40
1.0
 40
1.0
 40
1.0
 10
25.50255
 20
-6.73868
 30
0.0
 10
25.43784
 20
-6.81915
 30
0.0
 10
25.37252
 20
-6.90556
 30
0.0
 10
25.30657
 20
-6.9979
 30
0.0
 10
25.25918
 20
-6.95191
 30
0.0
 10
25.2104
 20
-6.91254
 30
0.0
 10
25.16024
 20
-6.87979
 30
0.0
 10
25.22713
 20
-6.81291
 30
0.0
 10
25.28671
 20
-6.74985
 30
0.0
 10
25.33897
 20
-6.69062
 30
0.0
 10
25.26232
 20
-6.66693
 30
0.0
 10
25.22399
 20
-6.61537
 30
0.0
 10
25.22399
 20
-6.53594
 30
0.0
 10
25.22399
 20
-6.47462
 30
0.0
 10
25.25396
 20
-6.42793
 30
0.0
 10
25.31388
 20
-6.39588
 30
0.0
 10
25.36196
 20
-6.36871
 30
0.0
 10
25.42014
 20
-6.35512
 30
0.0
 10
25.48842
 20
-6.35512
 30
0.0
 10
25.49253
 20
-6.35512
 30
0.0
 10
25.49724
 20
-6.35521
 30
0.0
 10
25.50255
 20
-6.35543
 30
0.0
 10
25.50255
 20
-6.35543
 30
0.0
 10
25.50255
 20
-6.41663
 30
0.0
 10
25.50255
 20
-6.41663
 30
0.0
 10
25.43321
 20
-6.43726
 30
0.0
 10
25.39854
 20
-6.48086
 30
0.0
 10
25.39854
 20
-6.54743
 30
0.0
 10
25.39854
 20
-6.61183
 30
0.0
 10
25.43321
 20
-6.65373
 30
0.0
 10
25.50255
 20
-6.67316
 30
0.0
 10
25.50255
 20
-6.67316
 30
0.0
 10
25.50255
 20
-6.73868
 30
0.0
 10
25.50255
 20
-6.73868
 30
0.0
  0
SPLINE
  5
6D
330
1F
100
AcDbEntity
  8
layer 1
 62
   250
370
     9
100
AcDbSpline
210
0.0
220
0.0
230
1.0
 70
    11
 71
     3
 72
    29
 73
    25
 74
     0
 42
0.0000000001
 43
0.0000000001
 40
0.0
 40
0.0
 40
0.0
 40
0.0
 40
0.125
 40
0.125
 40
0.125
 40
0.25
 40
0.25
 40
0.25
 40
0.375
 40
0.375
 40
0.375
 40
0.5
 40
0.5
 40
0.5
 40
0.625
 40
0.625
 40
0.625
 40
0.75
 40
0.75
 40
0.75
 40
0.875
 40
0.875
 40
0.875
 40
1.0
 40
1.0
 40
1.0
 40
1.0
 10
25.13097
 20
-6.88084
 30
0.0
 10
25.07733
 20
-6.91428
 30
0.0
 10
25.02472
 20
-6.95122
 30
0.0
 10
24.97316
 20
-6.99163
 30
0.0
 10
24.91951
 20
-6.85854
 30
0.0
 10
24.85158
 20
-6.72685
 30
0.0
 10
24.76935
 20
-6.59655
 30
0.0
 10
24.68992
 20
-6.74009
 30
0.0
 10
24.60631
 20
-6.87178
 30
0.0
 10
24.51852
 20
-6.99163
 30
0.0
 10
24.51852
 20
-6.99163
 30
0.0
 10
24.45685
 20
-6.92473
 30
0.0
 10
24.45685
 20
-6.92473
 30
0.0
 10
24.52722
 20
-6.82858
 30
0.0
 10
24.61328
 20
-6.69166
 30
0.0
 10
24.715
 20
-6.51399
 30
0.0
 10
24.715
 20
-6.51399
 30
0.0
 10
24.65752
 20
-6.43141
 30
0.0
 10
24.65752
 20
-6.43141
 30
0.0
 10
24.69584
 20
-6.40703
 30
0.0
 10
24.74566
 20
-6.37254
 30
0.0
 10
24.80698
 20
-6.32794
 30
0.0
 10
24.92821
 20
-6.51189
 30
0.0
 10
25.03621
 20
-6.69619
 30
0.0
 10
25.13097
 20
-6.88084
 30
0.0
  0
SPLINE
  5
6E
330
1F
100
AcDbEntity
  8
layer 1
 62
   250
370
     9
100
AcDbSpline
210
0.0
220
0.0
230
1.0
 70
    11
 71
     3
 72
    17
 73
    13
 74
     0
 42
0.0000000001
 43
0.0000000001
 40
0.0
 40
0.0
 40
0.0
 40
0.0
 40
0.25
 40
0.25
 40
0.25
 40
0.5
 40
0.5
 40
0.5
 40
0.75
 40
0.75
 40
0.75
 40
1.0
 40
1.0
 40
1.0
 40
1.0
 10
24.09313
 20
-6.86098
 30
0.0
 10
24.05899
 20
-6.88745
 30
0.0
 10
24.01858
 20
-6.92195
 30
0.0
 10
23.97189
 20
-6.96445
 30
0.0
 10
23.92939
 20
-6.92543
 30
0.0
 10
23.88793
 20
-6.89094
 30
0.0
 10
23.84752
 20
-6.86098
 30
0.0
 10
23.89142
 20
-6.81918
 30
0.0
 10
23.93287
 20
-6.77667
 30
0.0
 10
23.97189
 20
-6.73347
 30
0.0
 10
24.00394
 20
-6.77179
 30
0.0
 10
24.04436
 20
-6.81429
 30
0.0
 10
24.09313
 20
-6.86098
 30
0.0
  0
SPLINE
  5
6F
330
1F
100
AcDbEntity
  8
layer 1
 62
   250
370
     9
100
AcDbSpline
210
0.0
220
0.0
230
1.0
 70
    11
 71
     3
 72
    29
 73
    25
 74
     0
 42
0.0000000001
 43
0.0000000001
 40
0.0
 40
0.0
 40
0.0
 40
0.0
 40
0.125
 40
0.125
 40
0.125
 40
0.25
 40
0.25
 40
0.25
 40
0.375
 40
0.375
 40
0.375
 40
0.5
 40
0.5
 40
0.5
 40
0.625
 40
0.625
 40
0.625
 40
0.75
 40
0.75
 40
0.75
 40
0.875
 40
0.875
 40
0.875
 40
1.0
 40
1.0
 40
1.0
 40
1.0
 10
24.37951
 20
-6.88084
 30
0.0
 10
24.32585
 20
-6.91428
 30
0.0
 10
24.27325
 20
-6.95122
 30
0.0
 10
24.22169
 20
-6.99163
 30
0.0
 10
24.14295
 20
-6.85715
 30
0.0
 10
24.06282
 20
-6.72546
 30
0.0
 10
23.9813
 20
-6.59655
 30
0.0
 10
23.89629
 20
-6.71083
 30
0.0
 10
23.80746
 20
-6.84251
 30
0.0
 10
23.71478
 20
-6.99163
 30
0.0
 10
23.71478
 20
-6.99163
 30
0.0
 10
23.65835
 20
-6.91428
 30
0.0
 10
23.65835
 20
-6.91428
 30
0.0
 10
23.74126
 20
-6.79653
 30
0.0
 10
23.83114
 20
-6.6631
 30
0.0
 10
23.92799
 20
-6.51399
 30
0.0
 10
23.92799
 20
-6.51399
 30
0.0
 10
23.86842
 20
-6.43141
 30
0.0
 10
23.86842
 20
-6.43141
 30
0.0
 10
23.91999
 20
-6.39867
 30
0.0
 10
23.9705
 20
-6.36418
 30
0.0
 10
24.01997
 20
-6.32794
 30
0.0
 10
24.13494
 20
-6.51887
 30
0.0
 10
24.25479
 20
-6.70315
 30
0.0
 10
24.37951
 20
-6.88084
 30
0.0
  0
SPLINE
  5
70
330
1F
100
AcDbEntity
  8
layer 1
 62
   250
370
     9
100
AcDbSpline
210
0.0
220
0.0
230
1.0
 70
    11
 71
     3
 72
    26
 73
    22
 74
     0
 42
0.0000000001
 43
0.0000000001
 40
0.0
 40
0.0
 40
0.0
 40
0.0
 40
0.1428571428571428
 40
0.1428571428571428
 40
0.1428571428571428
 40
0.2857142857142857
 40
0.2857142857142857
 40
0.2857142857142857
 40
0.4285714285714285
 40
0.4285714285714285
 40
0.4285714285714285
 40
0.5714285714285714
 40
0.5714285714285714
 40
0.5714285714285714
 40
0.7142857142857142
 40
0.7142857142857142
 40
0.7142857142857142
 40
0.8571428571428571
 40
0.8571428571428571
 40
0.8571428571428571
 40
1.0
 40
1.0
 40
1.0
 40
1.0
 10
23.74091
 20
-6.54011
 30
0.0
 10
23.74091
 20
-6.65882
 30
0.0
 10
23.65907
 20
-6.72748
 30
0.0
 10
23.49545
 20
-6.74614
 30
0.0
 10
23.49545
 20
-6.74614
 30
0.0
 10
23.49545
 20
-6.68299
 30
0.0
 10
23.49545
 20
-6.68299
 30
0.0
 10
23.5476
 20
-6.65869
 30
0.0
 10
23.57369
 20
-6.61596
 30
0.0
 10
23.57369
 20
-6.55475
 30
0.0
 10
23.57369
 20
-6.49132
 30
0.0
 10
23.5476
 20
-6.44746
 30
0.0
 10
23.49545
 20
-6.42316
 30
0.0
 10
23.49545
 20
-6.42316
 30
0.0
 10
23.49545
 20
-6.35345
 30
0.0
 10
23.49545
 20
-6.35345
 30
0.0
 10
23.54843
 20
-6.35519
 30
0.0
 10
23.59053
 20
-6.36237
 30
0.0
 10
23.62176
 20
-6.37498
 30
0.0
 10
23.70119
 20
-6.40773
 30
0.0
 10
23.74091
 20
-6.46277
 30
0.0
 10
23.74091
 20
-6.54011
 30
0.0
  0
SPLINE
  5
71
330
1F
100
AcDbEntity
  8
layer 1
 62
   250
370
     9
100
AcDbSpline
210
0.0
220
0.0
230
1.0
 70
    11
 71
     3
 72
    32
 73
    28
 74
     0
 42
0.0000000001
 43
0.0000000001
 40
0.0
 40
0.0
 40
0.0
 40
0.0
 40
0.1111111111111111
 40
0.1111111111111111
 40
0.1111111111111111
 40
0.2222222222222222
 40
0.2222222222222222
 40
0.2222222222222222
 40
0.3333333333333333
 40
0.3333333333333333
 40
0.3333333333333333
 40
0.4444444444444444
 40
0.4444444444444444
 40
0.4444444444444444
 40
0.5555555555555556
 40
0.5555555555555556
 40
0.5555555555555556
 40
0.6666666666666666
 40
0.6666666666666666
 40
0.6666666666666666
 40
0.7777777777777777
 40
0.7777777777777777
 40
0.7777777777777777
 40
0.8888888888888888
 40
0.8888888888888888
 40
0.8888888888888888
 40
1.0
 40
1.0
 40
1.0
 40
1.0
 10
23.40058
 20
-6.96669
 30
0.0
 10
23.38281
 20
-6.96589
 30
0.0
 10
23.36491
 20
-6.9655
 30
0.0
 10
23.34689
 20
-6.9655
 30
0.0
 10
23.31762
 20
-6.9655
 30
0.0
 10
23.2894
 20
-6.96655
 30
0.0
 10
23.26223
 20
-6.96863
 30
0.0
 10
23.26223
 20
-6.96863
 30
0.0
 10
23.23191
 20
-6.9425
 30
0.0
 10
23.23191
 20
-6.9425
 30
0.0
 10
23.23679
 20
-6.83938
 30
0.0
 10
23.23923
 20
-6.74497
 30
0.0
 10
23.23923
 20
-6.65927
 30
0.0
 10
23.23923
 20
-6.57287
 30
0.0
 10
23.23679
 20
-6.48089
 30
0.0
 10
23.23191
 20
-6.38335
 30
0.0
 10
23.23191
 20
-6.38335
 30
0.0
 10
23.26431
 20
-6.35407
 30
0.0
 10
23.26431
 20
-6.35407
 30
0.0
 10
23.28661
 20
-6.35407
 30
0.0
 10
23.32076
 20
-6.35373
 30
0.0
 10
23.36674
 20
-6.35303
 30
0.0
 10
23.36674
 20
-6.35303
 30
0.0
 10
23.40058
 20
-6.35303
 30
0.0
 10
23.40058
 20
-6.35303
 30
0.0
 10
23.40058
 20
-6.35303
 30
0.0
 10
23.40058
 20
-6.96669
 30
0.0
 10
23.40058
 20
-6.96669
 30
0.0
  0
SPLINE
  5
72
330
1F
100
AcDbEntity
  8
layer 1
 62
   250
370
     9
100
AcDbSpline
210
0.0
220
0.0
230
1.0
 70
    11
 71
     3
 72
    50
 73
    46
 74
     0
 42
0.0000000001
 43
0.0000000001
 40
0.0
 40
0.0
 40
0.0
 40
0.0
 40
0.0666666666666667
 40
0.0666666666666667
 40
0.0666666666666667
 40
0.1333333333333333
 40
0.1333333333333333
 40
0.1333333333333333
 40
0.2
 40
0.2
 40
0.2
 40
0.2666666666666667
 40
0.2666666666666667
 40
0.2666666666666667
 40
0.3333333333333333
 40
0.3333333333333333
 40
0.3333333333333333
 40
0.4
 40
0.4
 40
0.4
 40
0.4666666666666667
 40
0.4666666666666667
 40
0.4666666666666667
 40
0.5333333333333333
 40
0.5333333333333333
 40
0.5333333333333333
 40
0.6
 40
0.6
 40
0.6
 40
0.6666666666666666
 40
0.6666666666666666
 40
0.6666666666666666
 40
0.7333333333333333
 40
0.7333333333333333
 40
0.7333333333333333
 40
0.8
 40
0.8
 40
0.8
 40
0.8666666666666667
 40
0.8666666666666667
 40
0.8666666666666667
 40
0.9333333333333333
 40
0.9333333333333333
 40
0.9333333333333333
 40
1.0
 40
1.0
 40
1.0
 40
1.0
 10
23.07723
 20
-6.79618
 30
0.0
 10
23.07723
 20
-6.86585
 30
0.0
 10
23.03908
 20
-6.91498
 30
0.0
 10
22.96295
 20
-6.94355
 30
0.0
 10
22.92946
 20
-6.95645
 30
0.0
 10
22.8728
 20
-6.96439
 30
0.0
 10
22.79299
 20
-6.96733
 30
0.0
 10
22.79299
 20
-6.96733
 30
0.0
 10
22.79299
 20
-6.90874
 30
0.0
 10
22.79299
 20
-6.90874
 30
0.0
 10
22.86751
 20
-6.89039
 30
0.0
 10
22.90478
 20
-6.85427
 30
0.0
 10
22.90478
 20
-6.80036
 30
0.0
 10
22.90478
 20
-6.74645
 30
0.0
 10
22.86751
 20
-6.71014
 30
0.0
 10
22.79299
 20
-6.69142
 30
0.0
 10
22.79299
 20
-6.69142
 30
0.0
 10
22.79299
 20
-6.6214
 30
0.0
 10
22.79299
 20
-6.6214
 30
0.0
 10
22.79994
 20
-6.61864
 30
0.0
 10
22.80655
 20
-6.61558
 30
0.0
 10
22.81281
 20
-6.61223
 30
0.0
 10
22.85182
 20
-6.59133
 30
0.0
 10
22.87133
 20
-6.56102
 30
0.0
 10
22.87133
 20
-6.5213
 30
0.0
 10
22.87133
 20
-6.48019
 30
0.0
 10
22.85235
 20
-6.44919
 30
0.0
 10
22.8142
 20
-6.42829
 30
0.0
 10
22.80757
 20
-6.42454
 30
0.0
 10
22.8005
 20
-6.42119
 30
0.0
 10
22.79299
 20
-6.41821
 30
0.0
 10
22.79299
 20
-6.41821
 30
0.0
 10
22.79299
 20
-6.35602
 30
0.0
 10
22.79299
 20
-6.35602
 30
0.0
 10
22.84456
 20
-6.35829
 30
0.0
 10
22.88236
 20
-6.36251
 30
0.0
 10
22.90634
 20
-6.36871
 30
0.0
 10
22.99658
 20
-6.3924
 30
0.0
 10
23.0417
 20
-6.43664
 30
0.0
 10
23.0417
 20
-6.50145
 30
0.0
 10
23.0417
 20
-6.56903
 30
0.0
 10
22.99049
 20
-6.61467
 30
0.0
 10
22.88805
 20
-6.63836
 30
0.0
 10
23.01417
 20
-6.66205
 30
0.0
 10
23.07723
 20
-6.71466
 30
0.0
 10
23.07723
 20
-6.79618
 30
0.0
  0
SPLINE
  5
73
330
1F
100
AcDbEntity
  8
layer 1
 62
   250
370
     9
100
AcDbSpline
210
0.0
220
0.0
230
1.0
 70
    11
 71
     3
 72
    29
 73
    25
 74
     0
 42
0.0000000001
 43
0.0000000001
 40
0.0
 40
0.0
 40
0.0
 40
0.0
 40
0.125
 40
0.125
 40
0.125
 40
0.25
 40
0.25
 40
0.25
 40
0.375
 40
0.375
 40
0.375
 40
0.5
 40
0.5
 40
0.5
 40
0.625
 40
0.625
 40
0.625
 40
0.75
 40
0.75
 40
0.75
 40
0.875
 40
0.875
 40
0.875
 40
1.0
 40
1.0
 40
1.0
 40
1.0
 10
22.69812
 20
-6.96863
 30
0.0
 10
22.69812
 20
-6.96863
 30
0.0
 10
22.5496
 20
-6.96863
 30
0.0
 10
22.5496
 20
-6.96863
 30
0.0
 10
22.5496
 20
-6.96863
 30
0.0
 10
22.52016
 20
-6.9425
 30
0.0
 10
22.52016
 20
-6.9425
 30
0.0
 10
22.52643
 20
-6.83938
 30
0.0
 10
22.52956
 20
-6.74497
 30
0.0
 10
22.52956
 20
-6.65927
 30
0.0
 10
22.52956
 20
-6.57287
 30
0.0
 10
22.52643
 20
-6.48123
 30
0.0
 10
22.52016
 20
-6.38439
 30
0.0
 10
22.52016
 20
-6.38439
 30
0.0
 10
22.55169
 20
-6.35407
 30
0.0
 10
22.55169
 20
-6.35407
 30
0.0
 10
22.55169
 20
-6.35407
 30
0.0
 10
22.69017
 20
-6.35407
 30
0.0
 10
22.69017
 20
-6.35407
 30
0.0
 10
22.69017
 20
-6.35407
 30
0.0
 10
22.69812
 20
-6.35408
 30
0.0
 10
22.69812
 20
-6.35408
 30
0.0
 10
22.69812
 20
-6.35408
 30
0.0
 10
22.69812
 20
-6.96863
 30
0.0
 10
22.69812
 20
-6.96863
 30
0.0
  0
SPLINE
  5
74
330
1F
100
AcDbEntity
  8
layer 1
 62
   250
370
     9
100
AcDbSpline
210
0.0
220
0.0
230
1.0
 70
    11
 71
     3
 72
    59
 73
    55
 74
     0
 42
0.0000000001
 43
0.0000000001
 40
0.0
 40
0.0
 40
0.0
 40
0.0
 40
0.0555555555555556
 40
0.0555555555555556
 40
0.0555555555555556
 40
0.1111111111111111
 40
0.1111111111111111
 40
0.1111111111111111
 40
0.1666666666666667
 40
0.1666666666666667
 40
0.1666666666666667
 40
0.2222222222222222
 40
0.2222222222222222
 40
0.2222222222222222
 40
0.2777777777777778
 40
0.2777777777777778
 40
0.2777777777777778
 40
0.3333333333333333
 40
0.3333333333333333
 40
0.3333333333333333
 40
0.3888888888888888
 40
0.3888888888888888
 40
0.3888888888888888
 40
0.4444444444444444
 40
0.4444444444444444
 40
0.4444444444444444
 40
0.5
 40
0.5
 40
0.5
 40
0.5555555555555556
 40
0.5555555555555556
 40
0.5555555555555556
 40
0.611111111111111
 40
0.611111111111111
 40
0.611111111111111
 40
0.6666666666666666
 40
0.6666666666666666
 40
0.6666666666666666
 40
0.7222222222222222
 40
0.7222222222222222
 40
0.7222222222222222
 40
0.7777777777777777
 40
0.7777777777777777
 40
0.7777777777777777
 40
0.8333333333333333
 40
0.8333333333333333
 40
0.8333333333333333
 40
0.8888888888888888
 40
0.8888888888888888
 40
0.8888888888888888
 40
0.9444444444444444
 40
0.9444444444444444
 40
0.9444444444444444
 40
1.0
 40
1.0
 40
1.0
 40
1.0
 10
22.12927
 20
-6.9007
 30
0.0
 10
22.12927
 20
-6.9007
 30
0.0
 10
22.14808
 20
-6.9007
 30
0.0
 10
22.14808
 20
-6.9007
 30
0.0
 10
22.15226
 20
-6.9007
 30
0.0
 10
22.15871
 20
-6.9007
 30
0.0
 10
22.16742
 20
-6.9007
 30
0.0
 10
22.17613
 20
-6.9007
 30
0.0
 10
22.18291
 20
-6.9007
 30
0.0
 10
22.1878
 20
-6.9007
 30
0.0
 10
22.24285
 20
-6.9007
 30
0.0
 10
22.29963
 20
-6.89861
 30
0.0
 10
22.35816
 20
-6.89442
 30
0.0
 10
22.35816
 20
-6.89442
 30
0.0
 10
22.39787
 20
-6.96967
 30
0.0
 10
22.39787
 20
-6.96967
 30
0.0
 10
22.31496
 20
-6.96689
 30
0.0
 10
22.25538
 20
-6.9655
 30
0.0
 10
22.21915
 20
-6.9655
 30
0.0
 10
22.21915
 20
-6.9655
 30
0.0
 10
22.14286
 20
-6.9655
 30
0.0
 10
22.14286
 20
-6.9655
 30
0.0
 10
22.08781
 20
-6.9655
 30
0.0
 10
22.03103
 20
-6.96689
 30
0.0
 10
21.97249
 20
-6.96967
 30
0.0
 10
21.97249
 20
-6.96967
 30
0.0
 10
21.94323
 20
-6.94355
 30
0.0
 10
21.94323
 20
-6.94355
 30
0.0
 10
21.9481
 20
-6.84025
 30
0.0
 10
21.95055
 20
-6.74566
 30
0.0
 10
21.95055
 20
-6.65978
 30
0.0
 10
21.95055
 20
-6.57321
 30
0.0
 10
21.9481
 20
-6.48141
 30
0.0
 10
21.94323
 20
-6.38439
 30
0.0
 10
21.94323
 20
-6.38439
 30
0.0
 10
21.97458
 20
-6.35407
 30
0.0
 10
21.97458
 20
-6.35407
 30
0.0
 10
22.04984
 20
-6.35617
 30
0.0
 10
22.11533
 20
-6.35722
 30
0.0
 10
22.17107
 20
-6.35722
 30
0.0
 10
22.2303
 20
-6.35722
 30
0.0
 10
22.29684
 20
-6.35617
 30
0.0
 10
22.3707
 20
-6.35407
 30
0.0
 10
22.3707
 20
-6.35407
 30
0.0
 10
22.33517
 20
-6.42514
 30
0.0
 10
22.33517
 20
-6.42514
 30
0.0
 10
22.29405
 20
-6.42236
 30
0.0
 10
22.25085
 20
-6.42097
 30
0.0
 10
22.20556
 20
-6.42097
 30
0.0
 10
22.20556
 20
-6.42097
 30
0.0
 10
22.12927
 20
-6.42097
 30
0.0
 10
22.12927
 20
-6.42097
 30
0.0
 10
22.12927
 20
-6.42097
 30
0.0
 10
22.12927
 20
-6.9007
 30
0.0
 10
22.12927
 20
-6.9007
 30
0.0
  0
SPLINE
  5
75
330
1F
100
AcDbEntity
  8
layer 1
 62
   250
370
     9
100
AcDbSpline
210
0.0
220
0.0
230
1.0
 70
    11
 71
     3
 72
    17
 73
    13
 74
     0
 42
0.0000000001
 43
0.0000000001
 40
0.0
 40
0.0
 40
0.0
 40
0.0
 40
0.25
 40
0.25
 40
0.25
 40
0.5
 40
0.5
 40
0.5
 40
0.75
 40
0.75
 40
0.75
 40
1.0
 40
1.0
 40
1.0
 40
1.0
 10
22.18499
 20
-6.63189
 30
0.0
 10
22.22355
 20
-6.60582
 30
0.0
 10
22.23839
 20
-6.60552
 30
0.0
 10
22.27901
 20
-6.55386
 30
0.0
 10
22.31315
 20
-6.59776
 30
0.0
 10
22.32994
 20
-6.62198
 30
0.0
 10
22.36757
 20
-6.65821
 30
0.0
 10
22.31043
 20
-6.69793
 30
0.0
 10
22.29425
 20
-6.70459
 30
0.0
 10
22.26498
 20
-6.73038
 30
0.0
 10
22.23787
 20
-6.70006
 30
0.0
 10
22.23565
 20
-6.67954
 30
0.0
 10
22.18499
 20
-6.63189
 30
0.0
  0
SPLINE
  5
76
330
1F
100
AcDbEntity
  8
layer 1
 62
   250
370
     9
100
AcDbSpline
210
0.0
220
0.0
230
1.0
 70
    11
 71
     3
 72
    35
 73
    31
 74
     0
 42
0.0000000001
 43
0.0000000001
 40
0.0
 40
0.0
 40
0.0
 40
0.0
 40
0.1
 40
0.1
 40
0.1
 40
0.2
 40
0.2
 40
0.2
 40
0.3
 40
0.3
 40
0.3
 40
0.4
 40
0.4
 40
0.4
 40
0.5
 40
0.5
 40
0.5
 40
0.6000000000000001
 40
0.6000000000000001
 40
0.6000000000000001
 40
0.7000000000000001
 40
0.7000000000000001
 40
0.7000000000000001
 40
0.8
 40
0.8
 40
0.8
 40
0.9
 40
0.9
 40
0.9
 40
1.0
 40
1.0
 40
1.0
 40
1.0
 10
21.80317
 20
-6.65299
 30
0.0
 10
21.80317
 20
-6.73103
 30
0.0
 10
21.76799
 20
-6.78956
 30
0.0
 10
21.69762
 20
-6.82858
 30
0.0
 10
21.65781
 20
-6.85021
 30
0.0
 10
21.61019
 20
-6.8642
 30
0.0
 10
21.55477
 20
-6.87057
 30
0.0
 10
21.55477
 20
-6.87057
 30
0.0
 10
21.55477
 20
-6.81447
 30
0.0
 10
21.55477
 20
-6.81447
 30
0.0
 10
21.57265
 20
-6.80582
 30
0.0
 10
21.58787
 20
-6.79344
 30
0.0
 10
21.60042
 20
-6.77737
 30
0.0
 10
21.6241
 20
-6.74671
 30
0.0
 10
21.63595
 20
-6.70525
 30
0.0
 10
21.63595
 20
-6.65299
 30
0.0
 10
21.63595
 20
-6.56971
 30
0.0
 10
21.60888
 20
-6.5166
 30
0.0
 10
21.55477
 20
-6.49365
 30
0.0
 10
21.55477
 20
-6.49365
 30
0.0
 10
21.55477
 20
-6.43352
 30
0.0
 10
21.55477
 20
-6.43352
 30
0.0
 10
21.59451
 20
-6.43607
 30
0.0
 10
21.62541
 20
-6.44095
 30
0.0
 10
21.64745
 20
-6.44814
 30
0.0
 10
21.69622
 20
-6.46417
 30
0.0
 10
21.73436
 20
-6.48995
 30
0.0
 10
21.76189
 20
-6.52548
 30
0.0
 10
21.78941
 20
-6.56102
 30
0.0
 10
21.80317
 20
-6.60352
 30
0.0
 10
21.80317
 20
-6.65299
 30
0.0
  0
SPLINE
  5
77
330
1F
100
AcDbEntity
  8
layer 1
 62
   250
370
     9
100
AcDbSpline
210
0.0
220
0.0
230
1.0
 70
    11
 71
     3
 72
    23
 73
    19
 74
     0
 42
0.0000000001
 43
0.0000000001
 40
0.0
 40
0.0
 40
0.0
 40
0.0
 40
0.1666666666666667
 40
0.1666666666666667
 40
0.1666666666666667
 40
0.3333333333333333
 40
0.3333333333333333
 40
0.3333333333333333
 40
0.5
 40
0.5
 40
0.5
 40
0.6666666666666666
 40
0.6666666666666666
 40
0.6666666666666666
 40
0.8333333333333333
 40
0.8333333333333333
 40
0.8333333333333333
 40
1.0
 40
1.0
 40
1.0
 40
1.0
 10
21.4599
 20
-6.97021
 30
0.0
 10
21.43913
 20
-6.96916
 30
0.0
 10
21.40862
 20
-6.96863
 30
0.0
 10
21.36839
 20
-6.96863
 30
0.0
 10
21.34935
 20
-6.96863
 30
0.0
 10
21.33351
 20
-6.96912
 30
0.0
 10
21.32087
 20
-6.97011
 30
0.0
 10
21.32087
 20
-6.97011
 30
0.0
 10
21.32087
 20
-6.35514
 30
0.0
 10
21.32087
 20
-6.35514
 30
0.0
 10
21.35404
 20
-6.35861
 30
0.0
 10
21.37824
 20
-6.36035
 30
0.0
 10
21.39347
 20
-6.36035
 30
0.0
 10
21.40939
 20
-6.36035
 30
0.0
 10
21.43152
 20
-6.35885
 30
0.0
 10
21.4599
 20
-6.35585
 30
0.0
 10
21.4599
 20
-6.35585
 30
0.0
 10
21.4599
 20
-6.97021
 30
0.0
 10
21.4599
 20
-6.97021
 30
0.0
  0
SPLINE
  5
78
330
1F
100
AcDbEntity
  8
layer 1
 62
   250
370
     9
100
AcDbSpline
210
0.0
220
0.0
230
1.0
 70
    11
 71
     3
 72
    35
 73
    31
 74
     0
 42
0.0000000001
 43
0.0000000001
 40
0.0
 40
0.0
 40
0.0
 40
0.0
 40
0.1
 40
0.1
 40
0.1
 40
0.2
 40
0.2
 40
0.2
 40
0.3
 40
0.3
 40
0.3
 40
0.4
 40
0.4
 40
0.4
 40
0.5
 40
0.5
 40
0.5
 40
0.6000000000000001
 40
0.6000000000000001
 40
0.6000000000000001
 40
0.7000000000000001
 40
0.7000000000000001
 40
0.7000000000000001
 40
0.8
 40
0.8
 40
0.8
 40
0.9
 40
0.9
 40
0.9
 40
1.0
 40
1.0
 40
1.0
 40
1.0
 10
21.226
 20
-6.86982
 30
0.0
 10
21.17321
 20
-6.86315
 30
0.0
 10
21.12765
 20
-6.8494
 30
0.0
 10
21.08933
 20
-6.82858
 30
0.0
 10
21.01896
 20
-6.78956
 30
0.0
 10
20.98377
 20
-6.73103
 30
0.0
 10
20.98377
 20
-6.65299
 30
0.0
 10
20.98377
 20
-6.60422
 30
0.0
 10
20.9977
 20
-6.56189
 30
0.0
 10
21.02557
 20
-6.52601
 30
0.0
 10
21.05345
 20
-6.49012
 30
0.0
 10
21.09177
 20
-6.46417
 30
0.0
 10
21.14054
 20
-6.44814
 30
0.0
 10
21.1613
 20
-6.44136
 30
0.0
 10
21.18978
 20
-6.43665
 30
0.0
 10
21.226
 20
-6.43398
 30
0.0
 10
21.226
 20
-6.43398
 30
0.0
 10
21.226
 20
-6.49645
 30
0.0
 10
21.226
 20
-6.49645
 30
0.0
 10
21.176
 20
-6.52077
 30
0.0
 10
21.151
 20
-6.57294
 30
0.0
 10
21.151
 20
-6.65299
 30
0.0
 10
21.151
 20
-6.70525
 30
0.0
 10
21.16283
 20
-6.74671
 30
0.0
 10
21.18653
 20
-6.77737
 30
0.0
 10
21.1976
 20
-6.79157
 30
0.0
 10
21.21076
 20
-6.80286
 30
0.0
 10
21.226
 20
-6.81128
 30
0.0
 10
21.226
 20
-6.81128
 30
0.0
 10
21.226
 20
-6.86982
 30
0.0
 10
21.226
 20
-6.86982
 30
0.0
  0
SPLINE
  5
79
330
1F
100
AcDbEntity
  8
layer 1
 62
   250
370
     9
100
AcDbSpline
210
0.0
220
0.0
230
1.0
 70
    11
 71
     3
 72
   128
 73
   124
 74
     0
 42
0.0000000001
 43
0.0000000001
 40
0.0
 40
0.0
 40
0.0
 40
0.0
 40
0.024390243902439
 40
0.024390243902439
 40
0.024390243902439
 40
0.0487804878048781
 40
0.0487804878048781
 40
0.0487804878048781
 40
0.0731707317073171
 40
0.0731707317073171
 40
0.0731707317073171
 40
0.0975609756097561
 40
0.0975609756097561
 40
0.0975609756097561
 40
0.1219512195121951
 40
0.1219512195121951
 40
0.1219512195121951
 40
0.1463414634146342
 40
0.1463414634146342
 40
0.1463414634146342
 40
0.1707317073170732
 40
0.1707317073170732
 40
0.1707317073170732
 40
0.1951219512195122
 40
0.1951219512195122
 40
0.1951219512195122
 40
0.2195121951219512
 40
0.2195121951219512
 40
0.2195121951219512
 40
0.2439024390243902
 40
0.2439024390243902
 40
0.2439024390243902
 40
0.2682926829268293
 40
0.2682926829268293
 40
0.2682926829268293
 40
0.2926829268292683
 40
0.2926829268292683
 40
0.2926829268292683
 40
0.3170731707317073
 40
0.3170731707317073
 40
0.3170731707317073
 40
0.3414634146341464
 40
0.3414634146341464
 40
0.3414634146341464
 40
0.3658536585365854
 40
0.3658536585365854
 40
0.3658536585365854
 40
0.3902439024390244
 40
0.3902439024390244
 40
0.3902439024390244
 40
0.4146341463414634
 40
0.4146341463414634
 40
0.4146341463414634
 40
0.4390243902439024
 40
0.4390243902439024
 40
0.4390243902439024
 40
0.4634146341463415
 40
0.4634146341463415
 40
0.4634146341463415
 40
0.4878048780487805
 40
0.4878048780487805
 40
0.4878048780487805
 40
0.5121951219512195
 40
0.5121951219512195
 40
0.5121951219512195
 40
0.5365853658536586
 40
0.5365853658536586
 40
0.5365853658536586
 40
0.5609756097560976
 40
0.5609756097560976
 40
0.5609756097560976
 40
0.5853658536585367
 40
0.5853658536585367
 40
0.5853658536585367
 40
0.6097560975609756
 40
0.6097560975609756
 40
0.6097560975609756
 40
0.6341463414634146
 40
0.6341463414634146
 40
0.6341463414634146
 40
0.6585365853658537
 40
0.6585365853658537
 40
0.6585365853658537
 40
0.6829268292682927
 40
0.6829268292682927
 40
0.6829268292682927
 40
0.7073170731707318
 40
0.7073170731707318
 40
0.7073170731707318
 40
0.7317073170731707
 40
0.7317073170731707
 40
0.7317073170731707
 40
0.7560975609756098
 40
0.7560975609756098
 40
0.7560975609756098
 40
0.7804878048780488
 40
0.7804878048780488
 40
0.7804878048780488
 40
0.8048780487804879
 40
0.8048780487804879
 40
0.8048780487804879
 40
0.8292682926829269
 40
0.8292682926829269
 40
0.8292682926829269
 40
0.8536585365853658
 40
0.8536585365853658
 40
0.8536585365853658
 40
0.8780487804878049
 40
0.8780487804878049
 40
0.8780487804878049
 40
0.9024390243902439
 40
0.9024390243902439
 40
0.9024390243902439
 40
0.926829268292683
 40
0.926829268292683
 40
0.926829268292683
 40
0.951219512195122
 40
0.951219512195122
 40
0.951219512195122
 40
0.975609756097561
 40
0.975609756097561
 40
0.975609756097561
 40
1.0
 40
1.0
 40
1.0
 40
1.0
 10
25.40372
 20
-2.553
 30
0.0
 10
25.40372
 20
-3.08934
 30
0.0
 10
25.19442
 20
-3.17873
 30
0.0
 10
24.91536
 20
-3.17873
 30
0.0
 10
24.83562
 20
-3.17873
 30
0.0
 10
24.75589
 20
-3.16595
 30
0.0
 10
24.67615
 20
-3.15318
 30
0.0
 10
24.62633
 20
-3.1468
 30
0.0
 10
24.5765
 20
-3.13404
 30
0.0
 10
24.52666
 20
-3.13404
 30
0.0
 10
24.3971
 20
-3.13404
 30
0.0
 10
24.26753
 20
-3.17234
 30
0.0
 10
24.26753
 20
-3.28088
 30
0.0
 10
24.26753
 20
-3.38305
 30
0.0
 10
24.35723
 20
-3.44052
 30
0.0
 10
24.52666
 20
-3.44052
 30
0.0
 10
24.67615
 20
-3.44052
 30
0.0
 10
24.93529
 20
-3.38305
 30
0.0
 10
25.09475
 20
-3.38305
 30
0.0
 10
25.32399
 20
-3.38305
 30
0.0
 10
25.53327
 20
-3.57459
 30
0.0
 10
25.53327
 20
-4.03432
 30
0.0
 10
25.53327
 20
-4.03432
 30
0.0
 10
25.53327
 20
-4.79414
 30
0.0
 10
25.53327
 20
-4.79414
 30
0.0
 10
25.53327
 20
-5.18362
 30
0.0
 10
25.41367
 20
-5.52203
 30
0.0
 10
24.89542
 20
-5.52203
 30
0.0
 10
24.44693
 20
-5.52203
 30
0.0
 10
24.19777
 20
-5.36879
 30
0.0
 10
24.19777
 20
-5.24108
 30
0.0
 10
24.19777
 20
-5.1517
 30
0.0
 10
24.37717
 20
-5.10062
 30
0.0
 10
24.5765
 20
-4.95377
 30
0.0
 10
24.72599
 20
-4.84522
 30
0.0
 10
24.76586
 20
-4.76221
 30
0.0
 10
24.76586
 20
-4.62813
 30
0.0
 10
24.76586
 20
-4.28971
 30
0.0
 10
24.41703
 20
-4.14286
 30
0.0
 10
24.14794
 20
-4.14286
 30
0.0
 10
23.85504
 20
-4.14286
 30
0.0
 10
23.62442
 20
-4.2734
 30
0.0
 10
23.52853
 20
-4.49893
 30
0.0
 10
23.52853
 20
-4.49893
 30
0.0
 10
23.53872
 20
-4.27057
 30
0.0
 10
23.53872
 20
-4.27057
 30
0.0
 10
23.53872
 20
-4.27057
 30
0.0
 10
23.37925
 20
-4.27057
 30
0.0
 10
23.37925
 20
-4.27057
 30
0.0
 10
23.27959
 20
-4.78775
 30
0.0
 10
23.14005
 20
-4.91546
 30
0.0
 10
22.861
 20
-4.91546
 30
0.0
 10
22.861
 20
-4.91546
 30
0.0
 10
20.75809
 20
-4.91546
 30
0.0
 10
20.75809
 20
-4.91546
 30
0.0
 10
20.75809
 20
-4.91546
 30
0.0
 10
22.00389
 20
-4.07902
 30
0.0
 10
22.00389
 20
-4.07902
 30
0.0
 10
22.61185
 20
-3.67675
 30
0.0
 10
23.48888
 20
-3.23619
 30
0.0
 10
23.48888
 20
-2.50192
 30
0.0
 10
23.48888
 20
-1.97835
 30
0.0
 10
22.99056
 20
-1.37816
 30
0.0
 10
21.86436
 20
-1.37816
 30
0.0
 10
21.49907
 20
-1.37816
 30
0.0
 10
21.20523
 20
-1.43973
 30
0.0
 10
20.97292
 20
-1.53667
 30
0.0
 10
21.01592
 20
-1.50291
 30
0.0
 10
21.0583
 20
-1.46834
 30
0.0
 10
21.1001
 20
-1.433
 30
0.0
 10
21.26131
 20
-1.29672
 30
0.0
 10
21.41846
 20
-1.14784
 30
0.0
 10
21.56308
 20
-0.99396
 30
0.0
 10
21.57766
 20
-0.97845
 30
0.0
 10
21.59218
 20
-0.96228
 30
0.0
 10
21.6067
 20
-0.9459
 30
0.0
 10
21.60674
 20
-0.9459
 30
0.0
 10
21.60679
 20
-0.9459
 30
0.0
 10
21.60682
 20
-0.9459
 30
0.0
 10
22.20369
 20
-0.93693
 30
0.0
 10
22.80757
 20
-0.94944
 30
0.0
 10
23.40508
 20
-0.94944
 30
0.0
 10
24.0026
 20
-0.94944
 30
0.0
 10
24.60648
 20
-0.93693
 30
0.0
 10
25.20335
 20
-0.9459
 30
0.0
 10
25.20338
 20
-0.9459
 30
0.0
 10
25.20343
 20
-0.9459
 30
0.0
 10
25.20347
 20
-0.9459
 30
0.0
 10
25.21799
 20
-0.96228
 30
0.0
 10
25.23251
 20
-0.97845
 30
0.0
 10
25.24709
 20
-0.99396
 30
0.0
 10
25.39171
 20
-1.14784
 30
0.0
 10
25.54886
 20
-1.29672
 30
0.0
 10
25.71007
 20
-1.433
 30
0.0
 10
25.73502
 20
-1.45409
 30
0.0
 10
25.76018
 20
-1.47491
 30
0.0
 10
25.78555
 20
-1.49546
 30
0.0
 10
25.5718
 20
-1.42201
 30
0.0
 10
25.30945
 20
-1.37816
 30
0.0
 10
24.99508
 20
-1.37816
 30
0.0
 10
24.22767
 20
-1.37816
 30
0.0
 10
23.64963
 20
-1.67825
 30
0.0
 10
23.64963
 20
-2.11243
 30
0.0
 10
23.64963
 20
-2.43168
 30
0.0
 10
23.85892
 20
-2.67431
 30
0.0
 10
24.21771
 20
-2.67431
 30
0.0
 10
24.61637
 20
-2.67431
 30
0.0
 10
24.80571
 20
-2.48275
 30
0.0
 10
24.80571
 20
-2.2529
 30
0.0
 10
24.80571
 20
-2.18267
 30
0.0
 10
24.77582
 20
-2.11243
 30
0.0
 10
24.73595
 20
-2.05497
 30
0.0
 10
24.61637
 20
-1.88257
 30
0.0
 10
24.427
 20
-1.8251
 30
0.0
 10
24.427
 20
-1.71656
 30
0.0
 10
24.427
 20
-1.64632
 30
0.0
 10
24.53664
 20
-1.51862
 30
0.0
 10
24.87549
 20
-1.51862
 30
0.0
 10
25.12464
 20
-1.51862
 30
0.0
 10
25.40372
 20
-1.55056
 30
0.0
 10
25.40372
 20
-2.11882
 30
0.0
 10
25.40372
 20
-2.11882
 30
0.0
 10
25.40372
 20
-2.553
 30
0.0
 10
25.40372
 20
-2.553
 30
0.0
  0
SPLINE
  5
7A
330
1F
100
AcDbEntity
  8
layer 1
 62
   250
370
     9
100
AcDbSpline
210
0.0
220
0.0
230
1.0
 70
    11
 71
     3
 72
    50
 73
    46
 74
     0
 42
0.0000000001
 43
0.0000000001
 40
0.0
 40
0.0
 40
0.0
 40
0.0
 40
0.0666666666666667
 40
0.0666666666666667
 40
0.0666666666666667
 40
0.1333333333333333
 40
0.1333333333333333
 40
0.1333333333333333
 40
0.2
 40
0.2
 40
0.2
 40
0.2666666666666667
 40
0.2666666666666667
 40
0.2666666666666667
 40
0.3333333333333333
 40
0.3333333333333333
 40
0.3333333333333333
 40
0.4
 40
0.4
 40
0.4
 40
0.4666666666666667
 40
0.4666666666666667
 40
0.4666666666666667
 40
0.5333333333333333
 40
0.5333333333333333
 40
0.5333333333333333
 40
0.6
 40
0.6
 40
0.6
 40
0.6666666666666666
 40
0.6666666666666666
 40
0.6666666666666666
 40
0.7333333333333333
 40
0.7333333333333333
 40
0.7333333333333333
 40
0.8
 40
0.8
 40
0.8
 40
0.8666666666666667
 40
0.8666666666666667
 40
0.8666666666666667
 40
0.9333333333333333
 40
0.9333333333333333
 40
0.9333333333333333
 40
1.0
 40
1.0
 40
1.0
 40
1.0
 10
20.49352
 20
-1.85986
 30
0.0
 10
20.30866
 20
-2.05684
 30
0.0
 10
20.22988
 20
-2.27845
 30
0.0
 10
20.22988
 20
-2.45084
 30
0.0
 10
20.22988
 20
-2.86586
 30
0.0
 10
20.55876
 20
-3.09573
 30
0.0
 10
20.92752
 20
-3.09573
 30
0.0
 10
21.38599
 20
-3.09573
 30
0.0
 10
21.58531
 20
-2.80202
 30
0.0
 10
21.58531
 20
-2.61046
 30
0.0
 10
21.58531
 20
-2.36782
 30
0.0
 10
21.37601
 20
-2.22737
 30
0.0
 10
21.24644
 20
-2.14435
 30
0.0
 10
21.1468
 20
-2.08689
 30
0.0
 10
20.95743
 20
-1.9911
 30
0.0
 10
20.95743
 20
-1.88257
 30
0.0
 10
20.95743
 20
-1.72294
 30
0.0
 10
21.21655
 20
-1.51862
 30
0.0
 10
21.57534
 20
-1.51862
 30
0.0
 10
21.95406
 20
-1.51862
 30
0.0
 10
22.34276
 20
-1.76126
 30
0.0
 10
22.34276
 20
-2.43807
 30
0.0
 10
22.34276
 20
-3.21704
 30
0.0
 10
22.02945
 20
-3.78131
 30
0.0
 10
21.35608
 20
-4.17479
 30
0.0
 10
21.35608
 20
-4.17479
 30
0.0
 10
20.7438
 20
-4.53256
 30
0.0
 10
20.7438
 20
-4.53256
 30
0.0
 10
20.7438
 20
-4.53256
 30
0.0
 10
20.24766
 20
-5.16652
 30
0.0
 10
20.24766
 20
-5.16652
 30
0.0
 10
20.14645
 20
-4.85122
 30
0.0
 10
20.05533
 20
-4.53218
 30
0.0
 10
19.97527
 20
-4.21215
 30
0.0
 10
19.85941
 20
-3.74893
 30
0.0
 10
19.76018
 20
-3.26786
 30
0.0
 10
19.69452
 20
-2.79471
 30
0.0
 10
19.66808
 20
-2.60425
 30
0.0
 10
19.65085
 20
-2.42032
 30
0.0
 10
19.64123
 20
-2.23223
 30
0.0
 10
19.72411
 20
-2.20351
 30
0.0
 10
19.80615
 20
-2.17299
 30
0.0
 10
19.8861
 20
-2.14205
 30
0.0
 10
20.09464
 20
-2.06132
 30
0.0
 10
20.29883
 20
-1.97006
 30
0.0
 10
20.49352
 20
-1.85986
 30
0.0
  0
SPLINE
  5
7B
330
1F
100
AcDbEntity
  8
layer 1
 62
   250
370
     9
100
AcDbSpline
210
0.0
220
0.0
230
1.0
 70
    11
 71
     3
 72
    32
 73
    28
 74
     0
 42
0.0000000001
 43
0.0000000001
 40
0.0
 40
0.0
 40
0.0
 40
0.0
 40
0.1111111111111111
 40
0.1111111111111111
 40
0.1111111111111111
 40
0.2222222222222222
 40
0.2222222222222222
 40
0.2222222222222222
 40
0.3333333333333333
 40
0.3333333333333333
 40
0.3333333333333333
 40
0.4444444444444444
 40
0.4444444444444444
 40
0.4444444444444444
 40
0.5555555555555556
 40
0.5555555555555556
 40
0.5555555555555556
 40
0.6666666666666666
 40
0.6666666666666666
 40
0.6666666666666666
 40
0.7777777777777777
 40
0.7777777777777777
 40
0.7777777777777777
 40
0.8888888888888888
 40
0.8888888888888888
 40
0.8888888888888888
 40
1.0
 40
1.0
 40
1.0
 40
1.0
 10
26.74906
 20
-4.53952
 30
0.0
 10
26.74603
 20
-4.24895
 30
0.0
 10
26.66152
 20
-3.4685
 30
0.0
 10
25.38378
 20
-3.28728
 30
0.0
 10
25.38378
 20
-3.28728
 30
0.0
 10
25.38378
 20
-3.24897
 30
0.0
 10
25.38378
 20
-3.24897
 30
0.0
 10
26.37045
 20
-3.1085
 30
0.0
 10
26.5299
 20
-2.62961
 30
0.0
 10
26.5299
 20
-2.3359
 30
0.0
 10
26.5299
 20
-2.18646
 30
0.0
 10
26.47897
 20
-2.03148
 30
0.0
 10
26.37253
 20
-1.89084
 30
0.0
 10
26.55028
 20
-1.98736
 30
0.0
 10
26.73539
 20
-2.06901
 30
0.0
 10
26.92407
 20
-2.14205
 30
0.0
 10
27.00402
 20
-2.17299
 30
0.0
 10
27.08606
 20
-2.20351
 30
0.0
 10
27.16894
 20
-2.23223
 30
0.0
 10
27.15932
 20
-2.42032
 30
0.0
 10
27.14209
 20
-2.60425
 30
0.0
 10
27.11565
 20
-2.79471
 30
0.0
 10
27.04999
 20
-3.26786
 30
0.0
 10
26.95076
 20
-3.74893
 30
0.0
 10
26.8349
 20
-4.21215
 30
0.0
 10
26.80756
 20
-4.32143
 30
0.0
 10
26.77893
 20
-4.43059
 30
0.0
 10
26.74906
 20
-4.53952
 30
0.0
  0
SPLINE
  5
7C
330
1F
100
AcDbEntity
  8
layer 1
 62
   250
370
     9
100
AcDbSpline
210
0.0
220
0.0
230
1.0
 70
    11
 71
     3
 72
    17
 73
    13
 74
     0
 42
0.0000000001
 43
0.0000000001
 40
0.0
 40
0.0
 40
0.0
 40
0.0
 40
0.25
 40
0.25
 40
0.25
 40
0.5
 40
0.5
 40
0.5
 40
0.75
 40
0.75
 40
0.75
 40
1.0
 40
1.0
 40
1.0
 40
1.0
 10
22.57773
 20
-0.44067
 30
0.0
 10
22.66403
 20
-0.44067
 30
0.0
 10
22.734
 20
-0.51063
 30
0.0
 10
22.734
 20
-0.59694
 30
0.0
 10
22.734
 20
-0.68324
 30
0.0
 10
22.66403
 20
-0.7532
 30
0.0
 10
22.57773
 20
-0.7532
 30
0.0
 10
22.49142
 20
-0.7532
 30
0.0
 10
22.42147
 20
-0.68324
 30
0.0
 10
22.42147
 20
-0.59694
 30
0.0
 10
22.42147
 20
-0.51063
 30
0.0
 10
22.49142
 20
-0.44067
 30
0.0
 10
22.57773
 20
-0.44067
 30
0.0
  0
SPLINE
  5
7D
330
1F
100
AcDbEntity
  8
layer 1
 62
   250
370
     9
100
AcDbSpline
210
0.0
220
0.0
230
1.0
 70
    11
 71
     3
 72
    17
 73
    13
 74
     0
 42
0.0000000001
 43
0.0000000001
 40
0.0
 40
0.0
 40
0.0
 40
0.0
 40
0.25
 40
0.25
 40
0.25
 40
0.5
 40
0.5
 40
0.5
 40
0.75
 40
0.75
 40
0.75
 40
1.0
 40
1.0
 40
1.0
 40
1.0
 10
24.24197
 20
-0.44067
 30
0.0
 10
24.15567
 20
-0.44067
 30
0.0
 10
24.0857
 20
-0.51063
 30
0.0
 10
24.0857
 20
-0.59694
 30
0.0
 10
24.0857
 20
-0.68324
 30
0.0
 10
24.15567
 20
-0.7532
 30
0.0
 10
24.24197
 20
-0.7532
 30
0.0
 10
24.32828
 20
-0.7532
 30
0.0
 10
24.39824
 20
-0.68324
 30
0.0
 10
24.39824
 20
-0.59694
 30
0.0
 10
24.39824
 20
-0.51063
 30
0.0
 10
24.32828
 20
-0.44067
 30
0.0
 10
24.24197
 20
-0.44067
 30
0.0
  0
SPLINE
  5
7E
330
1F
100
AcDbEntity
  8
layer 1
 62
   250
370
     9
100
AcDbSpline
210
0.0
220
0.0
230
1.0
 70
    11
 71
     3
 72
    17
 73
    13
 74
     0
 42
0.0000000001
 43
0.0000000001
 40
0.0
 40
0.0
 40
0.0
 40
0.0
 40
0.25
 40
0.25
 40
0.25
 40
0.5
 40
0.5
 40
0.5
 40
0.75
 40
0.75
 40
0.75
 40
1.0
 40
1.0
 40
1.0
 40
1.0
 10
20.46948
 20
-1.33238
 30
0.0
 10
20.55579
 20
-1.33238
 30
0.0
 10
20.62574
 20
-1.40234
 30
0.0
 10
20.62574
 20
-1.48865
 30
0.0
 10
20.62574
 20
-1.57495
 30
0.0
 10
20.55579
 20
-1.64491
 30
0.0
 10
20.46948
 20
-1.64491
 30
0.0
 10
20.38318
 20
-1.64491
 30
0.0
 10
20.31321
 20
-1.57495
 30
0.0
 10
20.31321
 20
-1.48865
 30
0.0
 10
20.31321
 20
-1.40234
 30
0.0
 10
20.38318
 20
-1.33238
 30
0.0
 10
20.46948
 20
-1.33238
 30
0.0
  0
SPLINE
  5
7F
330
1F
100
AcDbEntity
  8
layer 1
 62
   250
370
     9
100
AcDbSpline
210
0.0
220
0.0
230
1.0
 70
    11
 71
     3
 72
    17
 73
    13
 74
     0
 42
0.0000000001
 43
0.0000000001
 40
0.0
 40
0.0
 40
0.0
 40
0.0
 40
0.25
 40
0.25
 40
0.25
 40
0.5
 40
0.5
 40
0.5
 40
0.75
 40
0.75
 40
0.75
 40
1.0
 40
1.0
 40
1.0
 40
1.0
 10
26.35022
 20
-1.33238
 30
0.0
 10
26.26392
 20
-1.33238
 30
0.0
 10
26.19395
 20
-1.40234
 30
0.0
 10
26.19395
 20
-1.48865
 30
0.0
 10
26.19395
 20
-1.57495
 30
0.0
 10
26.26392
 20
-1.64491
 30
0.0
 10
26.35022
 20
-1.64491
 30
0.0
 10
26.43653
 20
-1.64491
 30
0.0
 10
26.50648
 20
-1.57495
 30
0.0
 10
26.50648
 20
-1.48865
 30
0.0
 10
26.50648
 20
-1.40234
 30
0.0
 10
26.43653
 20
-1.33238
 30
0.0
 10
26.35022
 20
-1.33238
 30
0.0
  0
SPLINE
  5
80
330
1F
100
AcDbEntity
  8
layer 1
 62
   250
370
     9
100
AcDbSpline
210
0.0
220
0.0
230
1.0
 70
    11
 71
     3
 72
    17
 73
    13
 74
     0
 42
0.0000000001
 43
0.0000000001
 40
0.0
 40
0.0
 40
0.0
 40
0.0
 40
0.25
 40
0.25
 40
0.25
 40
0.5
 40
0.5
 40
0.5
 40
0.75
 40
0.75
 40
0.75
 40
1.0
 40
1.0
 40
1.0
 40
1.0
 10
19.45734
 20
-3.34912
 30
0.0
 10
19.54364
 20
-3.34912
 30
0.0
 10
19.6136
 20
-3.41909
 30
0.0
 10
19.6136
 20
-3.50539
 30
0.0
 10
19.6136
 20
-3.5917
 30
0.0
 10
19.54364
 20
-3.66165
 30
0.0
 10
19.45734
 20
-3.66165
 30
0.0
 10
19.37103
 20
-3.66165
 30
0.0
 10
19.30108
 20
-3.5917
 30
0.0
 10
19.30108
 20
-3.50539
 30
0.0
 10
19.30108
 20
-3.41909
 30
0.0
 10
19.37103
 20
-3.34912
 30
0.0
 10
19.45734
 20
-3.34912
 30
0.0
  0
SPLINE
  5
81
330
1F
100
AcDbEntity
  8
layer 1
 62
   250
370
     9
100
AcDbSpline
210
0.0
220
0.0
230
1.0
 70
    11
 71
     3
 72
    17
 73
    13
 74
     0
 42
0.0000000001
 43
0.0000000001
 40
0.0
 40
0.0
 40
0.0
 40
0.0
 40
0.25
 40
0.25
 40
0.25
 40
0.5
 40
0.5
 40
0.5
 40
0.75
 40
0.75
 40
0.75
 40
1.0
 40
1.0
 40
1.0
 40
1.0
 10
27.36236
 20
-3.34912
 30
0.0
 10
27.27606
 20
-3.34912
 30
0.0
 10
27.20609
 20
-3.41909
 30
0.0
 10
27.20609
 20
-3.50539
 30
0.0
 10
27.20609
 20
-3.5917
 30
0.0
 10
27.27606
 20
-3.66165
 30
0.0
 10
27.36236
 20
-3.66165
 30
0.0
 10
27.44867
 20
-3.66165
 30
0.0
 10
27.51863
 20
-3.5917
 30
0.0
 10
27.51863
 20
-3.50539
 30
0.0
 10
27.51863
 20
-3.41909
 30
0.0
 10
27.44867
 20
-3.34912
 30
0.0
 10
27.36236
 20
-3.34912
 30
0.0
  0
SPLINE
  5
82
330
1F
100
AcDbEntity
  8
layer 1
 62
   250
370
     9
100
AcDbSpline
210
0.0
220
0.0
230
1.0
 70
    11
 71
     3
 72
    17
 73
    13
 74
     0
 42
0.0000000001
 43
0.0000000001
 40
0.0
 40
0.0
 40
0.0
 40
0.0
 40
0.25
 40
0.25
 40
0.25
 40
0.5
 40
0.5
 40
0.5
 40
0.75
 40
0.75
 40
0.75
 40
1.0
 40
1.0
 40
1.0
 40
1.0
 10
20.35268
 20
-6.30063
 30
0.0
 10
20.43899
 20
-6.30063
 30
0.0
 10
20.50894
 20
-6.37059
 30
0.0
 10
20.50894
 20
-6.45689
 30
0.0
 10
20.50894
 20
-6.5432
 30
0.0
 10
20.43899
 20
-6.61316
 30
0.0
 10
20.35268
 20
-6.61316
 30
0.0
 10
20.26638
 20
-6.61316
 30
0.0
 10
20.19641
 20
-6.5432
 30
0.0
 10
20.19641
 20
-6.45689
 30
0.0
 10
20.19641
 20
-6.37059
 30
0.0
 10
20.26638
 20
-6.30063
 30
0.0
 10
20.35268
 20
-6.30063
 30
0.0
  0
SPLINE
  5
83
330
1F
100
AcDbEntity
  8
layer 1
 62
   250
370
     9
100
AcDbSpline
210
0.0
220
0.0
230
1.0
 70
    11
 71
     3
 72
    17
 73
    13
 74
     0
 42
0.0000000001
 43
0.0000000001
 40
0.0
 40
0.0
 40
0.0
 40
0.0
 40
0.25
 40
0.25
 40
0.25
 40
0.5
 40
0.5
 40
0.5
 40
0.75
 40
0.75
 40
0.75
 40
1.0
 40
1.0
 40
1.0
 40
1.0
 10
26.46703
 20
-6.30063
 30
0.0
 10
26.38072
 20
-6.30063
 30
0.0
 10
26.31076
 20
-6.37059
 30
0.0
 10
26.31076
 20
-6.45689
 30
0.0
 10
26.31076
 20
-6.5432
 30
0.0
 10
26.38072
 20
-6.61316
 30
0.0
 10
26.46703
 20
-6.61316
 30
0.0
 10
26.55333
 20
-6.61316
 30
0.0
 10
26.62329
 20
-6.5432
 30
0.0
 10
26.62329
 20
-6.45689
 30
0.0
 10
26.62329
 20
-6.37059
 30
0.0
 10
26.55333
 20
-6.30063
 30
0.0
 10
26.46703
 20
-6.30063
 30
0.0
  0
SPLINE
  5
84
330
1F
100
AcDbEntity
  8
layer 1
 62
   250
370
     9
100
AcDbSpline
210
0.0
220
0.0
230
1.0
 70
    11
 71
     3
 72
    17
 73
    13
 74
     0
 42
0.0000000001
 43
0.0000000001
 40
0.0
 40
0.0
 40
0.0
 40
0.0
 40
0.25
 40
0.25
 40
0.25
 40
0.5
 40
0.5
 40
0.5
 40
0.75
 40
0.75
 40
0.75
 40
1.0
 40
1.0
 40
1.0
 40
1.0
 10
22.43318
 20
-8.97879
 30
0.0
 10
22.51949
 20
-8.97879
 30
0.0
 10
22.58945
 20
-9.04875
 30
0.0
 10
22.58945
 20
-9.13506
 30
0.0
 10
22.58945
 20
-9.22136
 30
0.0
 10
22.51949
 20
-9.29132
 30
0.0
 10
22.43318
 20
-9.29132
 30
0.0
 10
22.34688
 20
-9.29132
 30
0.0
 10
22.27691
 20
-9.22136
 30
0.0
 10
22.27691
 20
-9.13506
 30
0.0
 10
22.27691
 20
-9.04875
 30
0.0
 10
22.34688
 20
-8.97879
 30
0.0
 10
22.43318
 20
-8.97879
 30
0.0
  0
SPLINE
  5
85
330
1F
100
AcDbEntity
  8
layer 1
 62
   250
370
     9
100
AcDbSpline
210
0.0
220
0.0
230
1.0
 70
    11
 71
     3
 72
    17
 73
    13
 74
     0
 42
0.0000000001
 43
0.0000000001
 40
0.0
 40
0.0
 40
0.0
 40
0.0
 40
0.25
 40
0.25
 40
0.25
 40
0.5
 40
0.5
 40
0.5
 40
0.75
 40
0.75
 40
0.75
 40
1.0
 40
1.0
 40
1.0
 40
1.0
 10
24.38652
 20
-8.97879
 30
0.0
 10
24.30021
 20
-8.97879
 30
0.0
 10
24.23026
 20
-9.04875
 30
0.0
 10
24.23026
 20
-9.13506
 30
0.0
 10
24.23026
 20
-9.22136
 30
0.0
 10
24.30021
 20
-9.29132
 30
0.0
 10
24.38652
 20
-9.29132
 30
0.0
 10
24.47282
 20
-9.29132
 30
0.0
 10
24.54278
 20
-9.22136
 30
0.0
 10
24.54278
 20
-9.13506
 30
0.0
 10
24.54278
 20
-9.04875
 30
0.0
 10
24.47282
 20
-8.97879
 30
0.0
 10
24.38652
 20
-8.97879
 30
0.0
  0
SPLINE
  5
86
330
1F
100
AcDbEntity
  8
layer 1
 62
   250
370
     9
100
AcDbSpline
210
0.0
220
0.0
230
1.0
 70
    11
 71
     3
 72
    29
 73
    25
 74
     0
 42
0.0000000001
 43
0.0000000001
 40
0.0
 40
0.0
 40
0.0
 40
0.0
 40
0.125
 40
0.125
 40
0.125
 40
0.25
 40
0.25
 40
0.25
 40
0.375
 40
0.375
 40
0.375
 40
0.5
 40
0.5
 40
0.5
 40
0.625
 40
0.625
 40
0.625
 40
0.75
 40
0.75
 40
0.75
 40
0.875
 40
0.875
 40
0.875
 40
1.0
 40
1.0
 40
1.0
 40
1.0
 10
10.45701
 20
-1.13459
 30
0.0
 10
10.45701
 20
-1.13459
 30
0.0
 10
12.19485
 20
-1.13459
 30
0.0
 10
12.19485
 20
-1.13459
 30
0.0
 10
12.26635
 20
-1.13459
 30
0.0
 10
12.32485
 20
-1.18148
 30
0.0
 10
12.32485
 20
-1.2388
 30
0.0
 10
12.32485
 20
-1.2388
 30
0.0
 10
12.32485
 20
-7.33039
 30
0.0
 10
12.32485
 20
-7.33039
 30
0.0
 10
12.32485
 20
-7.3877
 30
0.0
 10
12.26635
 20
-7.43459
 30
0.0
 10
12.19485
 20
-7.43459
 30
0.0
 10
12.19485
 20
-7.43459
 30
0.0
 10
10.45701
 20
-7.43459
 30
0.0
 10
10.45701
 20
-7.43459
 30
0.0
 10
10.38551
 20
-7.43459
 30
0.0
 10
10.32701
 20
-7.3877
 30
0.0
 10
10.32701
 20
-7.33039
 30
0.0
 10
10.32701
 20
-7.33039
 30
0.0
 10
10.32701
 20
-1.2388
 30
0.0
 10
10.32701
 20
-1.2388
 30
0.0
 10
10.32701
 20
-1.18148
 30
0.0
 10
10.38551
 20
-1.13459
 30
0.0
 10
10.45701
 20
-1.13459
 30
0.0
  0
ELLIPSE
  5
87
330
1F
100
AcDbEntity
  8
layer 1
 62
   114
370
     9
100
AcDbEllipse
 10
10.8872
 20
-1.47478
 30
0.0
 11
0.0
 21
0.15655
 31
0.0
210
0.0
220
0.0
230
1.0
 40
1.0
 41
0.0
 42
6.283185307179586
  0
SPLINE
  5
88
330
1F
100
AcDbEntity
  8
layer 1
 62
   114
370
     9
100
AcDbSpline
210
0.0
220
0.0
230
1.0
 70
    24
 71
     3
 72
     8
 73
     4
 74
     0
 42
0.0000000001
 43
0.0000000001
 40
0.0
 40
0.0
 40
0.0
 40
0.0
 40
1.0
 40
1.0
 40
1.0
 40
1.0
 10
10.75431
 20
-1.55756
 30
0.0
 10
10.75431
 20
-1.55756
 30
0.0
 10
11.00432
 20
-1.37091
 30
0.0
 10
11.00432
 20
-1.37091
 30
0.0
  0
SPLINE
  5
89
330
1F
100
AcDbEntity
  8
layer 1
 62
   114
370
     9
100
AcDbSpline
210
0.0
220
0.0
230
1.0
 70
    11
 71
     3
 72
    17
 73
    13
 74
     0
 42
0.0000000001
 43
0.0000000001
 40
0.0
 40
0.0
 40
0.0
 40
0.0
 40
0.25
 40
0.25
 40
0.25
 40
0.5
 40
0.5
 40
0.5
 40
0.75
 40
0.75
 40
0.75
 40
1.0
 40
1.0
 40
1.0
 40
1.0
 10
11.6985
 20
-2.15305
 30
0.0
 10
11.77685
 20
-2.11652
 30
0.0
 10
11.87
 20
-2.15042
 30
0.0
 10
11.90653
 20
-2.22877
 30
0.0
 10
11.94307
 20
-2.30713
 30
0.0
 10
11.90917
 20
-2.40027
 30
0.0
 10
11.83082
 20
-2.43681
 30
0.0
 10
11.75246
 20
-2.47335
 30
0.0
 10
11.65932
 20
-2.43945
 30
0.0
 10
11.62278
 20
-2.36109
 30
0.0
 10
11.58624
 20
-2.28273
 30
0.0
 10
11.62014
 20
-2.18959
 30
0.0
 10
11.6985
 20
-2.15305
 30
0.0
  0
SPLINE
  5
8A
330
1F
100
AcDbEntity
  8
layer 1
 62
   114
370
     9
100
AcDbSpline
210
0.0
220
0.0
230
1.0
 70
    24
 71
     3
 72
     8
 73
     4
 74
     0
 42
0.0000000001
 43
0.0000000001
 40
0.0
 40
0.0
 40
0.0
 40
0.0
 40
1.0
 40
1.0
 40
1.0
 40
1.0
 10
11.67921
 20
-2.42612
 30
0.0
 10
11.67921
 20
-2.42612
 30
0.0
 10
11.82691
 20
-2.1513
 30
0.0
 10
11.82691
 20
-2.1513
 30
0.0
  0
ELLIPSE
  5
8B
330
1F
100
AcDbEntity
  8
layer 1
 62
   114
370
     9
100
AcDbEllipse
 10
10.8872
 20
-3.5245
 30
0.0
 11
0.0
 21
0.15655
 31
0.0
210
0.0
220
0.0
230
1.0
 40
1.0
 41
0.0
 42
6.283185307179586
  0
SPLINE
  5
8C
330
1F
100
AcDbEntity
  8
layer 1
 62
   114
370
     9
100
AcDbSpline
210
0.0
220
0.0
230
1.0
 70
    24
 71
     3
 72
     8
 73
     4
 74
     0
 42
0.0000000001
 43
0.0000000001
 40
0.0
 40
0.0
 40
0.0
 40
0.0
 40
1.0
 40
1.0
 40
1.0
 40
1.0
 10
10.75431
 20
-3.60728
 30
0.0
 10
10.75431
 20
-3.60728
 30
0.0
 10
11.00432
 20
-3.42063
 30
0.0
 10
11.00432
 20
-3.42063
 30
0.0
  0
SPLINE
  5
8D
330
1F
100
AcDbEntity
  8
layer 1
 62
   114
370
     9
100
AcDbSpline
210
0.0
220
0.0
230
1.0
 70
    11
 71
     3
 72
    17
 73
    13
 74
     0
 42
0.0000000001
 43
0.0000000001
 40
0.0
 40
0.0
 40
0.0
 40
0.0
 40
0.25
 40
0.25
 40
0.25
 40
0.5
 40
0.5
 40
0.5
 40
0.75
 40
0.75
 40
0.75
 40
1.0
 40
1.0
 40
1.0
 40
1.0
 10
11.63642
 20
-4.25486
 30
0.0
 10
11.68601
 20
-4.18404
 30
0.0
 10
11.78363
 20
-4.16683
 30
0.0
 10
11.85445
 20
-4.21641
 30
0.0
 10
11.92527
 20
-4.266
 30
0.0
 10
11.94248
 20
-4.36362
 30
0.0
 10
11.89289
 20
-4.43444
 30
0.0
 10
11.8433
 20
-4.50526
 30
0.0
 10
11.74569
 20
-4.52247
 30
0.0
 10
11.67487
 20
-4.47288
 30
0.0
 10
11.60405
 20
-4.42329
 30
0.0
 10
11.58683
 20
-4.32568
 30
0.0
 10
11.63642
 20
-4.25486
 30
0.0
  0
SPLINE
  5
8E
330
1F
100
AcDbEntity
  8
layer 1
 62
   114
370
     9
100
AcDbSpline
210
0.0
220
0.0
230
1.0
 70
    24
 71
     3
 72
     8
 73
     4
 74
     0
 42
0.0000000001
 43
0.0000000001
 40
0.0
 40
0.0
 40
0.0
 40
0.0
 40
1.0
 40
1.0
 40
1.0
 40
1.0
 10
11.75625
 20
-4.50099
 30
0.0
 10
11.75625
 20
-4.50099
 30
0.0
 10
11.74676
 20
-4.18913
 30
0.0
 10
11.74676
 20
-4.18913
 30
0.0
  0
SPLINE
  5
8F
330
1F
100
AcDbEntity
  8
layer 1
 62
   114
370
     9
100
AcDbSpline
210
0.0
220
0.0
230
1.0
 70
    11
 71
     3
 72
    17
 73
    13
 74
     0
 42
0.0000000001
 43
0.0000000001
 40
0.0
 40
0.0
 40
0.0
 40
0.0
 40
0.25
 40
0.25
 40
0.25
 40
0.5
 40
0.5
 40
0.5
 40
0.75
 40
0.75
 40
0.75
 40
1.0
 40
1.0
 40
1.0
 40
1.0
 10
10.73065
 20
-5.94623
 30
0.0
 10
10.73065
 20
-5.85977
 30
0.0
 10
10.80074
 20
-5.78969
 30
0.0
 10
10.8872
 20
-5.78969
 30
0.0
 10
10.97365
 20
-5.78969
 30
0.0
 10
11.04374
 20
-5.85977
 30
0.0
 10
11.04374
 20
-5.94623
 30
0.0
 10
11.04374
 20
-6.03269
 30
0.0
 10
10.97365
 20
-6.10278
 30
0.0
 10
10.8872
 20
-6.10278
 30
0.0
 10
10.80074
 20
-6.10278
 30
0.0
 10
10.73065
 20
-6.03269
 30
0.0
 10
10.73065
 20
-5.94623
 30
0.0
  0
SPLINE
  5
90
330
1F
100
AcDbEntity
  8
layer 1
 62
   114
370
     9
100
AcDbSpline
210
0.0
220
0.0
230
1.0
 70
    24
 71
     3
 72
     8
 73
     4
 74
     0
 42
0.0000000001
 43
0.0000000001
 40
0.0
 40
0.0
 40
0.0
 40
0.0
 40
1.0
 40
1.0
 40
1.0
 40
1.0
 10
10.75431
 20
-6.02902
 30
0.0
 10
10.75431
 20
-6.02902
 30
0.0
 10
11.00432
 20
-5.84237
 30
0.0
 10
11.00432
 20
-5.84237
 30
0.0
  0
SPLINE
  5
91
330
1F
100
AcDbEntity
  8
layer 1
 62
   114
370
     9
100
AcDbSpline
210
0.0
220
0.0
230
1.0
 70
    11
 71
     3
 72
    17
 73
    13
 74
     0
 42
0.0000000001
 43
0.0000000001
 40
0.0
 40
0.0
 40
0.0
 40
0.0
 40
0.25
 40
0.25
 40
0.25
 40
0.5
 40
0.5
 40
0.5
 40
0.75
 40
0.75
 40
0.75
 40
1.0
 40
1.0
 40
1.0
 40
1.0
 10
11.66403
 20
-6.64647
 30
0.0
 10
11.73026
 20
-6.5909
 30
0.0
 10
11.829
 20
-6.59954
 30
0.0
 10
11.88458
 20
-6.66577
 30
0.0
 10
11.94015
 20
-6.732
 30
0.0
 10
11.93151
 20
-6.83074
 30
0.0
 10
11.86528
 20
-6.88631
 30
0.0
 10
11.79905
 20
-6.94188
 30
0.0
 10
11.70031
 20
-6.93325
 30
0.0
 10
11.64474
 20
-6.86702
 30
0.0
 10
11.58916
 20
-6.80079
 30
0.0
 10
11.5978
 20
-6.70204
 30
0.0
 10
11.66403
 20
-6.64647
 30
0.0
  0
SPLINE
  5
92
330
1F
100
AcDbEntity
  8
layer 1
 62
   114
370
     9
100
AcDbSpline
210
0.0
220
0.0
230
1.0
 70
    24
 71
     3
 72
     8
 73
     4
 74
     0
 42
0.0000000001
 43
0.0000000001
 40
0.0
 40
0.0
 40
0.0
 40
0.0
 40
1.0
 40
1.0
 40
1.0
 40
1.0
 10
11.71607
 20
-6.91522
 30
0.0
 10
11.71607
 20
-6.91522
 30
0.0
 10
11.78762
 20
-6.61154
 30
0.0
 10
11.78762
 20
-6.61154
 30
0.0
  0
SPLINE
  5
93
330
1F
100
AcDbEntity
  8
layer 1
 62
   250
370
     9
100
AcDbSpline
210
0.0
220
0.0
230
1.0
 70
     8
 71
     3
 72
    44
 73
    40
 74
     0
 42
0.0000000001
 43
0.0000000001
 40
0.0
 40
0.0
 40
0.0
 40
0.0
 40
0.0769230769230769
 40
0.0769230769230769
 40
0.0769230769230769
 40
0.1538461538461539
 40
0.1538461538461539
 40
0.1538461538461539
 40
0.2307692307692308
 40
0.2307692307692308
 40
0.2307692307692308
 40
0.3076923076923077
 40
0.3076923076923077
 40
0.3076923076923077
 40
0.3846153846153846
 40
0.3846153846153846
 40
0.3846153846153846
 40
0.4615384615384616
 40
0.4615384615384616
 40
0.4615384615384616
 40
0.5384615384615385
 40
0.5384615384615385
 40
0.5384615384615385
 40
0.6153846153846154
 40
0.6153846153846154
 40
0.6153846153846154
 40
0.6923076923076923
 40
0.6923076923076923
 40
0.6923076923076923
 40
0.7692307692307693
 40
0.7692307692307693
 40
0.7692307692307693
 40
0.8461538461538463
 40
0.8461538461538463
 40
0.8461538461538463
 40
0.9230769230769231
 40
0.9230769230769231
 40
0.9230769230769231
 40
1.0
 40
1.0
 40
1.0
 40
1.0
 10
4.87463
 20
-7.24015
 30
0.0
 10
4.87463
 20
-7.24015
 30
0.0
 10
4.87463
 20
-4.88401
 30
0.0
 10
4.87463
 20
-4.88401
 30
0.0
 10
4.87463
 20
-4.88401
 30
0.0
 10
4.4767
 20
-4.88401
 30
0.0
 10
4.4767
 20
-4.88401
 30
0.0
 10
4.4767
 20
-4.88401
 30
0.0
 10
4.4767
 20
-2.60588
 30
0.0
 10
4.4767
 20
-2.60588
 30
0.0
 10
4.4767
 20
-2.60588
 30
0.0
 10
4.87463
 20
-2.60588
 30
0.0
 10
4.87463
 20
-2.60588
 30
0.0
 10
4.87463
 20
-2.60588
 30
0.0
 10
4.87463
 20
-0.23821
 30
0.0
 10
4.87463
 20
-0.23821
 30
0.0
 10
4.87463
 20
-0.23821
 30
0.0
 10
-10.11983
 20
-0.23821
 30
0.0
 10
-10.11983
 20
-0.23821
 30
0.0
 10
-10.11983
 20
-0.23821
 30
0.0
 10
-10.11983
 20
-2.60588
 30
0.0
 10
-10.11983
 20
-2.60588
 30
0.0
 10
-10.11983
 20
-2.60588
 30
0.0
 10
-9.7219
 20
-2.60588
 30
0.0
 10
-9.7219
 20
-2.60588
 30
0.0
 10
-9.7219
 20
-2.60588
 30
0.0
 10
-9.7219
 20
-4.88401
 30
0.0
 10
-9.7219
 20
-4.88401
 30
0.0
 10
-9.7219
 20
-4.88401
 30
0.0
 10
-10.11983
 20
-4.88401
 30
0.0
 10
-10.11983
 20
-4.88401
 30
0.0
 10
-10.11983
 20
-4.88401
 30
0.0
 10
-10.11983
 20
-7.52039
 30
0.0
 10
-10.11983
 20
-7.52039
 30
0.0
 10
-10.11983
 20
-7.79653
 30
0.0
 10
-9.89598
 20
-8.02039
 30
0.0
 10
-9.61983
 20
-8.02039
 30
0.0
 10
-9.34368
 20
-8.02039
 30
0.0
 10
-9.11983
 20
-7.79653
 30
0.0
 10
-9.11983
 20
-7.52039
 30
0.0
  0
SPLINE
  5
94
330
1F
100
AcDbEntity
  8
layer 1
 62
   250
370
     9
100
AcDbSpline
210
0.0
220
0.0
230
1.0
 70
    11
 71
     3
 72
    17
 73
    13
 74
     0
 42
0.0000000001
 43
0.0000000001
 40
0.0
 40
0.0
 40
0.0
 40
0.0
 40
0.25
 40
0.25
 40
0.25
 40
0.5
 40
0.5
 40
0.5
 40
0.75
 40
0.75
 40
0.75
 40
1.0
 40
1.0
 40
1.0
 40
1.0
 10
-9.62274
 20
-1.03821
 30
0.0
 10
-9.62274
 20
-1.03821
 30
0.0
 10
-7.6227
 20
-1.03821
 30
0.0
 10
-7.6227
 20
-1.03821
 30
0.0
 10
-7.6227
 20
-1.03821
 30
0.0
 10
-7.6227
 20
-0.63821
 30
0.0
 10
-7.6227
 20
-0.63821
 30
0.0
 10
-7.6227
 20
-0.63821
 30
0.0
 10
-9.62274
 20
-0.63821
 30
0.0
 10
-9.62274
 20
-0.63821
 30
0.0
 10
-9.62274
 20
-0.63821
 30
0.0
 10
-9.62274
 20
-1.03821
 30
0.0
 10
-9.62274
 20
-1.03821
 30
0.0
  0
SPLINE
  5
95
330
1F
100
AcDbEntity
  8
layer 1
 62
   250
370
     9
100
AcDbSpline
210
0.0
220
0.0
230
1.0
 70
    11
 71
     3
 72
    17
 73
    13
 74
     0
 42
0.0000000001
 43
0.0000000001
 40
0.0
 40
0.0
 40
0.0
 40
0.0
 40
0.25
 40
0.25
 40
0.25
 40
0.5
 40
0.5
 40
0.5
 40
0.75
 40
0.75
 40
0.75
 40
1.0
 40
1.0
 40
1.0
 40
1.0
 10
-5.62266
 20
-1.03821
 30
0.0
 10
-5.62266
 20
-1.03821
 30
0.0
 10
-3.62262
 20
-1.03821
 30
0.0
 10
-3.62262
 20
-1.03821
 30
0.0
 10
-3.62262
 20
-1.03821
 30
0.0
 10
-3.62262
 20
-0.63821
 30
0.0
 10
-3.62262
 20
-0.63821
 30
0.0
 10
-3.62262
 20
-0.63821
 30
0.0
 10
-5.62266
 20
-0.63821
 30
0.0
 10
-5.62266
 20
-0.63821
 30
0.0
 10
-5.62266
 20
-0.63821
 30
0.0
 10
-5.62266
 20
-1.03821
 30
0.0
 10
-5.62266
 20
-1.03821
 30
0.0
  0
SPLINE
  5
96
330
1F
100
AcDbEntity
  8
layer 1
 62
   250
370
     9
100
AcDbSpline
210
0.0
220
0.0
230
1.0
 70
    11
 71
     3
 72
    17
 73
    13
 74
     0
 42
0.0000000001
 43
0.0000000001
 40
0.0
 40
0.0
 40
0.0
 40
0.0
 40
0.25
 40
0.25
 40
0.25
 40
0.5
 40
0.5
 40
0.5
 40
0.75
 40
0.75
 40
0.75
 40
1.0
 40
1.0
 40
1.0
 40
1.0
 10
-1.62258
 20
-1.03821
 30
0.0
 10
-1.62258
 20
-1.03821
 30
0.0
 10
0.37746
 20
-1.03821
 30
0.0
 10
0.37746
 20
-1.03821
 30
0.0
 10
0.37746
 20
-1.03821
 30
0.0
 10
0.37746
 20
-0.63821
 30
0.0
 10
0.37746
 20
-0.63821
 30
0.0
 10
0.37746
 20
-0.63821
 30
0.0
 10
-1.62258
 20
-0.63821
 30
0.0
 10
-1.62258
 20
-0.63821
 30
0.0
 10
-1.62258
 20
-0.63821
 30
0.0
 10
-1.62258
 20
-1.03821
 30
0.0
 10
-1.62258
 20
-1.03821
 30
0.0
  0
SPLINE
  5
97
330
1F
100
AcDbEntity
  8
layer 1
 62
   250
370
     9
100
AcDbSpline
210
0.0
220
0.0
230
1.0
 70
    11
 71
     3
 72
    17
 73
    13
 74
     0
 42
0.0000000001
 43
0.0000000001
 40
0.0
 40
0.0
 40
0.0
 40
0.0
 40
0.25
 40
0.25
 40
0.25
 40
0.5
 40
0.5
 40
0.5
 40
0.75
 40
0.75
 40
0.75
 40
1.0
 40
1.0
 40
1.0
 40
1.0
 10
2.3775
 20
-1.03821
 30
0.0
 10
2.3775
 20
-1.03821
 30
0.0
 10
4.37754
 20
-1.03821
 30
0.0
 10
4.37754
 20
-1.03821
 30
0.0
 10
4.37754
 20
-1.03821
 30
0.0
 10
4.37754
 20
-0.63821
 30
0.0
 10
4.37754
 20
-0.63821
 30
0.0
 10
4.37754
 20
-0.63821
 30
0.0
 10
2.3775
 20
-0.63821
 30
0.0
 10
2.3775
 20
-0.63821
 30
0.0
 10
2.3775
 20
-0.63821
 30
0.0
 10
2.3775
 20
-1.03821
 30
0.0
 10
2.3775
 20
-1.03821
 30
0.0
  0
SPLINE
  5
98
330
1F
100
AcDbEntity
  8
layer 1
 62
   250
370
     9
100
AcDbSpline
210
0.0
220
0.0
230
1.0
 70
    11
 71
     3
 72
    17
 73
    13
 74
     0
 42
0.0000000001
 43
0.0000000001
 40
0.0
 40
0.0
 40
0.0
 40
0.0
 40
0.25
 40
0.25
 40
0.25
 40
0.5
 40
0.5
 40
0.5
 40
0.75
 40
0.75
 40
0.75
 40
1.0
 40
1.0
 40
1.0
 40
1.0
 10
-8.36723
 20
-2.58049
 30
0.0
 10
-8.36723
 20
-2.58049
 30
0.0
 10
3.11356
 20
-2.58049
 30
0.0
 10
3.11356
 20
-2.58049
 30
0.0
 10
3.11356
 20
-2.58049
 30
0.0
 10
3.11356
 20
-2.37095
 30
0.0
 10
3.11356
 20
-2.37095
 30
0.0
 10
3.11356
 20
-2.37095
 30
0.0
 10
-8.36723
 20
-2.37095
 30
0.0
 10
-8.36723
 20
-2.37095
 30
0.0
 10
-8.36723
 20
-2.37095
 30
0.0
 10
-8.36723
 20
-2.58049
 30
0.0
 10
-8.36723
 20
-2.58049
 30
0.0
  0
SPLINE
  5
99
330
1F
100
AcDbEntity
  8
layer 1
 62
   250
370
     9
100
AcDbSpline
210
0.0
220
0.0
230
1.0
 70
    11
 71
     3
 72
    17
 73
    13
 74
     0
 42
0.0000000001
 43
0.0000000001
 40
0.0
 40
0.0
 40
0.0
 40
0.0
 40
0.25
 40
0.25
 40
0.25
 40
0.5
 40
0.5
 40
0.5
 40
0.75
 40
0.75
 40
0.75
 40
1.0
 40
1.0
 40
1.0
 40
1.0
 10
-8.36723
 20
-5.11815
 30
0.0
 10
-8.36723
 20
-5.11815
 30
0.0
 10
3.11356
 20
-5.11815
 30
0.0
 10
3.11356
 20
-5.11815
 30
0.0
 10
3.11356
 20
-5.11815
 30
0.0
 10
3.11356
 20
-4.85861
 30
0.0
 10
3.11356
 20
-4.85861
 30
0.0
 10
3.11356
 20
-4.85861
 30
0.0
 10
-8.36723
 20
-4.85861
 30
0.0
 10
-8.36723
 20
-4.85861
 30
0.0
 10
-8.36723
 20
-4.85861
 30
0.0
 10
-8.36723
 20
-5.11815
 30
0.0
 10
-8.36723
 20
-5.11815
 30
0.0
  0
SPLINE
  5
9A
330
1F
100
AcDbEntity
  8
layer 1
 62
   250
370
     9
100
AcDbSpline
210
0.0
220
0.0
230
1.0
 70
    11
 71
     3
 72
    17
 73
    13
 74
     0
 42
0.0000000001
 43
0.0000000001
 40
0.0
 40
0.0
 40
0.0
 40
0.0
 40
0.25
 40
0.25
 40
0.25
 40
0.5
 40
0.5
 40
0.5
 40
0.75
 40
0.75
 40
0.75
 40
1.0
 40
1.0
 40
1.0
 40
1.0
 10
-9.61983
 20
-7.79539
 30
0.0
 10
-9.46795
 20
-7.79539
 30
0.0
 10
-9.34483
 20
-7.67227
 30
0.0
 10
-9.34483
 20
-7.52039
 30
0.0
 10
-9.34483
 20
-7.36851
 30
0.0
 10
-9.46795
 20
-7.24539
 30
0.0
 10
-9.61983
 20
-7.24539
 30
0.0
 10
-9.77171
 20
-7.24539
 30
0.0
 10
-9.89483
 20
-7.36851
 30
0.0
 10
-9.89483
 20
-7.52039
 30
0.0
 10
-9.89483
 20
-7.67227
 30
0.0
 10
-9.77171
 20
-7.79539
 30
0.0
 10
-9.61983
 20
-7.79539
 30
0.0
  0
SPLINE
  5
9B
330
1F
100
AcDbEntity
  8
layer 1
 62
   250
370
     9
100
AcDbSpline
210
0.0
220
0.0
230
1.0
 70
    11
 71
     3
 72
   113
 73
   109
 74
     0
 42
0.0000000001
 43
0.0000000001
 40
0.0
 40
0.0
 40
0.0
 40
0.0
 40
0.0277777777777778
 40
0.0277777777777778
 40
0.0277777777777778
 40
0.0555555555555556
 40
0.0555555555555556
 40
0.0555555555555556
 40
0.0833333333333333
 40
0.0833333333333333
 40
0.0833333333333333
 40
0.1111111111111111
 40
0.1111111111111111
 40
0.1111111111111111
 40
0.1388888888888889
 40
0.1388888888888889
 40
0.1388888888888889
 40
0.1666666666666667
 40
0.1666666666666667
 40
0.1666666666666667
 40
0.1944444444444444
 40
0.1944444444444444
 40
0.1944444444444444
 40
0.2222222222222222
 40
0.2222222222222222
 40
0.2222222222222222
 40
0.25
 40
0.25
 40
0.25
 40
0.2777777777777778
 40
0.2777777777777778
 40
0.2777777777777778
 40
0.3055555555555555
 40
0.3055555555555555
 40
0.3055555555555555
 40
0.3333333333333333
 40
0.3333333333333333
 40
0.3333333333333333
 40
0.3611111111111111
 40
0.3611111111111111
 40
0.3611111111111111
 40
0.3888888888888888
 40
0.3888888888888888
 40
0.3888888888888888
 40
0.4166666666666666
 40
0.4166666666666666
 40
0.4166666666666666
 40
0.4444444444444444
 40
0.4444444444444444
 40
0.4444444444444444
 40
0.4722222222222222
 40
0.4722222222222222
 40
0.4722222222222222
 40
0.5
 40
0.5
 40
0.5
 40
0.5277777777777778
 40
0.5277777777777778
 40
0.5277777777777778
 40
0.5555555555555556
 40
0.5555555555555556
 40
0.5555555555555556
 40
0.5833333333333333
 40
0.5833333333333333
 40
0.5833333333333333
 40
0.611111111111111
 40
0.611111111111111
 40
0.611111111111111
 40
0.6388888888888888
 40
0.6388888888888888
 40
0.6388888888888888
 40
0.6666666666666666
 40
0.6666666666666666
 40
0.6666666666666666
 40
0.6944444444444444
 40
0.6944444444444444
 40
0.6944444444444444
 40
0.7222222222222222
 40
0.7222222222222222
 40
0.7222222222222222
 40
0.75
 40
0.75
 40
0.75
 40
0.7777777777777777
 40
0.7777777777777777
 40
0.7777777777777777
 40
0.8055555555555555
 40
0.8055555555555555
 40
0.8055555555555555
 40
0.8333333333333333
 40
0.8333333333333333
 40
0.8333333333333333
 40
0.861111111111111
 40
0.861111111111111
 40
0.861111111111111
 40
0.8888888888888888
 40
0.8888888888888888
 40
0.8888888888888888
 40
0.9166666666666666
 40
0.9166666666666666
 40
0.9166666666666666
 40
0.9444444444444444
 40
0.9444444444444444
 40
0.9444444444444444
 40
0.9722222222222222
 40
0.9722222222222222
 40
0.9722222222222222
 40
1.0
 40
1.0
 40
1.0
 40
1.0
 10
-10.39151
 20
0.15372
 30
0.0
 10
-10.39151
 20
0.15372
 30
0.0
 10
-10.39151
 20
2.15376
 30
0.0
 10
-10.39151
 20
2.15376
 30
0.0
 10
-10.39151
 20
2.15376
 30
0.0
 10
-9.99152
 20
2.15376
 30
0.0
 10
-9.99152
 20
2.15376
 30
0.0
 10
-9.99152
 20
2.15376
 30
0.0
 10
-9.99152
 20
4.1538
 30
0.0
 10
-9.99152
 20
4.1538
 30
0.0
 10
-9.99152
 20
4.1538
 30
0.0
 10
-10.39151
 20
4.1538
 30
0.0
 10
-10.39151
 20
4.1538
 30
0.0
 10
-10.39151
 20
4.1538
 30
0.0
 10
-10.39151
 20
6.15384
 30
0.0
 10
-10.39151
 20
6.15384
 30
0.0
 10
-10.39151
 20
6.15384
 30
0.0
 10
-9.99152
 20
6.15384
 30
0.0
 10
-9.99152
 20
6.15384
 30
0.0
 10
-9.99152
 20
6.15384
 30
0.0
 10
-9.99152
 20
8.15388
 30
0.0
 10
-9.99152
 20
8.15388
 30
0.0
 10
-9.99152
 20
8.15388
 30
0.0
 10
-10.39151
 20
8.15388
 30
0.0
 10
-10.39151
 20
8.15388
 30
0.0
 10
-10.39151
 20
8.15388
 30
0.0
 10
-10.39151
 20
10.15392
 30
0.0
 10
-10.39151
 20
10.15392
 30
0.0
 10
-10.39151
 20
10.15392
 30
0.0
 10
-9.99152
 20
10.15392
 30
0.0
 10
-9.99152
 20
10.15392
 30
0.0
 10
-9.99152
 20
10.15392
 30
0.0
 10
-9.99152
 20
12.15396
 30
0.0
 10
-9.99152
 20
12.15396
 30
0.0
 10
-9.99152
 20
12.15396
 30
0.0
 10
-10.39151
 20
12.15396
 30
0.0
 10
-10.39151
 20
12.15396
 30
0.0
 10
-10.39151
 20
12.15396
 30
0.0
 10
-10.39151
 20
14.154
 30
0.0
 10
-10.39151
 20
14.154
 30
0.0
 10
-10.39151
 20
14.154
 30
0.0
 10
-9.99152
 20
14.154
 30
0.0
 10
-9.99152
 20
14.154
 30
0.0
 10
-9.99152
 20
14.154
 30
0.0
 10
-9.99152
 20
14.24227
 30
0.0
 10
-9.99152
 20
14.24227
 30
0.0
 10
-9.99152
 20
14.24227
 30
0.0
 10
13.00848
 20
14.24227
 30
0.0
 10
13.00848
 20
14.24227
 30
0.0
 10
13.00848
 20
14.24227
 30
0.0
 10
13.00848
 20
14.154
 30
0.0
 10
13.00848
 20
14.154
 30
0.0
 10
13.00848
 20
14.154
 30
0.0
 10
13.40849
 20
14.154
 30
0.0
 10
13.40849
 20
14.154
 30
0.0
 10
13.40849
 20
14.154
 30
0.0
 10
13.40849
 20
12.15396
 30
0.0
 10
13.40849
 20
12.15396
 30
0.0
 10
13.40849
 20
12.15396
 30
0.0
 10
13.00848
 20
12.15396
 30
0.0
 10
13.00848
 20
12.15396
 30
0.0
 10
13.00848
 20
12.15396
 30
0.0
 10
13.00848
 20
10.15392
 30
0.0
 10
13.00848
 20
10.15392
 30
0.0
 10
13.00848
 20
10.15392
 30
0.0
 10
13.40849
 20
10.15392
 30
0.0
 10
13.40849
 20
10.15392
 30
0.0
 10
13.40849
 20
10.15392
 30
0.0
 10
13.40849
 20
8.15388
 30
0.0
 10
13.40849
 20
8.15388
 30
0.0
 10
13.40849
 20
8.15388
 30
0.0
 10
13.00848
 20
8.15388
 30
0.0
 10
13.00848
 20
8.15388
 30
0.0
 10
13.00848
 20
8.15388
 30
0.0
 10
13.00848
 20
6.15384
 30
0.0
 10
13.00848
 20
6.15384
 30
0.0
 10
13.00848
 20
6.15384
 30
0.0
 10
13.40849
 20
6.15384
 30
0.0
 10
13.40849
 20
6.15384
 30
0.0
 10
13.40849
 20
6.15384
 30
0.0
 10
13.40849
 20
4.1538
 30
0.0
 10
13.40849
 20
4.1538
 30
0.0
 10
13.40849
 20
4.1538
 30
0.0
 10
13.00848
 20
4.1538
 30
0.0
 10
13.00848
 20
4.1538
 30
0.0
 10
13.00848
 20
4.1538
 30
0.0
 10
13.00848
 20
2.15376
 30
0.0
 10
13.00848
 20
2.15376
 30
0.0
 10
13.00848
 20
2.15376
 30
0.0
 10
13.40849
 20
2.15376
 30
0.0
 10
13.40849
 20
2.15376
 30
0.0
 10
13.40849
 20
2.15376
 30
0.0
 10
13.40849
 20
0.15372
 30
0.0
 10
13.40849
 20
0.15372
 30
0.0
 10
13.40849
 20
0.15372
 30
0.0
 10
13.00848
 20
0.15372
 30
0.0
 10
13.00848
 20
0.15372
 30
0.0
 10
13.00848
 20
0.15372
 30
0.0
 10
13.00848
 20
0.06546
 30
0.0
 10
13.00848
 20
0.06546
 30
0.0
 10
13.00848
 20
0.06546
 30
0.0
 10
-9.99152
 20
0.06546
 30
0.0
 10
-9.99152
 20
0.06546
 30
0.0
 10
-9.99152
 20
0.06546
 30
0.0
 10
-9.99152
 20
0.15372
 30
0.0
 10
-9.99152
 20
0.15372
 30
0.0
 10
-9.99152
 20
0.15372
 30
0.0
 10
-10.39151
 20
0.15372
 30
0.0
 10
-10.39151
 20
0.15372
 30
0.0
  0
SPLINE
  5
9C
330
1F
100
AcDbEntity
  8
layer 1
 62
   250
370
     9
100
AcDbSpline
210
0.0
220
0.0
230
1.0
 70
    11
 71
     3
 72
    17
 73
    13
 74
     0
 42
0.0000000001
 43
0.0000000001
 40
0.0
 40
0.0
 40
0.0
 40
0.0
 40
0.25
 40
0.25
 40
0.25
 40
0.5
 40
0.5
 40
0.5
 40
0.75
 40
0.75
 40
0.75
 40
1.0
 40
1.0
 40
1.0
 40
1.0
 10
6.23783
 20
-0.66841
 30
0.0
 10
6.23783
 20
-0.66841
 30
0.0
 10
7.81447
 20
-0.66841
 30
0.0
 10
7.81447
 20
-0.66841
 30
0.0
 10
7.81447
 20
-0.66841
 30
0.0
 10
7.81447
 20
-1.12861
 30
0.0
 10
7.81447
 20
-1.12861
 30
0.0
 10
7.81447
 20
-1.12861
 30
0.0
 10
6.23783
 20
-1.12861
 30
0.0
 10
6.23783
 20
-1.12861
 30
0.0
 10
6.23783
 20
-1.12861
 30
0.0
 10
6.23783
 20
-0.66841
 30
0.0
 10
6.23783
 20
-0.66841
 30
0.0
  0
SPLINE
  5
9D
330
1F
100
AcDbEntity
  8
layer 1
 62
   250
370
     9
100
AcDbSpline
210
0.0
220
0.0
230
1.0
 70
    11
 71
     3
 72
    29
 73
    25
 74
     0
 42
0.0000000001
 43
0.0000000001
 40
0.0
 40
0.0
 40
0.0
 40
0.0
 40
0.125
 40
0.125
 40
0.125
 40
0.25
 40
0.25
 40
0.25
 40
0.375
 40
0.375
 40
0.375
 40
0.5
 40
0.5
 40
0.5
 40
0.625
 40
0.625
 40
0.625
 40
0.75
 40
0.75
 40
0.75
 40
0.875
 40
0.875
 40
0.875
 40
1.0
 40
1.0
 40
1.0
 40
1.0
 10
6.15723
 20
-0.23821
 30
0.0
 10
6.15723
 20
-0.23821
 30
0.0
 10
7.89507
 20
-0.23821
 30
0.0
 10
7.89507
 20
-0.23821
 30
0.0
 10
7.96657
 20
-0.23821
 30
0.0
 10
8.02507
 20
-0.29991
 30
0.0
 10
8.02507
 20
-0.37534
 30
0.0
 10
8.02507
 20
-0.37534
 30
0.0
 10
8.02507
 20
-8.39168
 30
0.0
 10
8.02507
 20
-8.39168
 30
0.0
 10
8.02507
 20
-8.46711
 30
0.0
 10
7.96657
 20
-8.52881
 30
0.0
 10
7.89507
 20
-8.52881
 30
0.0
 10
7.89507
 20
-8.52881
 30
0.0
 10
6.15723
 20
-8.52881
 30
0.0
 10
6.15723
 20
-8.52881
 30
0.0
 10
6.08573
 20
-8.52881
 30
0.0
 10
6.02723
 20
-8.46711
 30
0.0
 10
6.02723
 20
-8.39168
 30
0.0
 10
6.02723
 20
-8.39168
 30
0.0
 10
6.02723
 20
-0.37534
 30
0.0
 10
6.02723
 20
-0.37534
 30
0.0
 10
6.02723
 20
-0.29991
 30
0.0
 10
6.08573
 20
-0.23821
 30
0.0
 10
6.15723
 20
-0.23821
 30
0.0
  0
ELLIPSE
  5
9E
330
1F
100
AcDbEntity
  8
layer 1
 62
   114
370
     9
100
AcDbEllipse
 10
6.58741
 20
-2.2074
 30
0.0
 11
0.0
 21
0.15655
 31
0.0
210
0.0
220
0.0
230
1.0
 40
1.0
 41
0.0
 42
6.283185307179586
  0
SPLINE
  5
9F
330
1F
100
AcDbEntity
  8
layer 1
 62
   114
370
     9
100
AcDbSpline
210
0.0
220
0.0
230
1.0
 70
    24
 71
     3
 72
     8
 73
     4
 74
     0
 42
0.0000000001
 43
0.0000000001
 40
0.0
 40
0.0
 40
0.0
 40
0.0
 40
1.0
 40
1.0
 40
1.0
 40
1.0
 10
6.45452
 20
-2.29018
 30
0.0
 10
6.45452
 20
-2.29018
 30
0.0
 10
6.70453
 20
-2.10353
 30
0.0
 10
6.70453
 20
-2.10353
 30
0.0
  0
SPLINE
  5
A0
330
1F
100
AcDbEntity
  8
layer 1
 62
   114
370
     9
100
AcDbSpline
210
0.0
220
0.0
230
1.0
 70
    11
 71
     3
 72
    17
 73
    13
 74
     0
 42
0.0000000001
 43
0.0000000001
 40
0.0
 40
0.0
 40
0.0
 40
0.0
 40
0.25
 40
0.25
 40
0.25
 40
0.5
 40
0.5
 40
0.5
 40
0.75
 40
0.75
 40
0.75
 40
1.0
 40
1.0
 40
1.0
 40
1.0
 10
7.39871
 20
-2.88567
 30
0.0
 10
7.47706
 20
-2.84914
 30
0.0
 10
7.57021
 20
-2.88304
 30
0.0
 10
7.60674
 20
-2.96139
 30
0.0
 10
7.64328
 20
-3.03975
 30
0.0
 10
7.60938
 20
-3.13289
 30
0.0
 10
7.53103
 20
-3.16943
 30
0.0
 10
7.45267
 20
-3.20597
 30
0.0
 10
7.35953
 20
-3.17207
 30
0.0
 10
7.32299
 20
-3.09371
 30
0.0
 10
7.28645
 20
-3.01535
 30
0.0
 10
7.32035
 20
-2.92221
 30
0.0
 10
7.39871
 20
-2.88567
 30
0.0
  0
SPLINE
  5
A1
330
1F
100
AcDbEntity
  8
layer 1
 62
   114
370
     9
100
AcDbSpline
210
0.0
220
0.0
230
1.0
 70
    24
 71
     3
 72
     8
 73
     4
 74
     0
 42
0.0000000001
 43
0.0000000001
 40
0.0
 40
0.0
 40
0.0
 40
0.0
 40
1.0
 40
1.0
 40
1.0
 40
1.0
 10
7.37942
 20
-3.15874
 30
0.0
 10
7.37942
 20
-3.15874
 30
0.0
 10
7.52712
 20
-2.88392
 30
0.0
 10
7.52712
 20
-2.88392
 30
0.0
  0
ELLIPSE
  5
A2
330
1F
100
AcDbEntity
  8
layer 1
 62
   114
370
     9
100
AcDbEllipse
 10
6.58742
 20
-4.61872
 30
0.0
 11
0.0
 21
0.15655
 31
0.0
210
0.0
220
0.0
230
1.0
 40
1.0
 41
0.0
 42
6.283185307179586
  0
SPLINE
  5
A3
330
1F
100
AcDbEntity
  8
layer 1
 62
   114
370
     9
100
AcDbSpline
210
0.0
220
0.0
230
1.0
 70
    24
 71
     3
 72
     8
 73
     4
 74
     0
 42
0.0000000001
 43
0.0000000001
 40
0.0
 40
0.0
 40
0.0
 40
0.0
 40
1.0
 40
1.0
 40
1.0
 40
1.0
 10
6.45453
 20
-4.7015
 30
0.0
 10
6.45453
 20
-4.7015
 30
0.0
 10
6.70454
 20
-4.51485
 30
0.0
 10
6.70454
 20
-4.51485
 30
0.0
  0
SPLINE
  5
A4
330
1F
100
AcDbEntity
  8
layer 1
 62
   114
370
     9
100
AcDbSpline
210
0.0
220
0.0
230
1.0
 70
    11
 71
     3
 72
    17
 73
    13
 74
     0
 42
0.0000000001
 43
0.0000000001
 40
0.0
 40
0.0
 40
0.0
 40
0.0
 40
0.25
 40
0.25
 40
0.25
 40
0.5
 40
0.5
 40
0.5
 40
0.75
 40
0.75
 40
0.75
 40
1.0
 40
1.0
 40
1.0
 40
1.0
 10
7.33664
 20
-5.34908
 30
0.0
 10
7.38623
 20
-5.27826
 30
0.0
 10
7.48385
 20
-5.26105
 30
0.0
 10
7.55467
 20
-5.31063
 30
0.0
 10
7.62549
 20
-5.36022
 30
0.0
 10
7.6427
 20
-5.45784
 30
0.0
 10
7.59311
 20
-5.52866
 30
0.0
 10
7.54352
 20
-5.59948
 30
0.0
 10
7.44591
 20
-5.61669
 30
0.0
 10
7.37509
 20
-5.5671
 30
0.0
 10
7.30427
 20
-5.51751
 30
0.0
 10
7.28705
 20
-5.4199
 30
0.0
 10
7.33664
 20
-5.34908
 30
0.0
  0
SPLINE
  5
A5
330
1F
100
AcDbEntity
  8
layer 1
 62
   114
370
     9
100
AcDbSpline
210
0.0
220
0.0
230
1.0
 70
    24
 71
     3
 72
     8
 73
     4
 74
     0
 42
0.0000000001
 43
0.0000000001
 40
0.0
 40
0.0
 40
0.0
 40
0.0
 40
1.0
 40
1.0
 40
1.0
 40
1.0
 10
7.45647
 20
-5.59521
 30
0.0
 10
7.45647
 20
-5.59521
 30
0.0
 10
7.44698
 20
-5.28335
 30
0.0
 10
7.44698
 20
-5.28335
 30
0.0
  0
SPLINE
  5
A6
330
1F
100
AcDbEntity
  8
layer 1
 62
   114
370
     9
100
AcDbSpline
210
0.0
220
0.0
230
1.0
 70
    11
 71
     3
 72
    17
 73
    13
 74
     0
 42
0.0000000001
 43
0.0000000001
 40
0.0
 40
0.0
 40
0.0
 40
0.0
 40
0.25
 40
0.25
 40
0.25
 40
0.5
 40
0.5
 40
0.5
 40
0.75
 40
0.75
 40
0.75
 40
1.0
 40
1.0
 40
1.0
 40
1.0
 10
6.43087
 20
-7.04045
 30
0.0
 10
6.43087
 20
-6.95399
 30
0.0
 10
6.50096
 20
-6.88391
 30
0.0
 10
6.58742
 20
-6.88391
 30
0.0
 10
6.67387
 20
-6.88391
 30
0.0
 10
6.74396
 20
-6.95399
 30
0.0
 10
6.74396
 20
-7.04045
 30
0.0
 10
6.74396
 20
-7.12691
 30
0.0
 10
6.67387
 20
-7.197
 30
0.0
 10
6.58742
 20
-7.197
 30
0.0
 10
6.50096
 20
-7.197
 30
0.0
 10
6.43087
 20
-7.12691
 30
0.0
 10
6.43087
 20
-7.04045
 30
0.0
  0
SPLINE
  5
A7
330
1F
100
AcDbEntity
  8
layer 1
 62
   114
370
     9
100
AcDbSpline
210
0.0
220
0.0
230
1.0
 70
    24
 71
     3
 72
     8
 73
     4
 74
     0
 42
0.0000000001
 43
0.0000000001
 40
0.0
 40
0.0
 40
0.0
 40
0.0
 40
1.0
 40
1.0
 40
1.0
 40
1.0
 10
6.45453
 20
-7.12324
 30
0.0
 10
6.45453
 20
-7.12324
 30
0.0
 10
6.70454
 20
-6.93659
 30
0.0
 10
6.70454
 20
-6.93659
 30
0.0
  0
SPLINE
  5
A8
330
1F
100
AcDbEntity
  8
layer 1
 62
   114
370
     9
100
AcDbSpline
210
0.0
220
0.0
230
1.0
 70
    11
 71
     3
 72
    17
 73
    13
 74
     0
 42
0.0000000001
 43
0.0000000001
 40
0.0
 40
0.0
 40
0.0
 40
0.0
 40
0.25
 40
0.25
 40
0.25
 40
0.5
 40
0.5
 40
0.5
 40
0.75
 40
0.75
 40
0.75
 40
1.0
 40
1.0
 40
1.0
 40
1.0
 10
7.36425
 20
-7.74069
 30
0.0
 10
7.43048
 20
-7.68512
 30
0.0
 10
7.52922
 20
-7.69376
 30
0.0
 10
7.5848
 20
-7.75999
 30
0.0
 10
7.64037
 20
-7.82622
 30
0.0
 10
7.63173
 20
-7.92496
 30
0.0
 10
7.5655
 20
-7.98053
 30
0.0
 10
7.49927
 20
-8.0361
 30
0.0
 10
7.40053
 20
-8.02747
 30
0.0
 10
7.34496
 20
-7.96124
 30
0.0
 10
7.28938
 20
-7.89501
 30
0.0
 10
7.29802
 20
-7.79626
 30
0.0
 10
7.36425
 20
-7.74069
 30
0.0
  0
SPLINE
  5
A9
330
1F
100
AcDbEntity
  8
layer 1
 62
   114
370
     9
100
AcDbSpline
210
0.0
220
0.0
230
1.0
 70
    24
 71
     3
 72
     8
 73
     4
 74
     0
 42
0.0000000001
 43
0.0000000001
 40
0.0
 40
0.0
 40
0.0
 40
0.0
 40
1.0
 40
1.0
 40
1.0
 40
1.0
 10
7.41629
 20
-8.00944
 30
0.0
 10
7.41629
 20
-8.00944
 30
0.0
 10
7.48784
 20
-7.70576
 30
0.0
 10
7.48784
 20
-7.70576
 30
0.0
  0
SPLINE
  5
AA
330
1F
100
AcDbEntity
  8
layer 1
 62
   250
370
     9
100
AcDbSpline
210
0.0
220
0.0
230
1.0
 70
    11
 71
     3
 72
    47
 73
    43
 74
     0
 42
0.0000000001
 43
0.0000000001
 40
0.0
 40
0.0
 40
0.0
 40
0.0
 40
0.0714285714285714
 40
0.0714285714285714
 40
0.0714285714285714
 40
0.1428571428571428
 40
0.1428571428571428
 40
0.1428571428571428
 40
0.2142857142857143
 40
0.2142857142857143
 40
0.2142857142857143
 40
0.2857142857142857
 40
0.2857142857142857
 40
0.2857142857142857
 40
0.3571428571428571
 40
0.3571428571428571
 40
0.3571428571428571
 40
0.4285714285714285
 40
0.4285714285714285
 40
0.4285714285714285
 40
0.5
 40
0.5
 40
0.5
 40
0.5714285714285714
 40
0.5714285714285714
 40
0.5714285714285714
 40
0.6428571428571428
 40
0.6428571428571428
 40
0.6428571428571428
 40
0.7142857142857142
 40
0.7142857142857142
 40
0.7142857142857142
 40
0.7857142857142857
 40
0.7857142857142857
 40
0.7857142857142857
 40
0.8571428571428571
 40
0.8571428571428571
 40
0.8571428571428571
 40
0.9285714285714285
 40
0.9285714285714285
 40
0.9285714285714285
 40
1.0
 40
1.0
 40
1.0
 40
1.0
 10
34.18438
 20
-12.60563
 30
0.0
 10
34.18438
 20
-12.60563
 30
0.0
 10
32.40439
 20
-12.60563
 30
0.0
 10
32.40439
 20
-12.60563
 30
0.0
 10
32.34389
 20
-12.60563
 30
0.0
 10
32.29439
 20
-12.55611
 30
0.0
 10
32.29439
 20
-12.49563
 30
0.0
 10
32.29439
 20
-12.49563
 30
0.0
 10
32.29439
 20
2.19757
 30
0.0
 10
32.29439
 20
2.19757
 30
0.0
 10
32.29439
 20
2.25801
 30
0.0
 10
32.34393
 20
2.30757
 30
0.0
 10
32.40439
 20
2.30757
 30
0.0
 10
32.40439
 20
2.30757
 30
0.0
 10
32.55607
 20
2.30757
 30
0.0
 10
32.55607
 20
2.30757
 30
0.0
 10
32.55607
 20
2.30757
 30
0.0
 10
32.55607
 20
2.61802
 30
0.0
 10
32.55607
 20
2.61802
 30
0.0
 10
32.55607
 20
2.6838
 30
0.0
 10
32.61003
 20
2.73777
 30
0.0
 10
32.67583
 20
2.73777
 30
0.0
 10
32.67583
 20
2.73777
 30
0.0
 10
33.92295
 20
2.73777
 30
0.0
 10
33.92295
 20
2.73777
 30
0.0
 10
33.98875
 20
2.73777
 30
0.0
 10
34.04271
 20
2.68387
 30
0.0
 10
34.04271
 20
2.61802
 30
0.0
 10
34.04271
 20
2.61802
 30
0.0
 10
34.04271
 20
2.30757
 30
0.0
 10
34.04271
 20
2.30757
 30
0.0
 10
34.04271
 20
2.30757
 30
0.0
 10
34.18438
 20
2.30757
 30
0.0
 10
34.18438
 20
2.30757
 30
0.0
 10
34.24485
 20
2.30757
 30
0.0
 10
34.29438
 20
2.25805
 30
0.0
 10
34.29438
 20
2.19757
 30
0.0
 10
34.29438
 20
2.19757
 30
0.0
 10
34.29438
 20
-12.49563
 30
0.0
 10
34.29438
 20
-12.49563
 30
0.0
 10
34.29438
 20
-12.55611
 30
0.0
 10
34.24488
 20
-12.60563
 30
0.0
 10
34.18438
 20
-12.60563
 30
0.0
  0
SPLINE
  5
AB
330
1F
100
AcDbEntity
  8
layer 1
 62
   114
370
     9
100
AcDbSpline
210
0.0
220
0.0
230
1.0
 70
    11
 71
     3
 72
    17
 73
    13
 74
     0
 42
0.0000000001
 43
0.0000000001
 40
0.0
 40
0.0
 40
0.0
 40
0.0
 40
0.25
 40
0.25
 40
0.25
 40
0.5
 40
0.5
 40
0.5
 40
0.75
 40
0.75
 40
0.75
 40
1.0
 40
1.0
 40
1.0
 40
1.0
 10
33.49439
 20
-10.0432
 30
0.0
 10
33.49439
 20
-10.0432
 30
0.0
 10
33.09439
 20
-10.0432
 30
0.0
 10
33.09439
 20
-10.0432
 30
0.0
 10
33.09439
 20
-10.0432
 30
0.0
 10
33.09439
 20
-0.87598
 30
0.0
 10
33.09439
 20
-0.87598
 30
0.0
 10
33.09439
 20
-0.87598
 30
0.0
 10
33.49439
 20
-0.87598
 30
0.0
 10
33.49439
 20
-0.87598
 30
0.0
 10
33.49439
 20
-0.87598
 30
0.0
 10
33.49439
 20
-10.0432
 30
0.0
 10
33.49439
 20
-10.0432
 30
0.0
  0
SPLINE
  5
AC
330
1F
100
AcDbEntity
  8
layer 1
 62
   250
370
     9
100
AcDbSpline
210
0.0
220
0.0
230
1.0
 70
    11
 71
     3
 72
    77
 73
    73
 74
     0
 42
0.0000000001
 43
0.0000000001
 40
0.0
 40
0.0
 40
0.0
 40
0.0
 40
0.0416666666666667
 40
0.0416666666666667
 40
0.0416666666666667
 40
0.0833333333333333
 40
0.0833333333333333
 40
0.0833333333333333
 40
0.125
 40
0.125
 40
0.125
 40
0.1666666666666667
 40
0.1666666666666667
 40
0.1666666666666667
 40
0.2083333333333333
 40
0.2083333333333333
 40
0.2083333333333333
 40
0.25
 40
0.25
 40
0.25
 40
0.2916666666666666
 40
0.2916666666666666
 40
0.2916666666666666
 40
0.3333333333333333
 40
0.3333333333333333
 40
0.3333333333333333
 40
0.375
 40
0.375
 40
0.375
 40
0.4166666666666666
 40
0.4166666666666666
 40
0.4166666666666666
 40
0.4583333333333333
 40
0.4583333333333333
 40
0.4583333333333333
 40
0.5
 40
0.5
 40
0.5
 40
0.5416666666666666
 40
0.5416666666666666
 40
0.5416666666666666
 40
0.5833333333333333
 40
0.5833333333333333
 40
0.5833333333333333
 40
0.625
 40
0.625
 40
0.625
 40
0.6666666666666666
 40
0.6666666666666666
 40
0.6666666666666666
 40
0.7083333333333333
 40
0.7083333333333333
 40
0.7083333333333333
 40
0.75
 40
0.75
 40
0.75
 40
0.7916666666666666
 40
0.7916666666666666
 40
0.7916666666666666
 40
0.8333333333333333
 40
0.8333333333333333
 40
0.8333333333333333
 40
0.875
 40
0.875
 40
0.875
 40
0.9166666666666666
 40
0.9166666666666666
 40
0.9166666666666666
 40
0.9583333333333333
 40
0.9583333333333333
 40
0.9583333333333333
 40
1.0
 40
1.0
 40
1.0
 40
1.0
 10
-33.79151
 20
10.08227
 30
0.0
 10
-33.79151
 20
10.08227
 30
0.0
 10
-29.75346
 20
10.08227
 30
0.0
 10
-29.75346
 20
10.08227
 30
0.0
 10
-29.75346
 20
10.08227
 30
0.0
 10
-29.75346
 20
10.31227
 30
0.0
 10
-29.75346
 20
10.31227
 30
0.0
 10
-29.75346
 20
10.31227
 30
0.0
 10
-34.19151
 20
10.31227
 30
0.0
 10
-34.19151
 20
10.31227
 30
0.0
 10
-34.19151
 20
10.31227
 30
0.0
 10
-34.19151
 20
12.57227
 30
0.0
 10
-34.19151
 20
12.57227
 30
0.0
 10
-34.19151
 20
12.57227
 30
0.0
 10
-29.75346
 20
12.57227
 30
0.0
 10
-29.75346
 20
12.57227
 30
0.0
 10
-29.75346
 20
12.57227
 30
0.0
 10
-29.75346
 20
12.82227
 30
0.0
 10
-29.75346
 20
12.82227
 30
0.0
 10
-29.75346
 20
12.82227
 30
0.0
 10
-33.79151
 20
12.82227
 30
0.0
 10
-33.79151
 20
12.82227
 30
0.0
 10
-33.79151
 20
12.82227
 30
0.0
 10
-33.79151
 20
14.24227
 30
0.0
 10
-33.79151
 20
14.24227
 30
0.0
 10
-26.12484
 20
14.24227
 30
0.0
 10
-18.45818
 20
14.24227
 30
0.0
 10
-10.79151
 20
14.24227
 30
0.0
 10
-10.79151
 20
14.24227
 30
0.0
 10
-10.79151
 20
12.82227
 30
0.0
 10
-10.79151
 20
12.82227
 30
0.0
 10
-10.79151
 20
12.82227
 30
0.0
 10
-14.82956
 20
12.82227
 30
0.0
 10
-14.82956
 20
12.82227
 30
0.0
 10
-14.82956
 20
12.82227
 30
0.0
 10
-14.82956
 20
12.57227
 30
0.0
 10
-14.82956
 20
12.57227
 30
0.0
 10
-14.82956
 20
12.57227
 30
0.0
 10
-10.39151
 20
12.57227
 30
0.0
 10
-10.39151
 20
12.57227
 30
0.0
 10
-10.39151
 20
12.57227
 30
0.0
 10
-10.39151
 20
10.31227
 30
0.0
 10
-10.39151
 20
10.31227
 30
0.0
 10
-10.39151
 20
10.31227
 30
0.0
 10
-14.82956
 20
10.31227
 30
0.0
 10
-14.82956
 20
10.31227
 30
0.0
 10
-14.82956
 20
10.31227
 30
0.0
 10
-14.82956
 20
10.08227
 30
0.0
 10
-14.82956
 20
10.08227
 30
0.0
 10
-14.82956
 20
10.08227
 30
0.0
 10
-10.79151
 20
10.08227
 30
0.0
 10
-10.79151
 20
10.08227
 30
0.0
 10
-10.79151
 20
10.08227
 30
0.0
 10
-10.79151
 20
7.94227
 30
0.0
 10
-10.79151
 20
7.94227
 30
0.0
 10
-10.79151
 20
7.94227
 30
0.0
 10
-14.82956
 20
7.94227
 30
0.0
 10
-14.82956
 20
7.94227
 30
0.0
 10
-14.82956
 20
7.94227
 30
0.0
 10
-16.82956
 20
7.94227
 30
0.0
 10
-16.82956
 20
7.94227
 30
0.0
 10
-16.82956
 20
7.94227
 30
0.0
 10
-27.75346
 20
7.94227
 30
0.0
 10
-27.75346
 20
7.94227
 30
0.0
 10
-27.75346
 20
7.94227
 30
0.0
 10
-29.75346
 20
7.94227
 30
0.0
 10
-29.75346
 20
7.94227
 30
0.0
 10
-29.75346
 20
7.94227
 30
0.0
 10
-33.79151
 20
7.94227
 30
0.0
 10
-33.79151
 20
7.94227
 30
0.0
 10
-33.79151
 20
7.94227
 30
0.0
 10
-33.79151
 20
10.08227
 30
0.0
 10
-33.79151
 20
10.08227
 30
0.0
  0
SPLINE
  5
AD
330
1F
100
AcDbEntity
  8
layer 1
 62
   250
370
     9
100
AcDbSpline
210
0.0
220
0.0
230
1.0
 70
    11
 71
     3
 72
    17
 73
    13
 74
     0
 42
0.0000000001
 43
0.0000000001
 40
0.0
 40
0.0
 40
0.0
 40
0.0
 40
0.25
 40
0.25
 40
0.25
 40
0.5
 40
0.5
 40
0.5
 40
0.75
 40
0.75
 40
0.75
 40
1.0
 40
1.0
 40
1.0
 40
1.0
 10
-27.75346
 20
10.08227
 30
0.0
 10
-27.75346
 20
10.08227
 30
0.0
 10
-16.82956
 20
10.08227
 30
0.0
 10
-16.82956
 20
10.08227
 30
0.0
 10
-16.82956
 20
10.08227
 30
0.0
 10
-16.82956
 20
10.31227
 30
0.0
 10
-16.82956
 20
10.31227
 30
0.0
 10
-16.82956
 20
10.31227
 30
0.0
 10
-27.75346
 20
10.31227
 30
0.0
 10
-27.75346
 20
10.31227
 30
0.0
 10
-27.75346
 20
10.31227
 30
0.0
 10
-27.75346
 20
10.08227
 30
0.0
 10
-27.75346
 20
10.08227
 30
0.0
  0
SPLINE
  5
AE
330
1F
100
AcDbEntity
  8
layer 1
 62
   250
370
     9
100
AcDbSpline
210
0.0
220
0.0
230
1.0
 70
    11
 71
     3
 72
    17
 73
    13
 74
     0
 42
0.0000000001
 43
0.0000000001
 40
0.0
 40
0.0
 40
0.0
 40
0.0
 40
0.25
 40
0.25
 40
0.25
 40
0.5
 40
0.5
 40
0.5
 40
0.75
 40
0.75
 40
0.75
 40
1.0
 40
1.0
 40
1.0
 40
1.0
 10
-27.75346
 20
12.57227
 30
0.0
 10
-27.75346
 20
12.57227
 30
0.0
 10
-16.82956
 20
12.57227
 30
0.0
 10
-16.82956
 20
12.57227
 30
0.0
 10
-16.82956
 20
12.57227
 30
0.0
 10
-16.82956
 20
12.82227
 30
0.0
 10
-16.82956
 20
12.82227
 30
0.0
 10
-16.82956
 20
12.82227
 30
0.0
 10
-27.75346
 20
12.82227
 30
0.0
 10
-27.75346
 20
12.82227
 30
0.0
 10
-27.75346
 20
12.82227
 30
0.0
 10
-27.75346
 20
12.57227
 30
0.0
 10
-27.75346
 20
12.57227
 30
0.0
  0
SPLINE
  5
AF
330
1F
100
AcDbEntity
  8
layer 1
 62
   250
370
     9
100
AcDbSpline
210
0.0
220
0.0
230
1.0
 70
     8
 71
     3
 72
    74
 73
    70
 74
     0
 42
0.0000000001
 43
0.0000000001
 40
0.0
 40
0.0
 40
0.0
 40
0.0
 40
0.0434782608695652
 40
0.0434782608695652
 40
0.0434782608695652
 40
0.0869565217391304
 40
0.0869565217391304
 40
0.0869565217391304
 40
0.1304347826086956
 40
0.1304347826086956
 40
0.1304347826086956
 40
0.1739130434782609
 40
0.1739130434782609
 40
0.1739130434782609
 40
0.2173913043478261
 40
0.2173913043478261
 40
0.2173913043478261
 40
0.2608695652173913
 40
0.2608695652173913
 40
0.2608695652173913
 40
0.3043478260869565
 40
0.3043478260869565
 40
0.3043478260869565
 40
0.3478260869565217
 40
0.3478260869565217
 40
0.3478260869565217
 40
0.3913043478260869
 40
0.3913043478260869
 40
0.3913043478260869
 40
0.4347826086956522
 40
0.4347826086956522
 40
0.4347826086956522
 40
0.4782608695652174
 40
0.4782608695652174
 40
0.4782608695652174
 40
0.5217391304347826
 40
0.5217391304347826
 40
0.5217391304347826
 40
0.5652173913043478
 40
0.5652173913043478
 40
0.5652173913043478
 40
0.6086956521739131
 40
0.6086956521739131
 40
0.6086956521739131
 40
0.6521739130434783
 40
0.6521739130434783
 40
0.6521739130434783
 40
0.6956521739130435
 40
0.6956521739130435
 40
0.6956521739130435
 40
0.7391304347826086
 40
0.7391304347826086
 40
0.7391304347826086
 40
0.7826086956521738
 40
0.7826086956521738
 40
0.7826086956521738
 40
0.8260869565217391
 40
0.8260869565217391
 40
0.8260869565217391
 40
0.8695652173913043
 40
0.8695652173913043
 40
0.8695652173913043
 40
0.9130434782608695
 40
0.9130434782608695
 40
0.9130434782608695
 40
0.9565217391304348
 40
0.9565217391304348
 40
0.9565217391304348
 40
1.0
 40
1.0
 40
1.0
 40
1.0
 10
-10.79151
 20
7.94227
 30
0.0
 10
-10.79151
 20
7.94227
 30
0.0
 10
-10.79151
 20
5.82227
 30
0.0
 10
-10.79151
 20
5.82227
 30
0.0
 10
-10.79151
 20
5.82227
 30
0.0
 10
-14.82956
 20
5.82227
 30
0.0
 10
-14.82956
 20
5.82227
 30
0.0
 10
-14.82956
 20
5.82227
 30
0.0
 10
-14.82956
 20
5.57227
 30
0.0
 10
-14.82956
 20
5.57227
 30
0.0
 10
-14.82956
 20
5.57227
 30
0.0
 10
-10.39151
 20
5.57227
 30
0.0
 10
-10.39151
 20
5.57227
 30
0.0
 10
-10.39151
 20
5.57227
 30
0.0
 10
-10.39151
 20
3.31227
 30
0.0
 10
-10.39151
 20
3.31227
 30
0.0
 10
-10.39151
 20
3.31227
 30
0.0
 10
-14.82956
 20
3.31227
 30
0.0
 10
-14.82956
 20
3.31227
 30
0.0
 10
-14.82956
 20
3.31227
 30
0.0
 10
-14.82956
 20
3.08227
 30
0.0
 10
-14.82956
 20
3.08227
 30
0.0
 10
-14.82956
 20
3.08227
 30
0.0
 10
-10.79151
 20
3.08227
 30
0.0
 10
-10.79151
 20
3.08227
 30
0.0
 10
-10.79151
 20
3.08227
 30
0.0
 10
-10.79151
 20
0.94227
 30
0.0
 10
-10.79151
 20
0.94227
 30
0.0
 10
-10.79151
 20
0.94227
 30
0.0
 10
-14.82956
 20
0.94227
 30
0.0
 10
-14.82956
 20
0.94227
 30
0.0
 10
-14.82956
 20
0.94227
 30
0.0
 10
-16.82956
 20
0.94227
 30
0.0
 10
-16.82956
 20
0.94227
 30
0.0
 10
-16.82956
 20
0.94227
 30
0.0
 10
-27.75346
 20
0.94227
 30
0.0
 10
-27.75346
 20
0.94227
 30
0.0
 10
-27.75346
 20
0.94227
 30
0.0
 10
-29.75346
 20
0.94227
 30
0.0
 10
-29.75346
 20
0.94227
 30
0.0
 10
-29.75346
 20
0.94227
 30
0.0
 10
-33.79151
 20
0.94227
 30
0.0
 10
-33.79151
 20
0.94227
 30
0.0
 10
-33.79151
 20
0.94227
 30
0.0
 10
-33.79151
 20
3.08227
 30
0.0
 10
-33.79151
 20
3.08227
 30
0.0
 10
-33.79151
 20
3.08227
 30
0.0
 10
-29.75346
 20
3.08227
 30
0.0
 10
-29.75346
 20
3.08227
 30
0.0
 10
-29.75346
 20
3.08227
 30
0.0
 10
-29.75346
 20
3.31227
 30
0.0
 10
-29.75346
 20
3.31227
 30
0.0
 10
-29.75346
 20
3.31227
 30
0.0
 10
-34.19151
 20
3.31227
 30
0.0
 10
-34.19151
 20
3.31227
 30
0.0
 10
-34.19151
 20
3.31227
 30
0.0
 10
-34.19151
 20
5.57227
 30
0.0
 10
-34.19151
 20
5.57227
 30
0.0
 10
-34.19151
 20
5.57227
 30
0.0
 10
-29.75346
 20
5.57227
 30
0.0
 10
-29.75346
 20
5.57227
 30
0.0
 10
-29.75346
 20
5.57227
 30
0.0
 10
-29.75346
 20
5.82227
 30
0.0
 10
-29.75346
 20
5.82227
 30
0.0
 10
-29.75346
 20
5.82227
 30
0.0
 10
-33.79151
 20
5.82227
 30
0.0
 10
-33.79151
 20
5.82227
 30
0.0
 10
-33.79151
 20
5.82227
 30
0.0
 10
-33.79151
 20
7.94227
 30
0.0
 10
-33.79151
 20
7.94227
 30
0.0
  0
SPLINE
  5
B0
330
1F
100
AcDbEntity
  8
layer 1
 62
   250
370
     9
100
AcDbSpline
210
0.0
220
0.0
230
1.0
 70
    11
 71
     3
 72
    17
 73
    13
 74
     0
 42
0.0000000001
 43
0.0000000001
 40
0.0
 40
0.0
 40
0.0
 40
0.0
 40
0.25
 40
0.25
 40
0.25
 40
0.5
 40
0.5
 40
0.5
 40
0.75
 40
0.75
 40
0.75
 40
1.0
 40
1.0
 40
1.0
 40
1.0
 10
-27.75346
 20
3.08227
 30
0.0
 10
-27.75346
 20
3.08227
 30
0.0
 10
-16.82956
 20
3.08227
 30
0.0
 10
-16.82956
 20
3.08227
 30
0.0
 10
-16.82956
 20
3.08227
 30
0.0
 10
-16.82956
 20
3.31227
 30
0.0
 10
-16.82956
 20
3.31227
 30
0.0
 10
-16.82956
 20
3.31227
 30
0.0
 10
-27.75346
 20
3.31227
 30
0.0
 10
-27.75346
 20
3.31227
 30
0.0
 10
-27.75346
 20
3.31227
 30
0.0
 10
-27.75346
 20
3.08227
 30
0.0
 10
-27.75346
 20
3.08227
 30
0.0
  0
SPLINE
  5
B1
330
1F
100
AcDbEntity
  8
layer 1
 62
   250
370
     9
100
AcDbSpline
210
0.0
220
0.0
230
1.0
 70
    11
 71
     3
 72
    17
 73
    13
 74
     0
 42
0.0000000001
 43
0.0000000001
 40
0.0
 40
0.0
 40
0.0
 40
0.0
 40
0.25
 40
0.25
 40
0.25
 40
0.5
 40
0.5
 40
0.5
 40
0.75
 40
0.75
 40
0.75
 40
1.0
 40
1.0
 40
1.0
 40
1.0
 10
-27.75346
 20
5.57227
 30
0.0
 10
-27.75346
 20
5.57227
 30
0.0
 10
-16.82956
 20
5.57227
 30
0.0
 10
-16.82956
 20
5.57227
 30
0.0
 10
-16.82956
 20
5.57227
 30
0.0
 10
-16.82956
 20
5.82227
 30
0.0
 10
-16.82956
 20
5.82227
 30
0.0
 10
-16.82956
 20
5.82227
 30
0.0
 10
-27.75346
 20
5.82227
 30
0.0
 10
-27.75346
 20
5.82227
 30
0.0
 10
-27.75346
 20
5.82227
 30
0.0
 10
-27.75346
 20
5.57227
 30
0.0
 10
-27.75346
 20
5.57227
 30
0.0
  0
SPLINE
  5
B2
330
1F
100
AcDbEntity
  8
layer 1
 62
   250
370
     9
100
AcDbSpline
210
0.0
220
0.0
230
1.0
 70
     8
 71
     3
 72
   200
 73
   196
 74
     0
 42
0.0000000001
 43
0.0000000001
 40
0.0
 40
0.0
 40
0.0
 40
0.0
 40
0.0153846153846154
 40
0.0153846153846154
 40
0.0153846153846154
 40
0.0307692307692308
 40
0.0307692307692308
 40
0.0307692307692308
 40
0.0461538461538462
 40
0.0461538461538462
 40
0.0461538461538462
 40
0.0615384615384615
 40
0.0615384615384615
 40
0.0615384615384615
 40
0.0769230769230769
 40
0.0769230769230769
 40
0.0769230769230769
 40
0.0923076923076923
 40
0.0923076923076923
 40
0.0923076923076923
 40
0.1076923076923077
 40
0.1076923076923077
 40
0.1076923076923077
 40
0.1230769230769231
 40
0.1230769230769231
 40
0.1230769230769231
 40
0.1384615384615385
 40
0.1384615384615385
 40
0.1384615384615385
 40
0.1538461538461539
 40
0.1538461538461539
 40
0.1538461538461539
 40
0.1692307692307692
 40
0.1692307692307692
 40
0.1692307692307692
 40
0.1846153846153846
 40
0.1846153846153846
 40
0.1846153846153846
 40
0.2
 40
0.2
 40
0.2
 40
0.2153846153846154
 40
0.2153846153846154
 40
0.2153846153846154
 40
0.2307692307692308
 40
0.2307692307692308
 40
0.2307692307692308
 40
0.2461538461538462
 40
0.2461538461538462
 40
0.2461538461538462
 40
0.2615384615384616
 40
0.2615384615384616
 40
0.2615384615384616
 40
0.2769230769230769
 40
0.2769230769230769
 40
0.2769230769230769
 40
0.2923076923076923
 40
0.2923076923076923
 40
0.2923076923076923
 40
0.3076923076923077
 40
0.3076923076923077
 40
0.3076923076923077
 40
0.3230769230769231
 40
0.3230769230769231
 40
0.3230769230769231
 40
0.3384615384615385
 40
0.3384615384615385
 40
0.3384615384615385
 40
0.3538461538461539
 40
0.3538461538461539
 40
0.3538461538461539
 40
0.3692307692307693
 40
0.3692307692307693
 40
0.3692307692307693
 40
0.3846153846153846
 40
0.3846153846153846
 40
0.3846153846153846
 40
0.4
 40
0.4
 40
0.4
 40
0.4153846153846154
 40
0.4153846153846154
 40
0.4153846153846154
 40
0.4307692307692308
 40
0.4307692307692308
 40
0.4307692307692308
 40
0.4461538461538462
 40
0.4461538461538462
 40
0.4461538461538462
 40
0.4615384615384616
 40
0.4615384615384616
 40
0.4615384615384616
 40
0.4769230769230769
 40
0.4769230769230769
 40
0.4769230769230769
 40
0.4923076923076923
 40
0.4923076923076923
 40
0.4923076923076923
 40
0.5076923076923077
 40
0.5076923076923077
 40
0.5076923076923077
 40
0.5230769230769231
 40
0.5230769230769231
 40
0.5230769230769231
 40
0.5384615384615385
 40
0.5384615384615385
 40
0.5384615384615385
 40
0.5538461538461539
 40
0.5538461538461539
 40
0.5538461538461539
 40
0.5692307692307692
 40
0.5692307692307692
 40
0.5692307692307692
 40
0.5846153846153846
 40
0.5846153846153846
 40
0.5846153846153846
 40
0.6000000000000001
 40
0.6000000000000001
 40
0.6000000000000001
 40
0.6153846153846154
 40
0.6153846153846154
 40
0.6153846153846154
 40
0.6307692307692307
 40
0.6307692307692307
 40
0.6307692307692307
 40
0.6461538461538462
 40
0.6461538461538462
 40
0.6461538461538462
 40
0.6615384615384616
 40
0.6615384615384616
 40
0.6615384615384616
 40
0.676923076923077
 40
0.676923076923077
 40
0.676923076923077
 40
0.6923076923076923
 40
0.6923076923076923
 40
0.6923076923076923
 40
0.7076923076923077
 40
0.7076923076923077
 40
0.7076923076923077
 40
0.7230769230769232
 40
0.7230769230769232
 40
0.7230769230769232
 40
0.7384615384615385
 40
0.7384615384615385
 40
0.7384615384615385
 40
0.7538461538461538
 40
0.7538461538461538
 40
0.7538461538461538
 40
0.7692307692307693
 40
0.7692307692307693
 40
0.7692307692307693
 40
0.7846153846153847
 40
0.7846153846153847
 40
0.7846153846153847
 40
0.8
 40
0.8
 40
0.8
 40
0.8153846153846154
 40
0.8153846153846154
 40
0.8153846153846154
 40
0.8307692307692308
 40
0.8307692307692308
 40
0.8307692307692308
 40
0.8461538461538463
 40
0.8461538461538463
 40
0.8461538461538463
 40
0.8615384615384616
 40
0.8615384615384616
 40
0.8615384615384616
 40
0.8769230769230769
 40
0.8769230769230769
 40
0.8769230769230769
 40
0.8923076923076924
 40
0.8923076923076924
 40
0.8923076923076924
 40
0.9076923076923078
 40
0.9076923076923078
 40
0.9076923076923078
 40
0.9230769230769231
 40
0.9230769230769231
 40
0.9230769230769231
 40
0.9384615384615385
 40
0.9384615384615385
 40
0.9384615384615385
 40
0.9538461538461539
 40
0.9538461538461539
 40
0.9538461538461539
 40
0.9692307692307693
 40
0.9692307692307693
 40
0.9692307692307693
 40
0.9846153846153847
 40
0.9846153846153847
 40
0.9846153846153847
 40
1.0
 40
1.0
 40
1.0
 40
1.0
 10
-10.99456
 20
0.93835
 30
0.0
 10
-10.99456
 20
0.93835
 30
0.0
 10
-10.99456
 20
0.7819
 30
0.0
 10
-10.99456
 20
0.7819
 30
0.0
 10
-10.99456
 20
0.7819
 30
0.0
 10
-10.49437
 20
0.7819
 30
0.0
 10
-10.49437
 20
0.7819
 30
0.0
 10
-10.49437
 20
0.7819
 30
0.0
 10
-10.49437
 20
0.28092
 30
0.0
 10
-10.49437
 20
0.28092
 30
0.0
 10
-10.49437
 20
0.28092
 30
0.0
 10
-10.99456
 20
0.28092
 30
0.0
 10
-10.99456
 20
0.28092
 30
0.0
 10
-10.99456
 20
0.28092
 30
0.0
 10
-10.99456
 20
-0.46652
 30
0.0
 10
-10.99456
 20
-0.46652
 30
0.0
 10
-10.99456
 20
-0.46652
 30
0.0
 10
-10.49437
 20
-0.46753
 30
0.0
 10
-10.49437
 20
-0.46753
 30
0.0
 10
-10.49437
 20
-0.90985
 30
0.0
 10
-10.49437
 20
-1.35216
 30
0.0
 10
-10.49437
 20
-1.79448
 30
0.0
 10
-10.52497
 20
-1.82656
 30
0.0
 10
-10.55556
 20
-1.85863
 30
0.0
 10
-10.58616
 20
-1.89071
 30
0.0
 10
-10.58616
 20
-1.89071
 30
0.0
 10
-14.93243
 20
-1.89071
 30
0.0
 10
-14.93243
 20
-1.89071
 30
0.0
 10
-14.93243
 20
-1.89071
 30
0.0
 10
-14.93243
 20
-2.1252
 30
0.0
 10
-14.93243
 20
-2.1252
 30
0.0
 10
-14.93243
 20
-2.1252
 30
0.0
 10
-10.58615
 20
-2.1252
 30
0.0
 10
-10.58615
 20
-2.1252
 30
0.0
 10
-10.58615
 20
-2.1252
 30
0.0
 10
-10.49437
 20
-2.19685
 30
0.0
 10
-10.49437
 20
-2.19685
 30
0.0
 10
-10.49437
 20
-2.19685
 30
0.0
 10
-10.49437
 20
-4.69332
 30
0.0
 10
-10.49437
 20
-4.69332
 30
0.0
 10
-10.49437
 20
-4.69332
 30
0.0
 10
-10.58449
 20
-4.76425
 30
0.0
 10
-10.58449
 20
-4.76425
 30
0.0
 10
-10.58449
 20
-4.76425
 30
0.0
 10
-14.93243
 20
-4.76425
 30
0.0
 10
-14.93243
 20
-4.76425
 30
0.0
 10
-14.93243
 20
-4.76425
 30
0.0
 10
-14.93243
 20
-4.98873
 30
0.0
 10
-14.93243
 20
-4.98873
 30
0.0
 10
-14.93243
 20
-4.98873
 30
0.0
 10
-10.5867
 20
-4.98873
 30
0.0
 10
-10.5867
 20
-4.98873
 30
0.0
 10
-10.5867
 20
-4.98873
 30
0.0
 10
-10.49437
 20
-5.06815
 30
0.0
 10
-10.49437
 20
-5.06815
 30
0.0
 10
-10.49437
 20
-5.06815
 30
0.0
 10
-10.49437
 20
-7.82867
 30
0.0
 10
-10.49437
 20
-7.82867
 30
0.0
 10
-10.49437
 20
-7.82867
 30
0.0
 10
-10.58338
 20
-7.92413
 30
0.0
 10
-10.58338
 20
-7.92413
 30
0.0
 10
-10.58338
 20
-7.92413
 30
0.0
 10
-14.93243
 20
-7.92413
 30
0.0
 10
-14.93243
 20
-7.92413
 30
0.0
 10
-14.93243
 20
-7.92413
 30
0.0
 10
-14.93243
 20
-8.14754
 30
0.0
 10
-14.93243
 20
-8.14754
 30
0.0
 10
-14.93243
 20
-8.14754
 30
0.0
 10
-10.58449
 20
-8.14754
 30
0.0
 10
-10.58449
 20
-8.14754
 30
0.0
 10
-10.58449
 20
-8.14754
 30
0.0
 10
-10.49437
 20
-8.23878
 30
0.0
 10
-10.49437
 20
-8.23878
 30
0.0
 10
-10.49437
 20
-8.23878
 30
0.0
 10
-10.49437
 20
-10.99709
 30
0.0
 10
-10.49437
 20
-10.99709
 30
0.0
 10
-10.49437
 20
-10.99709
 30
0.0
 10
-10.5867
 20
-11.08377
 30
0.0
 10
-10.5867
 20
-11.08377
 30
0.0
 10
-10.5867
 20
-11.08377
 30
0.0
 10
-14.93243
 20
-11.08377
 30
0.0
 10
-14.93243
 20
-11.08377
 30
0.0
 10
-14.93243
 20
-11.08377
 30
0.0
 10
-14.93243
 20
-11.30718
 30
0.0
 10
-14.93243
 20
-11.30718
 30
0.0
 10
-14.93243
 20
-11.30718
 30
0.0
 10
-10.58891
 20
-11.30718
 30
0.0
 10
-10.58891
 20
-11.30718
 30
0.0
 10
-10.58891
 20
-11.30718
 30
0.0
 10
-10.49437
 20
-11.42042
 30
0.0
 10
-10.49437
 20
-11.42042
 30
0.0
 10
-10.49437
 20
-11.42042
 30
0.0
 10
-10.49437
 20
-13.8612
 30
0.0
 10
-10.49437
 20
-13.8612
 30
0.0
 10
-10.49437
 20
-13.8612
 30
0.0
 10
-10.59111
 20
-13.97486
 30
0.0
 10
-10.59111
 20
-13.97486
 30
0.0
 10
-10.59111
 20
-13.97486
 30
0.0
 10
-34.20205
 20
-13.97486
 30
0.0
 10
-34.20205
 20
-13.97486
 30
0.0
 10
-34.20205
 20
-13.97486
 30
0.0
 10
-34.29437
 20
-13.86132
 30
0.0
 10
-34.29437
 20
-13.86132
 30
0.0
 10
-34.29437
 20
-13.86132
 30
0.0
 10
-34.29437
 20
-11.46352
 30
0.0
 10
-34.29437
 20
-11.46352
 30
0.0
 10
-34.29437
 20
-11.46352
 30
0.0
 10
-34.19708
 20
-11.30718
 30
0.0
 10
-34.19708
 20
-11.30718
 30
0.0
 10
-34.19708
 20
-11.30718
 30
0.0
 10
-29.85631
 20
-11.30718
 30
0.0
 10
-29.85631
 20
-11.30718
 30
0.0
 10
-29.85631
 20
-11.30718
 30
0.0
 10
-29.85631
 20
-11.08377
 30
0.0
 10
-29.85631
 20
-11.08377
 30
0.0
 10
-29.85631
 20
-11.08377
 30
0.0
 10
-34.20149
 20
-11.08377
 30
0.0
 10
-34.20149
 20
-11.08377
 30
0.0
 10
-34.20149
 20
-11.08377
 30
0.0
 10
-34.29437
 20
-10.9586
 30
0.0
 10
-34.29437
 20
-10.9586
 30
0.0
 10
-34.29437
 20
-10.9586
 30
0.0
 10
-34.29437
 20
-8.251
 30
0.0
 10
-34.29437
 20
-8.251
 30
0.0
 10
-34.29437
 20
-8.251
 30
0.0
 10
-34.20479
 20
-8.14754
 30
0.0
 10
-34.20479
 20
-8.14754
 30
0.0
 10
-34.20479
 20
-8.14754
 30
0.0
 10
-29.85631
 20
-8.14754
 30
0.0
 10
-29.85631
 20
-8.14754
 30
0.0
 10
-29.85631
 20
-8.14754
 30
0.0
 10
-29.85631
 20
-7.92413
 30
0.0
 10
-29.85631
 20
-7.92413
 30
0.0
 10
-29.85631
 20
-7.92413
 30
0.0
 10
-34.20259
 20
-7.92413
 30
0.0
 10
-34.20259
 20
-7.92413
 30
0.0
 10
-34.20259
 20
-7.92413
 30
0.0
 10
-34.29437
 20
-7.82215
 30
0.0
 10
-34.29437
 20
-7.82215
 30
0.0
 10
-34.29437
 20
-7.82215
 30
0.0
 10
-34.29437
 20
-5.09083
 30
0.0
 10
-34.29437
 20
-5.09083
 30
0.0
 10
-34.29437
 20
-5.09083
 30
0.0
 10
-34.20201
 20
-4.98873
 30
0.0
 10
-34.20201
 20
-4.98873
 30
0.0
 10
-34.20201
 20
-4.98873
 30
0.0
 10
-29.85631
 20
-4.98873
 30
0.0
 10
-29.85631
 20
-4.98873
 30
0.0
 10
-29.85631
 20
-4.98873
 30
0.0
 10
-29.85631
 20
-4.76425
 30
0.0
 10
-29.85631
 20
-4.76425
 30
0.0
 10
-29.85631
 20
-4.76425
 30
0.0
 10
-34.20201
 20
-4.76425
 30
0.0
 10
-34.20201
 20
-4.76425
 30
0.0
 10
-34.20201
 20
-4.76425
 30
0.0
 10
-34.29437
 20
-4.65207
 30
0.0
 10
-34.29437
 20
-4.65207
 30
0.0
 10
-34.29437
 20
-4.65207
 30
0.0
 10
-34.29437
 20
-2.21953
 30
0.0
 10
-34.29437
 20
-2.21953
 30
0.0
 10
-34.29437
 20
-2.21953
 30
0.0
 10
-34.20091
 20
-2.1252
 30
0.0
 10
-34.20091
 20
-2.1252
 30
0.0
 10
-34.20091
 20
-2.1252
 30
0.0
 10
-29.85631
 20
-2.1252
 30
0.0
 10
-29.85631
 20
-2.1252
 30
0.0
 10
-29.85631
 20
-2.1252
 30
0.0
 10
-29.85631
 20
-1.89071
 30
0.0
 10
-29.85631
 20
-1.89071
 30
0.0
 10
-29.85631
 20
-1.89071
 30
0.0
 10
-34.20201
 20
-1.89071
 30
0.0
 10
-34.20201
 20
-1.89071
 30
0.0
 10
-34.20201
 20
-1.89071
 30
0.0
 10
-34.29437
 20
-1.80501
 30
0.0
 10
-34.29437
 20
-1.80501
 30
0.0
 10
-34.29437
 20
-1.80501
 30
0.0
 10
-34.29437
 20
-0.45876
 30
0.0
 10
-34.29437
 20
-0.45876
 30
0.0
 10
-34.29437
 20
-0.45876
 30
0.0
 10
-33.79418
 20
-0.46653
 30
0.0
 10
-33.79418
 20
-0.46653
 30
0.0
 10
-33.79418
 20
-0.46653
 30
0.0
 10
-33.79226
 20
0.28091
 30
0.0
 10
-33.79226
 20
0.28091
 30
0.0
 10
-33.79226
 20
0.28091
 30
0.0
 10
-34.29437
 20
0.28091
 30
0.0
 10
-34.29437
 20
0.28091
 30
0.0
 10
-34.29437
 20
0.28091
 30
0.0
 10
-34.29437
 20
0.78189
 30
0.0
 10
-34.29437
 20
0.78189
 30
0.0
 10
-34.29437
 20
0.78189
 30
0.0
 10
-33.79097
 20
0.78189
 30
0.0
 10
-33.79097
 20
0.78189
 30
0.0
 10
-33.79097
 20
0.78189
 30
0.0
 10
-33.79034
 20
0.93834
 30
0.0
 10
-33.79034
 20
0.93834
 30
0.0
  0
SPLINE
  5
B3
330
1F
100
AcDbEntity
  8
layer 1
 62
   250
370
     9
100
AcDbSpline
210
0.0
220
0.0
230
1.0
 70
    11
 71
     3
 72
    17
 73
    13
 74
     0
 42
0.0000000001
 43
0.0000000001
 40
0.0
 40
0.0
 40
0.0
 40
0.0
 40
0.25
 40
0.25
 40
0.25
 40
0.5
 40
0.5
 40
0.5
 40
0.75
 40
0.75
 40
0.75
 40
1.0
 40
1.0
 40
1.0
 40
1.0
 10
-27.85632
 20
-11.30718
 30
0.0
 10
-27.85632
 20
-11.30718
 30
0.0
 10
-16.93242
 20
-11.30718
 30
0.0
 10
-16.93242
 20
-11.30718
 30
0.0
 10
-16.93242
 20
-11.30718
 30
0.0
 10
-16.93242
 20
-11.08377
 30
0.0
 10
-16.93242
 20
-11.08377
 30
0.0
 10
-16.93242
 20
-11.08377
 30
0.0
 10
-27.85632
 20
-11.08377
 30
0.0
 10
-27.85632
 20
-11.08377
 30
0.0
 10
-27.85632
 20
-11.08377
 30
0.0
 10
-27.85632
 20
-11.30718
 30
0.0
 10
-27.85632
 20
-11.30718
 30
0.0
  0
SPLINE
  5
B4
330
1F
100
AcDbEntity
  8
layer 1
 62
   250
370
     9
100
AcDbSpline
210
0.0
220
0.0
230
1.0
 70
    11
 71
     3
 72
    17
 73
    13
 74
     0
 42
0.0000000001
 43
0.0000000001
 40
0.0
 40
0.0
 40
0.0
 40
0.0
 40
0.25
 40
0.25
 40
0.25
 40
0.5
 40
0.5
 40
0.5
 40
0.75
 40
0.75
 40
0.75
 40
1.0
 40
1.0
 40
1.0
 40
1.0
 10
-27.85632
 20
-8.14754
 30
0.0
 10
-27.85632
 20
-8.14754
 30
0.0
 10
-16.93242
 20
-8.14754
 30
0.0
 10
-16.93242
 20
-8.14754
 30
0.0
 10
-16.93242
 20
-8.14754
 30
0.0
 10
-16.93242
 20
-7.92413
 30
0.0
 10
-16.93242
 20
-7.92413
 30
0.0
 10
-16.93242
 20
-7.92413
 30
0.0
 10
-27.85632
 20
-7.92413
 30
0.0
 10
-27.85632
 20
-7.92413
 30
0.0
 10
-27.85632
 20
-7.92413
 30
0.0
 10
-27.85632
 20
-8.14754
 30
0.0
 10
-27.85632
 20
-8.14754
 30
0.0
  0
SPLINE
  5
B5
330
1F
100
AcDbEntity
  8
layer 1
 62
   250
370
     9
100
AcDbSpline
210
0.0
220
0.0
230
1.0
 70
    11
 71
     3
 72
    17
 73
    13
 74
     0
 42
0.0000000001
 43
0.0000000001
 40
0.0
 40
0.0
 40
0.0
 40
0.0
 40
0.25
 40
0.25
 40
0.25
 40
0.5
 40
0.5
 40
0.5
 40
0.75
 40
0.75
 40
0.75
 40
1.0
 40
1.0
 40
1.0
 40
1.0
 10
-27.85632
 20
-4.98873
 30
0.0
 10
-27.85632
 20
-4.98873
 30
0.0
 10
-16.93242
 20
-4.98873
 30
0.0
 10
-16.93242
 20
-4.98873
 30
0.0
 10
-16.93242
 20
-4.98873
 30
0.0
 10
-16.93242
 20
-4.76425
 30
0.0
 10
-16.93242
 20
-4.76425
 30
0.0
 10
-16.93242
 20
-4.76425
 30
0.0
 10
-27.85632
 20
-4.76425
 30
0.0
 10
-27.85632
 20
-4.76425
 30
0.0
 10
-27.85632
 20
-4.76425
 30
0.0
 10
-27.85632
 20
-4.98873
 30
0.0
 10
-27.85632
 20
-4.98873
 30
0.0
  0
SPLINE
  5
B6
330
1F
100
AcDbEntity
  8
layer 1
 62
   250
370
     9
100
AcDbSpline
210
0.0
220
0.0
230
1.0
 70
    11
 71
     3
 72
    17
 73
    13
 74
     0
 42
0.0000000001
 43
0.0000000001
 40
0.0
 40
0.0
 40
0.0
 40
0.0
 40
0.25
 40
0.25
 40
0.25
 40
0.5
 40
0.5
 40
0.5
 40
0.75
 40
0.75
 40
0.75
 40
1.0
 40
1.0
 40
1.0
 40
1.0
 10
-27.85632
 20
-2.1252
 30
0.0
 10
-27.85632
 20
-2.1252
 30
0.0
 10
-16.93242
 20
-2.1252
 30
0.0
 10
-16.93242
 20
-2.1252
 30
0.0
 10
-16.93242
 20
-2.1252
 30
0.0
 10
-16.93242
 20
-1.89071
 30
0.0
 10
-16.93242
 20
-1.89071
 30
0.0
 10
-16.93242
 20
-1.89071
 30
0.0
 10
-27.85632
 20
-1.89071
 30
0.0
 10
-27.85632
 20
-1.89071
 30
0.0
 10
-27.85632
 20
-1.89071
 30
0.0
 10
-27.85632
 20
-2.1252
 30
0.0
 10
-27.85632
 20
-2.1252
 30
0.0
  0
SPLINE
  5
B7
330
1F
100
AcDbEntity
  8
layer 1
 62
   250
370
     9
100
AcDbSpline
210
0.0
220
0.0
230
1.0
 70
    11
 71
     3
 72
    17
 73
    13
 74
     0
 42
0.0000000001
 43
0.0000000001
 40
0.0
 40
0.0
 40
0.0
 40
0.0
 40
0.25
 40
0.25
 40
0.25
 40
0.5
 40
0.5
 40
0.5
 40
0.75
 40
0.75
 40
0.75
 40
1.0
 40
1.0
 40
1.0
 40
1.0
 10
-15.73076
 20
-1.15948
 30
0.0
 10
-15.73076
 20
-1.15948
 30
0.0
 10
-16.13076
 20
-1.15948
 30
0.0
 10
-16.13076
 20
-1.15948
 30
0.0
 10
-16.13076
 20
-1.15948
 30
0.0
 10
-16.13076
 20
-10.79342
 30
0.0
 10
-16.13076
 20
-10.79342
 30
0.0
 10
-16.13076
 20
-10.79342
 30
0.0
 10
-15.73076
 20
-10.79342
 30
0.0
 10
-15.73076
 20
-10.79342
 30
0.0
 10
-15.73076
 20
-10.79342
 30
0.0
 10
-15.73076
 20
-1.15948
 30
0.0
 10
-15.73076
 20
-1.15948
 30
0.0
  0
SPLINE
  5
B8
330
1F
100
AcDbEntity
  8
layer 1
 62
   250
370
     9
100
AcDbSpline
210
0.0
220
0.0
230
1.0
 70
    11
 71
     3
 72
    17
 73
    13
 74
     0
 42
0.0000000001
 43
0.0000000001
 40
0.0
 40
0.0
 40
0.0
 40
0.0
 40
0.25
 40
0.25
 40
0.25
 40
0.5
 40
0.5
 40
0.5
 40
0.75
 40
0.75
 40
0.75
 40
1.0
 40
1.0
 40
1.0
 40
1.0
 10
-28.65438
 20
-1.15948
 30
0.0
 10
-28.65438
 20
-1.15948
 30
0.0
 10
-29.05438
 20
-1.15948
 30
0.0
 10
-29.05438
 20
-1.15948
 30
0.0
 10
-29.05438
 20
-1.15948
 30
0.0
 10
-29.05438
 20
-10.7913
 30
0.0
 10
-29.05438
 20
-10.7913
 30
0.0
 10
-29.05438
 20
-10.7913
 30
0.0
 10
-28.65438
 20
-10.7913
 30
0.0
 10
-28.65438
 20
-10.7913
 30
0.0
 10
-28.65438
 20
-10.7913
 30
0.0
 10
-28.65438
 20
-1.15948
 30
0.0
 10
-28.65438
 20
-1.15948
 30
0.0
  0
SPLINE
  5
B9
330
1F
100
AcDbEntity
  8
layer 1
 62
   250
370
     9
100
AcDbSpline
210
0.0
220
0.0
230
1.0
 70
    11
 71
     3
 72
    17
 73
    13
 74
     0
 42
0.0000000001
 43
0.0000000001
 40
0.0
 40
0.0
 40
0.0
 40
0.0
 40
0.25
 40
0.25
 40
0.25
 40
0.5
 40
0.5
 40
0.5
 40
0.75
 40
0.75
 40
0.75
 40
1.0
 40
1.0
 40
1.0
 40
1.0
 10
-28.65438
 20
-1.6265
 30
0.0
 10
-28.65438
 20
-1.6265
 30
0.0
 10
-29.05438
 20
-1.6265
 30
0.0
 10
-29.05438
 20
-1.6265
 30
0.0
 10
-29.05438
 20
-1.6265
 30
0.0
 10
-29.05438
 20
-10.79372
 30
0.0
 10
-29.05438
 20
-10.79372
 30
0.0
 10
-29.05438
 20
-10.79372
 30
0.0
 10
-28.65438
 20
-10.79372
 30
0.0
 10
-28.65438
 20
-10.79372
 30
0.0
 10
-28.65438
 20
-10.79372
 30
0.0
 10
-28.65438
 20
-1.6265
 30
0.0
 10
-28.65438
 20
-1.6265
 30
0.0
  0
SPLINE
  5
BA
330
1F
100
AcDbEntity
  8
layer 1
 62
   250
370
     9
100
AcDbSpline
210
0.0
220
0.0
230
1.0
 70
    11
 71
     3
 72
    17
 73
    13
 74
     0
 42
0.0000000001
 43
0.0000000001
 40
0.0
 40
0.0
 40
0.0
 40
0.0
 40
0.25
 40
0.25
 40
0.25
 40
0.5
 40
0.5
 40
0.5
 40
0.75
 40
0.75
 40
0.75
 40
1.0
 40
1.0
 40
1.0
 40
1.0
 10
-15.72632
 20
-1.6262
 30
0.0
 10
-15.72632
 20
-1.6262
 30
0.0
 10
-16.12632
 20
-1.6262
 30
0.0
 10
-16.12632
 20
-1.6262
 30
0.0
 10
-16.12632
 20
-1.6262
 30
0.0
 10
-16.12632
 20
-10.79342
 30
0.0
 10
-16.12632
 20
-10.79342
 30
0.0
 10
-16.12632
 20
-10.79342
 30
0.0
 10
-15.72632
 20
-10.79342
 30
0.0
 10
-15.72632
 20
-10.79342
 30
0.0
 10
-15.72632
 20
-10.79342
 30
0.0
 10
-15.72632
 20
-1.6262
 30
0.0
 10
-15.72632
 20
-1.6262
 30
0.0
  0
SPLINE
  5
BB
330
1F
100
AcDbEntity
  8
layer 1
 62
   250
370
     9
100
AcDbSpline
210
0.0
220
0.0
230
1.0
 70
    11
 71
     3
 72
    29
 73
    25
 74
     0
 42
0.0000000001
 43
0.0000000001
 40
0.0
 40
0.0
 40
0.0
 40
0.0
 40
0.125
 40
0.125
 40
0.125
 40
0.25
 40
0.25
 40
0.25
 40
0.375
 40
0.375
 40
0.375
 40
0.5
 40
0.5
 40
0.5
 40
0.625
 40
0.625
 40
0.625
 40
0.75
 40
0.75
 40
0.75
 40
0.875
 40
0.875
 40
0.875
 40
1.0
 40
1.0
 40
1.0
 40
1.0
 10
6.02485
 20
-10.50248
 30
0.0
 10
6.02485
 20
-10.50248
 30
0.0
 10
6.02485
 20
-8.76464
 30
0.0
 10
6.02485
 20
-8.76464
 30
0.0
 10
6.02485
 20
-8.69314
 30
0.0
 10
6.07174
 20
-8.63464
 30
0.0
 10
6.12906
 20
-8.63464
 30
0.0
 10
6.12906
 20
-8.63464
 30
0.0
 10
12.22065
 20
-8.63464
 30
0.0
 10
12.22065
 20
-8.63464
 30
0.0
 10
12.27796
 20
-8.63464
 30
0.0
 10
12.32485
 20
-8.69314
 30
0.0
 10
12.32485
 20
-8.76464
 30
0.0
 10
12.32485
 20
-8.76464
 30
0.0
 10
12.32485
 20
-10.50248
 30
0.0
 10
12.32485
 20
-10.50248
 30
0.0
 10
12.32485
 20
-10.57398
 30
0.0
 10
12.27796
 20
-10.63248
 30
0.0
 10
12.22065
 20
-10.63248
 30
0.0
 10
12.22065
 20
-10.63248
 30
0.0
 10
6.12906
 20
-10.63248
 30
0.0
 10
6.12906
 20
-10.63248
 30
0.0
 10
6.07174
 20
-10.63248
 30
0.0
 10
6.02485
 20
-10.57398
 30
0.0
 10
6.02485
 20
-10.50248
 30
0.0
  0
SPLINE
  5
BC
330
1F
100
AcDbEntity
  8
layer 1
 62
   114
370
     9
100
AcDbSpline
210
0.0
220
0.0
230
1.0
 70
    11
 71
     3
 72
    17
 73
    13
 74
     0
 42
0.0000000001
 43
0.0000000001
 40
0.0
 40
0.0
 40
0.0
 40
0.0
 40
0.25
 40
0.25
 40
0.25
 40
0.5
 40
0.5
 40
0.5
 40
0.75
 40
0.75
 40
0.75
 40
1.0
 40
1.0
 40
1.0
 40
1.0
 10
6.20849
 20
-10.07229
 30
0.0
 10
6.20849
 20
-9.98584
 30
0.0
 10
6.27858
 20
-9.91575
 30
0.0
 10
6.36503
 20
-9.91575
 30
0.0
 10
6.45149
 20
-9.91575
 30
0.0
 10
6.52158
 20
-9.98584
 30
0.0
 10
6.52158
 20
-10.07229
 30
0.0
 10
6.52158
 20
-10.15875
 30
0.0
 10
6.45149
 20
-10.22884
 30
0.0
 10
6.36503
 20
-10.22884
 30
0.0
 10
6.27858
 20
-10.22884
 30
0.0
 10
6.20849
 20
-10.15875
 30
0.0
 10
6.20849
 20
-10.07229
 30
0.0
  0
SPLINE
  5
BD
330
1F
100
AcDbEntity
  8
layer 1
 62
   114
370
     9
100
AcDbSpline
210
0.0
220
0.0
230
1.0
 70
    24
 71
     3
 72
     8
 73
     4
 74
     0
 42
0.0000000001
 43
0.0000000001
 40
0.0
 40
0.0
 40
0.0
 40
0.0
 40
1.0
 40
1.0
 40
1.0
 40
1.0
 10
6.44782
 20
-10.20518
 30
0.0
 10
6.44782
 20
-10.20518
 30
0.0
 10
6.26117
 20
-9.95517
 30
0.0
 10
6.26117
 20
-9.95517
 30
0.0
  0
SPLINE
  5
BE
330
1F
100
AcDbEntity
  8
layer 1
 62
   114
370
     9
100
AcDbSpline
210
0.0
220
0.0
230
1.0
 70
    11
 71
     3
 72
    17
 73
    13
 74
     0
 42
0.0000000001
 43
0.0000000001
 40
0.0
 40
0.0
 40
0.0
 40
0.0
 40
0.25
 40
0.25
 40
0.25
 40
0.5
 40
0.5
 40
0.5
 40
0.75
 40
0.75
 40
0.75
 40
1.0
 40
1.0
 40
1.0
 40
1.0
 10
7.04331
 20
-9.26099
 30
0.0
 10
7.00678
 20
-9.18264
 30
0.0
 10
7.04068
 20
-9.08949
 30
0.0
 10
7.11903
 20
-9.05296
 30
0.0
 10
7.19739
 20
-9.01642
 30
0.0
 10
7.29053
 20
-9.05032
 30
0.0
 10
7.32707
 20
-9.12867
 30
0.0
 10
7.36361
 20
-9.20703
 30
0.0
 10
7.32971
 20
-9.30017
 30
0.0
 10
7.25135
 20
-9.33671
 30
0.0
 10
7.17299
 20
-9.37325
 30
0.0
 10
7.07985
 20
-9.33935
 30
0.0
 10
7.04331
 20
-9.26099
 30
0.0
  0
SPLINE
  5
BF
330
1F
100
AcDbEntity
  8
layer 1
 62
   114
370
     9
100
AcDbSpline
210
0.0
220
0.0
230
1.0
 70
    24
 71
     3
 72
     8
 73
     4
 74
     0
 42
0.0000000001
 43
0.0000000001
 40
0.0
 40
0.0
 40
0.0
 40
0.0
 40
1.0
 40
1.0
 40
1.0
 40
1.0
 10
7.31638
 20
-9.28028
 30
0.0
 10
7.31638
 20
-9.28028
 30
0.0
 10
7.04156
 20
-9.13258
 30
0.0
 10
7.04156
 20
-9.13258
 30
0.0
  0
SPLINE
  5
C0
330
1F
100
AcDbEntity
  8
layer 1
 62
   114
370
     9
100
AcDbSpline
210
0.0
220
0.0
230
1.0
 70
    11
 71
     3
 72
    17
 73
    13
 74
     0
 42
0.0000000001
 43
0.0000000001
 40
0.0
 40
0.0
 40
0.0
 40
0.0
 40
0.25
 40
0.25
 40
0.25
 40
0.5
 40
0.5
 40
0.5
 40
0.75
 40
0.75
 40
0.75
 40
1.0
 40
1.0
 40
1.0
 40
1.0
 10
8.25821
 20
-10.07229
 30
0.0
 10
8.25821
 20
-9.98584
 30
0.0
 10
8.3283
 20
-9.91575
 30
0.0
 10
8.41475
 20
-9.91575
 30
0.0
 10
8.50121
 20
-9.91575
 30
0.0
 10
8.5713
 20
-9.98584
 30
0.0
 10
8.5713
 20
-10.07229
 30
0.0
 10
8.5713
 20
-10.15875
 30
0.0
 10
8.50121
 20
-10.22884
 30
0.0
 10
8.41475
 20
-10.22884
 30
0.0
 10
8.3283
 20
-10.22884
 30
0.0
 10
8.25821
 20
-10.15875
 30
0.0
 10
8.25821
 20
-10.07229
 30
0.0
  0
SPLINE
  5
C1
330
1F
100
AcDbEntity
  8
layer 1
 62
   114
370
     9
100
AcDbSpline
210
0.0
220
0.0
230
1.0
 70
    24
 71
     3
 72
     8
 73
     4
 74
     0
 42
0.0000000001
 43
0.0000000001
 40
0.0
 40
0.0
 40
0.0
 40
0.0
 40
1.0
 40
1.0
 40
1.0
 40
1.0
 10
8.49754
 20
-10.20518
 30
0.0
 10
8.49754
 20
-10.20518
 30
0.0
 10
8.31089
 20
-9.95517
 30
0.0
 10
8.31089
 20
-9.95517
 30
0.0
  0
SPLINE
  5
C2
330
1F
100
AcDbEntity
  8
layer 1
 62
   114
370
     9
100
AcDbSpline
210
0.0
220
0.0
230
1.0
 70
    11
 71
     3
 72
    17
 73
    13
 74
     0
 42
0.0000000001
 43
0.0000000001
 40
0.0
 40
0.0
 40
0.0
 40
0.0
 40
0.25
 40
0.25
 40
0.25
 40
0.5
 40
0.5
 40
0.5
 40
0.75
 40
0.75
 40
0.75
 40
1.0
 40
1.0
 40
1.0
 40
1.0
 10
9.14512
 20
-9.32307
 30
0.0
 10
9.0743
 20
-9.27348
 30
0.0
 10
9.05709
 20
-9.17586
 30
0.0
 10
9.10667
 20
-9.10504
 30
0.0
 10
9.15626
 20
-9.03422
 30
0.0
 10
9.25388
 20
-9.01701
 30
0.0
 10
9.3247
 20
-9.0666
 30
0.0
 10
9.39552
 20
-9.11619
 30
0.0
 10
9.41273
 20
-9.2138
 30
0.0
 10
9.36314
 20
-9.28462
 30
0.0
 10
9.31355
 20
-9.35544
 30
0.0
 10
9.21594
 20
-9.37266
 30
0.0
 10
9.14512
 20
-9.32307
 30
0.0
  0
SPLINE
  5
C3
330
1F
100
AcDbEntity
  8
layer 1
 62
   114
370
     9
100
AcDbSpline
210
0.0
220
0.0
230
1.0
 70
    24
 71
     3
 72
     8
 73
     4
 74
     0
 42
0.0000000001
 43
0.0000000001
 40
0.0
 40
0.0
 40
0.0
 40
0.0
 40
1.0
 40
1.0
 40
1.0
 40
1.0
 10
9.39125
 20
-9.20324
 30
0.0
 10
9.39125
 20
-9.20324
 30
0.0
 10
9.07939
 20
-9.21273
 30
0.0
 10
9.07939
 20
-9.21273
 30
0.0
  0
SPLINE
  5
C4
330
1F
100
AcDbEntity
  8
layer 1
 62
   114
370
     9
100
AcDbSpline
210
0.0
220
0.0
230
1.0
 70
    11
 71
     3
 72
    17
 73
    13
 74
     0
 42
0.0000000001
 43
0.0000000001
 40
0.0
 40
0.0
 40
0.0
 40
0.0
 40
0.25
 40
0.25
 40
0.25
 40
0.5
 40
0.5
 40
0.5
 40
0.75
 40
0.75
 40
0.75
 40
1.0
 40
1.0
 40
1.0
 40
1.0
 10
10.83649
 20
-10.22884
 30
0.0
 10
10.75003
 20
-10.22884
 30
0.0
 10
10.67995
 20
-10.15875
 30
0.0
 10
10.67995
 20
-10.07229
 30
0.0
 10
10.67995
 20
-9.98584
 30
0.0
 10
10.75003
 20
-9.91575
 30
0.0
 10
10.83649
 20
-9.91575
 30
0.0
 10
10.92295
 20
-9.91575
 30
0.0
 10
10.99304
 20
-9.98584
 30
0.0
 10
10.99304
 20
-10.07229
 30
0.0
 10
10.99304
 20
-10.15875
 30
0.0
 10
10.92295
 20
-10.22884
 30
0.0
 10
10.83649
 20
-10.22884
 30
0.0
  0
SPLINE
  5
C5
330
1F
100
AcDbEntity
  8
layer 1
 62
   114
370
     9
100
AcDbSpline
210
0.0
220
0.0
230
1.0
 70
    24
 71
     3
 72
     8
 73
     4
 74
     0
 42
0.0000000001
 43
0.0000000001
 40
0.0
 40
0.0
 40
0.0
 40
0.0
 40
1.0
 40
1.0
 40
1.0
 40
1.0
 10
10.91928
 20
-10.20518
 30
0.0
 10
10.91928
 20
-10.20518
 30
0.0
 10
10.73263
 20
-9.95517
 30
0.0
 10
10.73263
 20
-9.95517
 30
0.0
  0
SPLINE
  5
C6
330
1F
100
AcDbEntity
  8
layer 1
 62
   114
370
     9
100
AcDbSpline
210
0.0
220
0.0
230
1.0
 70
    11
 71
     3
 72
    17
 73
    13
 74
     0
 42
0.0000000001
 43
0.0000000001
 40
0.0
 40
0.0
 40
0.0
 40
0.0
 40
0.25
 40
0.25
 40
0.25
 40
0.5
 40
0.5
 40
0.5
 40
0.75
 40
0.75
 40
0.75
 40
1.0
 40
1.0
 40
1.0
 40
1.0
 10
11.53673
 20
-9.29546
 30
0.0
 10
11.48116
 20
-9.22923
 30
0.0
 10
11.4898
 20
-9.13049
 30
0.0
 10
11.55603
 20
-9.07491
 30
0.0
 10
11.62226
 20
-9.01934
 30
0.0
 10
11.721
 20
-9.02798
 30
0.0
 10
11.77657
 20
-9.09421
 30
0.0
 10
11.83214
 20
-9.16044
 30
0.0
 10
11.82351
 20
-9.25918
 30
0.0
 10
11.75728
 20
-9.31475
 30
0.0
 10
11.69105
 20
-9.37033
 30
0.0
 10
11.5923
 20
-9.36169
 30
0.0
 10
11.53673
 20
-9.29546
 30
0.0
  0
SPLINE
  5
C7
330
1F
100
AcDbEntity
  8
layer 1
 62
   114
370
     9
100
AcDbSpline
210
0.0
220
0.0
230
1.0
 70
    24
 71
     3
 72
     8
 73
     4
 74
     0
 42
0.0000000001
 43
0.0000000001
 40
0.0
 40
0.0
 40
0.0
 40
0.0
 40
1.0
 40
1.0
 40
1.0
 40
1.0
 10
11.80548
 20
-9.24342
 30
0.0
 10
11.80548
 20
-9.24342
 30
0.0
 10
11.5018
 20
-9.17187
 30
0.0
 10
11.5018
 20
-9.17187
 30
0.0
  0
SPLINE
  5
C8
330
1F
100
AcDbEntity
  8
layer 1
 62
   250
370
     9
100
AcDbSpline
210
0.0
220
0.0
230
1.0
 70
    11
 71
     3
 72
    47
 73
    43
 74
     0
 42
0.0000000001
 43
0.0000000001
 40
0.0
 40
0.0
 40
0.0
 40
0.0
 40
0.0714285714285714
 40
0.0714285714285714
 40
0.0714285714285714
 40
0.1428571428571428
 40
0.1428571428571428
 40
0.1428571428571428
 40
0.2142857142857143
 40
0.2142857142857143
 40
0.2142857142857143
 40
0.2857142857142857
 40
0.2857142857142857
 40
0.2857142857142857
 40
0.3571428571428571
 40
0.3571428571428571
 40
0.3571428571428571
 40
0.4285714285714285
 40
0.4285714285714285
 40
0.4285714285714285
 40
0.5
 40
0.5
 40
0.5
 40
0.5714285714285714
 40
0.5714285714285714
 40
0.5714285714285714
 40
0.6428571428571428
 40
0.6428571428571428
 40
0.6428571428571428
 40
0.7142857142857142
 40
0.7142857142857142
 40
0.7142857142857142
 40
0.7857142857142857
 40
0.7857142857142857
 40
0.7857142857142857
 40
0.8571428571428571
 40
0.8571428571428571
 40
0.8571428571428571
 40
0.9285714285714285
 40
0.9285714285714285
 40
0.9285714285714285
 40
1.0
 40
1.0
 40
1.0
 40
1.0
 10
32.18439
 20
-12.60563
 30
0.0
 10
32.18439
 20
-12.60563
 30
0.0
 10
30.4044
 20
-12.60563
 30
0.0
 10
30.4044
 20
-12.60563
 30
0.0
 10
30.3439
 20
-12.60563
 30
0.0
 10
30.2944
 20
-12.55611
 30
0.0
 10
30.2944
 20
-12.49563
 30
0.0
 10
30.2944
 20
-12.49563
 30
0.0
 10
30.2944
 20
2.19757
 30
0.0
 10
30.2944
 20
2.19757
 30
0.0
 10
30.2944
 20
2.25801
 30
0.0
 10
30.34394
 20
2.30757
 30
0.0
 10
30.4044
 20
2.30757
 30
0.0
 10
30.4044
 20
2.30757
 30
0.0
 10
30.55608
 20
2.30757
 30
0.0
 10
30.55608
 20
2.30757
 30
0.0
 10
30.55608
 20
2.30757
 30
0.0
 10
30.55608
 20
2.61802
 30
0.0
 10
30.55608
 20
2.61802
 30
0.0
 10
30.55608
 20
2.6838
 30
0.0
 10
30.61004
 20
2.73777
 30
0.0
 10
30.67584
 20
2.73777
 30
0.0
 10
30.67584
 20
2.73777
 30
0.0
 10
31.92296
 20
2.73777
 30
0.0
 10
31.92296
 20
2.73777
 30
0.0
 10
31.98876
 20
2.73777
 30
0.0
 10
32.04272
 20
2.68387
 30
0.0
 10
32.04272
 20
2.61802
 30
0.0
 10
32.04272
 20
2.61802
 30
0.0
 10
32.04272
 20
2.30757
 30
0.0
 10
32.04272
 20
2.30757
 30
0.0
 10
32.04272
 20
2.30757
 30
0.0
 10
32.18439
 20
2.30757
 30
0.0
 10
32.18439
 20
2.30757
 30
0.0
 10
32.24486
 20
2.30757
 30
0.0
 10
32.29439
 20
2.25805
 30
0.0
 10
32.29439
 20
2.19757
 30
0.0
 10
32.29439
 20
2.19757
 30
0.0
 10
32.29439
 20
-12.49563
 30
0.0
 10
32.29439
 20
-12.49563
 30
0.0
 10
32.29439
 20
-12.55611
 30
0.0
 10
32.24489
 20
-12.60563
 30
0.0
 10
32.18439
 20
-12.60563
 30
0.0
  0
SPLINE
  5
C9
330
1F
100
AcDbEntity
  8
layer 1
 62
   114
370
     9
100
AcDbSpline
210
0.0
220
0.0
230
1.0
 70
    11
 71
     3
 72
    17
 73
    13
 74
     0
 42
0.0000000001
 43
0.0000000001
 40
0.0
 40
0.0
 40
0.0
 40
0.0
 40
0.25
 40
0.25
 40
0.25
 40
0.5
 40
0.5
 40
0.5
 40
0.75
 40
0.75
 40
0.75
 40
1.0
 40
1.0
 40
1.0
 40
1.0
 10
31.4944
 20
-10.0432
 30
0.0
 10
31.4944
 20
-10.0432
 30
0.0
 10
31.0944
 20
-10.0432
 30
0.0
 10
31.0944
 20
-10.0432
 30
0.0
 10
31.0944
 20
-10.0432
 30
0.0
 10
31.0944
 20
-0.87598
 30
0.0
 10
31.0944
 20
-0.87598
 30
0.0
 10
31.0944
 20
-0.87598
 30
0.0
 10
31.4944
 20
-0.87598
 30
0.0
 10
31.4944
 20
-0.87598
 30
0.0
 10
31.4944
 20
-0.87598
 30
0.0
 10
31.4944
 20
-10.0432
 30
0.0
 10
31.4944
 20
-10.0432
 30
0.0
  0
SPLINE
  5
CA
330
1F
100
AcDbEntity
  8
layer 1
 62
   250
370
     9
100
AcDbSpline
210
0.0
220
0.0
230
1.0
 70
    11
 71
     3
 72
    17
 73
    13
 74
     0
 42
0.0000000001
 43
0.0000000001
 40
0.0
 40
0.0
 40
0.0
 40
0.0
 40
0.25
 40
0.25
 40
0.25
 40
0.5
 40
0.5
 40
0.5
 40
0.75
 40
0.75
 40
0.75
 40
1.0
 40
1.0
 40
1.0
 40
1.0
 10
8.38772
 20
-0.66841
 30
0.0
 10
8.38772
 20
-0.66841
 30
0.0
 10
9.96436
 20
-0.66841
 30
0.0
 10
9.96436
 20
-0.66841
 30
0.0
 10
9.96436
 20
-0.66841
 30
0.0
 10
9.96436
 20
-1.12861
 30
0.0
 10
9.96436
 20
-1.12861
 30
0.0
 10
9.96436
 20
-1.12861
 30
0.0
 10
8.38772
 20
-1.12861
 30
0.0
 10
8.38772
 20
-1.12861
 30
0.0
 10
8.38772
 20
-1.12861
 30
0.0
 10
8.38772
 20
-0.66841
 30
0.0
 10
8.38772
 20
-0.66841
 30
0.0
  0
SPLINE
  5
CB
330
1F
100
AcDbEntity
  8
layer 1
 62
   250
370
     9
100
AcDbSpline
210
0.0
220
0.0
230
1.0
 70
    11
 71
     3
 72
    29
 73
    25
 74
     0
 42
0.0000000001
 43
0.0000000001
 40
0.0
 40
0.0
 40
0.0
 40
0.0
 40
0.125
 40
0.125
 40
0.125
 40
0.25
 40
0.25
 40
0.25
 40
0.375
 40
0.375
 40
0.375
 40
0.5
 40
0.5
 40
0.5
 40
0.625
 40
0.625
 40
0.625
 40
0.75
 40
0.75
 40
0.75
 40
0.875
 40
0.875
 40
0.875
 40
1.0
 40
1.0
 40
1.0
 40
1.0
 10
8.30712
 20
-0.23821
 30
0.0
 10
8.30712
 20
-0.23821
 30
0.0
 10
10.04496
 20
-0.23821
 30
0.0
 10
10.04496
 20
-0.23821
 30
0.0
 10
10.11646
 20
-0.23821
 30
0.0
 10
10.17496
 20
-0.29991
 30
0.0
 10
10.17496
 20
-0.37534
 30
0.0
 10
10.17496
 20
-0.37534
 30
0.0
 10
10.17496
 20
-8.39168
 30
0.0
 10
10.17496
 20
-8.39168
 30
0.0
 10
10.17496
 20
-8.46711
 30
0.0
 10
10.11646
 20
-8.52881
 30
0.0
 10
10.04496
 20
-8.52881
 30
0.0
 10
10.04496
 20
-8.52881
 30
0.0
 10
8.30712
 20
-8.52881
 30
0.0
 10
8.30712
 20
-8.52881
 30
0.0
 10
8.23562
 20
-8.52881
 30
0.0
 10
8.17712
 20
-8.46711
 30
0.0
 10
8.17712
 20
-8.39168
 30
0.0
 10
8.17712
 20
-8.39168
 30
0.0
 10
8.17712
 20
-0.37534
 30
0.0
 10
8.17712
 20
-0.37534
 30
0.0
 10
8.17712
 20
-0.29991
 30
0.0
 10
8.23562
 20
-0.23821
 30
0.0
 10
8.30712
 20
-0.23821
 30
0.0
  0
ELLIPSE
  5
CC
330
1F
100
AcDbEntity
  8
layer 1
 62
   114
370
     9
100
AcDbEllipse
 10
8.7373
 20
-2.2074
 30
0.0
 11
0.0
 21
0.15655
 31
0.0
210
0.0
220
0.0
230
1.0
 40
1.0
 41
0.0
 42
6.283185307179586
  0
SPLINE
  5
CD
330
1F
100
AcDbEntity
  8
layer 1
 62
   114
370
     9
100
AcDbSpline
210
0.0
220
0.0
230
1.0
 70
    24
 71
     3
 72
     8
 73
     4
 74
     0
 42
0.0000000001
 43
0.0000000001
 40
0.0
 40
0.0
 40
0.0
 40
0.0
 40
1.0
 40
1.0
 40
1.0
 40
1.0
 10
8.60441
 20
-2.29018
 30
0.0
 10
8.60441
 20
-2.29018
 30
0.0
 10
8.85442
 20
-2.10353
 30
0.0
 10
8.85442
 20
-2.10353
 30
0.0
  0
SPLINE
  5
CE
330
1F
100
AcDbEntity
  8
layer 1
 62
   114
370
     9
100
AcDbSpline
210
0.0
220
0.0
230
1.0
 70
    11
 71
     3
 72
    17
 73
    13
 74
     0
 42
0.0000000001
 43
0.0000000001
 40
0.0
 40
0.0
 40
0.0
 40
0.0
 40
0.25
 40
0.25
 40
0.25
 40
0.5
 40
0.5
 40
0.5
 40
0.75
 40
0.75
 40
0.75
 40
1.0
 40
1.0
 40
1.0
 40
1.0
 10
9.5486
 20
-2.88567
 30
0.0
 10
9.62695
 20
-2.84914
 30
0.0
 10
9.7201
 20
-2.88304
 30
0.0
 10
9.75663
 20
-2.96139
 30
0.0
 10
9.79317
 20
-3.03975
 30
0.0
 10
9.75927
 20
-3.13289
 30
0.0
 10
9.68092
 20
-3.16943
 30
0.0
 10
9.60256
 20
-3.20597
 30
0.0
 10
9.50942
 20
-3.17207
 30
0.0
 10
9.47288
 20
-3.09371
 30
0.0
 10
9.43634
 20
-3.01535
 30
0.0
 10
9.47024
 20
-2.92221
 30
0.0
 10
9.5486
 20
-2.88567
 30
0.0
  0
SPLINE
  5
CF
330
1F
100
AcDbEntity
  8
layer 1
 62
   114
370
     9
100
AcDbSpline
210
0.0
220
0.0
230
1.0
 70
    24
 71
     3
 72
     8
 73
     4
 74
     0
 42
0.0000000001
 43
0.0000000001
 40
0.0
 40
0.0
 40
0.0
 40
0.0
 40
1.0
 40
1.0
 40
1.0
 40
1.0
 10
9.52931
 20
-3.15874
 30
0.0
 10
9.52931
 20
-3.15874
 30
0.0
 10
9.67701
 20
-2.88392
 30
0.0
 10
9.67701
 20
-2.88392
 30
0.0
  0
ELLIPSE
  5
D0
330
1F
100
AcDbEntity
  8
layer 1
 62
   114
370
     9
100
AcDbEllipse
 10
8.73731
 20
-4.61872
 30
0.0
 11
0.0
 21
0.15655
 31
0.0
210
0.0
220
0.0
230
1.0
 40
1.0
 41
0.0
 42
6.283185307179586
  0
SPLINE
  5
D1
330
1F
100
AcDbEntity
  8
layer 1
 62
   114
370
     9
100
AcDbSpline
210
0.0
220
0.0
230
1.0
 70
    24
 71
     3
 72
     8
 73
     4
 74
     0
 42
0.0000000001
 43
0.0000000001
 40
0.0
 40
0.0
 40
0.0
 40
0.0
 40
1.0
 40
1.0
 40
1.0
 40
1.0
 10
8.60442
 20
-4.7015
 30
0.0
 10
8.60442
 20
-4.7015
 30
0.0
 10
8.85443
 20
-4.51485
 30
0.0
 10
8.85443
 20
-4.51485
 30
0.0
  0
SPLINE
  5
D2
330
1F
100
AcDbEntity
  8
layer 1
 62
   114
370
     9
100
AcDbSpline
210
0.0
220
0.0
230
1.0
 70
    11
 71
     3
 72
    17
 73
    13
 74
     0
 42
0.0000000001
 43
0.0000000001
 40
0.0
 40
0.0
 40
0.0
 40
0.0
 40
0.25
 40
0.25
 40
0.25
 40
0.5
 40
0.5
 40
0.5
 40
0.75
 40
0.75
 40
0.75
 40
1.0
 40
1.0
 40
1.0
 40
1.0
 10
9.48653
 20
-5.34908
 30
0.0
 10
9.53612
 20
-5.27826
 30
0.0
 10
9.63374
 20
-5.26105
 30
0.0
 10
9.70456
 20
-5.31063
 30
0.0
 10
9.77538
 20
-5.36022
 30
0.0
 10
9.79259
 20
-5.45784
 30
0.0
 10
9.743
 20
-5.52866
 30
0.0
 10
9.69341
 20
-5.59948
 30
0.0
 10
9.5958
 20
-5.61669
 30
0.0
 10
9.52498
 20
-5.5671
 30
0.0
 10
9.45416
 20
-5.51751
 30
0.0
 10
9.43694
 20
-5.4199
 30
0.0
 10
9.48653
 20
-5.34908
 30
0.0
  0
SPLINE
  5
D3
330
1F
100
AcDbEntity
  8
layer 1
 62
   114
370
     9
100
AcDbSpline
210
0.0
220
0.0
230
1.0
 70
    24
 71
     3
 72
     8
 73
     4
 74
     0
 42
0.0000000001
 43
0.0000000001
 40
0.0
 40
0.0
 40
0.0
 40
0.0
 40
1.0
 40
1.0
 40
1.0
 40
1.0
 10
9.60636
 20
-5.59521
 30
0.0
 10
9.60636
 20
-5.59521
 30
0.0
 10
9.59687
 20
-5.28335
 30
0.0
 10
9.59687
 20
-5.28335
 30
0.0
  0
SPLINE
  5
D4
330
1F
100
AcDbEntity
  8
layer 1
 62
   114
370
     9
100
AcDbSpline
210
0.0
220
0.0
230
1.0
 70
    11
 71
     3
 72
    17
 73
    13
 74
     0
 42
0.0000000001
 43
0.0000000001
 40
0.0
 40
0.0
 40
0.0
 40
0.0
 40
0.25
 40
0.25
 40
0.25
 40
0.5
 40
0.5
 40
0.5
 40
0.75
 40
0.75
 40
0.75
 40
1.0
 40
1.0
 40
1.0
 40
1.0
 10
8.58076
 20
-7.04045
 30
0.0
 10
8.58076
 20
-6.95399
 30
0.0
 10
8.65085
 20
-6.88391
 30
0.0
 10
8.73731
 20
-6.88391
 30
0.0
 10
8.82376
 20
-6.88391
 30
0.0
 10
8.89385
 20
-6.95399
 30
0.0
 10
8.89385
 20
-7.04045
 30
0.0
 10
8.89385
 20
-7.12691
 30
0.0
 10
8.82376
 20
-7.197
 30
0.0
 10
8.73731
 20
-7.197
 30
0.0
 10
8.65085
 20
-7.197
 30
0.0
 10
8.58076
 20
-7.12691
 30
0.0
 10
8.58076
 20
-7.04045
 30
0.0
  0
SPLINE
  5
D5
330
1F
100
AcDbEntity
  8
layer 1
 62
   114
370
     9
100
AcDbSpline
210
0.0
220
0.0
230
1.0
 70
    24
 71
     3
 72
     8
 73
     4
 74
     0
 42
0.0000000001
 43
0.0000000001
 40
0.0
 40
0.0
 40
0.0
 40
0.0
 40
1.0
 40
1.0
 40
1.0
 40
1.0
 10
8.60442
 20
-7.12324
 30
0.0
 10
8.60442
 20
-7.12324
 30
0.0
 10
8.85443
 20
-6.93659
 30
0.0
 10
8.85443
 20
-6.93659
 30
0.0
  0
SPLINE
  5
D6
330
1F
100
AcDbEntity
  8
layer 1
 62
   114
370
     9
100
AcDbSpline
210
0.0
220
0.0
230
1.0
 70
    11
 71
     3
 72
    17
 73
    13
 74
     0
 42
0.0000000001
 43
0.0000000001
 40
0.0
 40
0.0
 40
0.0
 40
0.0
 40
0.25
 40
0.25
 40
0.25
 40
0.5
 40
0.5
 40
0.5
 40
0.75
 40
0.75
 40
0.75
 40
1.0
 40
1.0
 40
1.0
 40
1.0
 10
9.51414
 20
-7.74069
 30
0.0
 10
9.58037
 20
-7.68512
 30
0.0
 10
9.67911
 20
-7.69376
 30
0.0
 10
9.73469
 20
-7.75999
 30
0.0
 10
9.79026
 20
-7.82622
 30
0.0
 10
9.78162
 20
-7.92496
 30
0.0
 10
9.71539
 20
-7.98053
 30
0.0
 10
9.64916
 20
-8.0361
 30
0.0
 10
9.55042
 20
-8.02747
 30
0.0
 10
9.49485
 20
-7.96124
 30
0.0
 10
9.43927
 20
-7.89501
 30
0.0
 10
9.44791
 20
-7.79626
 30
0.0
 10
9.51414
 20
-7.74069
 30
0.0
  0
SPLINE
  5
D7
330
1F
100
AcDbEntity
  8
layer 1
 62
   114
370
     9
100
AcDbSpline
210
0.0
220
0.0
230
1.0
 70
    24
 71
     3
 72
     8
 73
     4
 74
     0
 42
0.0000000001
 43
0.0000000001
 40
0.0
 40
0.0
 40
0.0
 40
0.0
 40
1.0
 40
1.0
 40
1.0
 40
1.0
 10
9.56618
 20
-8.00944
 30
0.0
 10
9.56618
 20
-8.00944
 30
0.0
 10
9.63773
 20
-7.70576
 30
0.0
 10
9.63773
 20
-7.70576
 30
0.0
  0
SPLINE
  5
D8
330
1F
100
AcDbEntity
  8
layer 1
 62
   250
370
     9
100
AcDbSpline
210
0.0
220
0.0
230
1.0
 70
    11
 71
     3
 72
    29
 73
    25
 74
     0
 42
0.0000000001
 43
0.0000000001
 40
0.0
 40
0.0
 40
0.0
 40
0.0
 40
0.125
 40
0.125
 40
0.125
 40
0.25
 40
0.25
 40
0.25
 40
0.375
 40
0.375
 40
0.375
 40
0.5
 40
0.5
 40
0.5
 40
0.625
 40
0.625
 40
0.625
 40
0.75
 40
0.75
 40
0.75
 40
0.875
 40
0.875
 40
0.875
 40
1.0
 40
1.0
 40
1.0
 40
1.0
 10
6.59103
 20
-10.73831
 30
0.0
 10
6.59103
 20
-10.73831
 30
0.0
 10
11.76105
 20
-10.73831
 30
0.0
 10
11.76105
 20
-10.73831
 30
0.0
 10
11.95356
 20
-10.73831
 30
0.0
 10
12.11105
 20
-10.8958
 30
0.0
 10
12.11105
 20
-11.08831
 30
0.0
 10
12.11105
 20
-11.08831
 30
0.0
 10
12.11105
 20
-11.32318
 30
0.0
 10
12.11105
 20
-11.32318
 30
0.0
 10
12.11105
 20
-11.51569
 30
0.0
 10
11.95356
 20
-11.67318
 30
0.0
 10
11.76105
 20
-11.67318
 30
0.0
 10
11.76105
 20
-11.67318
 30
0.0
 10
6.59103
 20
-11.67318
 30
0.0
 10
6.59103
 20
-11.67318
 30
0.0
 10
6.39852
 20
-11.67318
 30
0.0
 10
6.24103
 20
-11.51569
 30
0.0
 10
6.24103
 20
-11.32318
 30
0.0
 10
6.24103
 20
-11.32318
 30
0.0
 10
6.24103
 20
-11.08831
 30
0.0
 10
6.24103
 20
-11.08831
 30
0.0
 10
6.24103
 20
-10.8958
 30
0.0
 10
6.39852
 20
-10.73831
 30
0.0
 10
6.59103
 20
-10.73831
 30
0.0
  0
SPLINE
  5
D9
330
1F
100
AcDbEntity
  8
layer 1
 62
   250
370
     9
100
AcDbSpline
210
0.0
220
0.0
230
1.0
 70
    11
 71
     3
 72
    29
 73
    25
 74
     0
 42
0.0000000001
 43
0.0000000001
 40
0.0
 40
0.0
 40
0.0
 40
0.0
 40
0.125
 40
0.125
 40
0.125
 40
0.25
 40
0.25
 40
0.25
 40
0.375
 40
0.375
 40
0.375
 40
0.5
 40
0.5
 40
0.5
 40
0.625
 40
0.625
 40
0.625
 40
0.75
 40
0.75
 40
0.75
 40
0.875
 40
0.875
 40
0.875
 40
1.0
 40
1.0
 40
1.0
 40
1.0
 10
6.58984
 20
-11.77901
 30
0.0
 10
6.58984
 20
-11.77901
 30
0.0
 10
11.75986
 20
-11.77901
 30
0.0
 10
11.75986
 20
-11.77901
 30
0.0
 10
11.95237
 20
-11.77901
 30
0.0
 10
12.10986
 20
-11.9365
 30
0.0
 10
12.10986
 20
-12.12901
 30
0.0
 10
12.10986
 20
-12.12901
 30
0.0
 10
12.10986
 20
-12.36388
 30
0.0
 10
12.10986
 20
-12.36388
 30
0.0
 10
12.10986
 20
-12.55639
 30
0.0
 10
11.95237
 20
-12.71388
 30
0.0
 10
11.75986
 20
-12.71388
 30
0.0
 10
11.75986
 20
-12.71388
 30
0.0
 10
6.58984
 20
-12.71388
 30
0.0
 10
6.58984
 20
-12.71388
 30
0.0
 10
6.39733
 20
-12.71388
 30
0.0
 10
6.23984
 20
-12.55639
 30
0.0
 10
6.23984
 20
-12.36388
 30
0.0
 10
6.23984
 20
-12.36388
 30
0.0
 10
6.23984
 20
-12.12901
 30
0.0
 10
6.23984
 20
-12.12901
 30
0.0
 10
6.23984
 20
-11.9365
 30
0.0
 10
6.39733
 20
-11.77901
 30
0.0
 10
6.58984
 20
-11.77901
 30
0.0
  0
ENDSEC
  0
SECTION
  2
OBJECTS
  0
DICTIONARY
  5
C
330
0
100
AcDbDictionary
281
     1
  3
ACAD_DETAILVIEWSTYLE
350
E2
  3
ACAD_GROUP
350
D
  3
ACAD_LAYOUT
350
1A
  3
ACAD_MATERIAL
350
43
  3
ACAD_MLEADERSTYLE
350
5B
  3
ACAD_MLINESTYLE
350
17
  3
ACAD_PLOTSETTINGS
350
19
  3
ACAD_PLOTSTYLENAME
350
E
  3
ACAD_SCALELIST
350
47
  3
ACAD_SECTIONVIEWSTYLE
350
E3
  3
ACAD_TABLESTYLE
350
59
  3
ACAD_VISUALSTYLE
350
2A
  3
ACDB_RECOMPOSE_DATA
350
DF
  3
AcDbVariableDictionary
350
DB
  0
SUN
  5
5D
330
29
100
AcDbSun
 90
        1
290
     0
 63
     7
421
 16777215
 40
1.0
291
     1
 91
  2455826
 92
 54000000
292
     0
 70
     2
 71
   256
280
     1
  0
DICTIONARY
  5
E2
102
{ACAD_REACTORS
330
C
102
}
330
C
100
AcDbDictionary
281
     1
  0
DICTIONARY
  5
D
102
{ACAD_REACTORS
330
C
102
}
330
C
100
AcDbDictionary
281
     1
  0
DICTIONARY
  5
1A
102
{ACAD_REACTORS
330
C
102
}
330
C
100
AcDbDictionary
281
     1
  3
Layout1
350
1E
  3
Layout2
350
26
  3
Model
350
22
  0
DICTIONARY
  5
43
102
{ACAD_REACTORS
330
C
102
}
330
C
100
AcDbDictionary
281
     1
  3
ByBlock
350
45
  3
ByLayer
350
44
  3
Global
350
46
  0
DICTIONARY
  5
5B
102
{ACAD_REACTORS
330
C
102
}
330
C
100
AcDbDictionary
281
     1
  3
Standard
350
5C
  0
DICTIONARY
  5
17
102
{ACAD_REACTORS
330
C
102
}
330
C
100
AcDbDictionary
281
     1
  3
Standard
350
18
  0
DICTIONARY
  5
19
102
{ACAD_REACTORS
330
C
102
}
330
C
100
AcDbDictionary
281
     1
  0
ACDBDICTIONARYWDFLT
  5
E
102
{ACAD_REACTORS
330
C
102
}
330
C
100
AcDbDictionary
281
     1
  3
Normal
350
F
100
AcDbDictionaryWithDefault
340
F
  0
DICTIONARY
  5
47
102
{ACAD_REACTORS
330
C
102
}
330
C
100
AcDbDictionary
281
     1
  3
A0
350
48
  3
A1
350
49
  3
A2
350
4A
  3
A3
350
4B
  3
A4
350
4C
  3
A5
350
4D
  3
A6
350
4E
  3
A7
350
4F
  3
A8
350
50
  3
A9
350
51
  3
B1
350
52
  3
B2
350
53
  3
B3
350
54
  3
B4
350
55
  3
B5
350
56
  3
B6
350
57
  3
B7
350
58
  0
DICTIONARY
  5
E3
102
{ACAD_REACTORS
330
C
102
}
330
C
100
AcDbDictionary
281
     1
  0
DICTIONARY
  5
59
102
{ACAD_REACTORS
330
C
102
}
330
C
100
AcDbDictionary
281
     1
  3
Standard
350
5A
  0
DICTIONARY
  5
2A
102
{ACAD_REACTORS
330
C
102
}
330
C
100
AcDbDictionary
281
     1
  3
2dWireframe
350
2F
  3
Basic
350
32
  3
Brighten
350
36
  3
ColorChange
350
3A
  3
Conceptual
350
34
  3
Dim
350
35
  3
EdgeColorOff
350
3D
  3
Facepattern
350
39
  3
Flat
350
2B
  3
FlatWithEdges
350
2C
  3
Gouraud
350
2D
  3
GouraudWithEdges
350
2E
  3
Hidden
350
31
  3
JitterOff
350
3B
  3
Linepattern
350
38
  3
OverhangOff
350
3C
  3
Realistic
350
33
  3
Shaded
350
42
  3
Shaded with edges
350
41
  3
Shades of Gray
350
3E
  3
Sketchy
350
3F
  3
Thicken
350
37
  3
Wireframe
350
30
  3
X-Ray
350
40
  0
XRECORD
  5
DF
102
{ACAD_REACTORS
330
C
102
}
330
C
100
AcDbXrecord
280
     1
 90
        1
330
5A
  0
DICTIONARY
  5
DB
102
{ACAD_REACTORS
330
C
102
}
330
C
100
AcDbDictionary
281
     1
  3
CANNOSCALE
350
DC
  3
CMLEADERSTYLE
350
E1
  3
CTABLESTYLE
350
E0
  0
LAYOUT
  5
1E
102
{ACAD_REACTORS
330
1A
102
}
330
1A
100
AcDbPlotSettings
  1

  2
none_device
  4

  6

 40
0.0
 41
0.0
 42
0.0
 43
0.0
 44
0.0
 45
0.0
 46
0.0
 47
0.0
 48
0.0
 49
0.0
140
0.0
141
0.0
142
1.0
143
1.0
 70
   688
 72
     0
 73
     0
 74
     5
  7

 75
    16
 76
     0
 77
     2
 78
   300
147
1.0
148
0.0
149
0.0
100
AcDbLayout
  1
Layout1
 70
     1
 71
     1
 10
0.0
 20
0.0
 11
12.0
 21
9.0
 12
0.0
 22
0.0
 32
0.0
 14
1.000000000000000E+20
 24
1.000000000000000E+20
 34
1.000000000000000E+20
 15
-1.000000000000000E+20
 25
-1.000000000000000E+20
 35
-1.000000000000000E+20
146
0.0
 13
0.0
 23
0.0
 33
0.0
 16
1.0
 26
0.0
 36
0.0
 17
0.0
 27
1.0
 37
0.0
 76
     0
330
1B
  0
LAYOUT
  5
26
102
{ACAD_REACTORS
330
1A
102
}
330
1A
100
AcDbPlotSettings
  1

  2
none_device
  4

  6

 40
0.0
 41
0.0
 42
0.0
 43
0.0
 44
0.0
 45
0.0
 46
0.0
 47
0.0
 48
0.0
 49
0.0
140
0.0
141
0.0
142
1.0
143
1.0
 70
   688
 72
     0
 73
     0
 74
     5
  7

 75
    16
 76
     0
 77
     2
 78
   300
147
1.0
148
0.0
149
0.0
100
AcDbLayout
  1
Layout2
 70
     1
 71
     2
 10
0.0
 20
0.0
 11
0.0
 21
0.0
 12
0.0
 22
0.0
 32
0.0
 14
0.0
 24
0.0
 34
0.0
 15
0.0
 25
0.0
 35
0.0
146
0.0
 13
0.0
 23
0.0
 33
0.0
 16
1.0
 26
0.0
 36
0.0
 17
0.0
 27
1.0
 37
0.0
 76
     0
330
23
  0
LAYOUT
  5
22
102
{ACAD_REACTORS
330
1A
102
}
330
1A
100
AcDbPlotSettings
  1

  2
none_device
  4
Letter_(8.50_x_11.00_Inches)
  6

 40
6.35
 41
6.35
 42
6.35000508
 43
6.35000508
 44
215.9
 45
279.4
 46
0.0
 47
0.0
 48
0.0
 49
0.0
140
0.0
141
0.0
142
1.0
143
1.0
 70
  1712
 72
     0
 73
     0
 74
     0
  7

 75
     0
 76
     0
 77
     2
 78
   300
147
1.0
148
0.0
149
0.0
100
AcDbLayout
  1
Model
 70
     1
 71
     0
 10
0.0
 20
0.0
 11
12.0
 21
9.0
 12
0.0
 22
0.0
 32
0.0
 14
-34.29818
 24
-14.24607
 34
0.0
 15
34.29819
 25
14.24608
 35
0.0
146
0.0
 13
0.0
 23
0.0
 33
0.0
 16
1.0
 26
0.0
 36
0.0
 17
0.0
 27
1.0
 37
0.0
 76
     0
330
1F
331
29
  0
MATERIAL
  5
45
102
{ACAD_REACTORS
330
43
102
}
330
43
100
AcDbMaterial
  1
ByBlock
 72
     1
 94
      127
  0
MATERIAL
  5
44
102
{ACAD_REACTORS
330
43
102
}
330
43
100
AcDbMaterial
  1
ByLayer
 72
     1
 94
      127
  0
MATERIAL
  5
46
102
{ACAD_REACTORS
330
43
102
}
330
43
100
AcDbMaterial
  1
Global
 72
     1
 94
      127
  0
MLEADERSTYLE
  5
5C
102
{ACAD_REACTORS
330
5B
102
}
330
5B
100
AcDbMLeaderStyle
179
     2
170
     2
171
     1
172
     0
 90
        2
 40
0.0
 41
0.0
173
     1
 91
-1056964608
340
14
 92
       -2
290
     1
 42
0.09
291
     1
 43
0.36
  3
Standard
341
0
 44
0.18
300

342
11
174
     1
178
     6
175
     1
176
     0
 93
-1056964608
 45
0.18
292
     0
297
     0
 46
0.18
343
0
 94
-1056964608
 47
1.0
 49
1.0
140
1.0
293
     1
141
0.0
294
     1
177
     0
142
1.0
295
     0
296
     0
143
0.125
271
     0
272
     9
273
     9
298
     0
  0
MLINESTYLE
  5
18
102
{ACAD_REACTORS
330
17
102
}
330
17
100
AcDbMlineStyle
  2
Standard
 70
     0
  3

 62
   256
 51
90.0
 52
90.0
 71
     2
 49
0.5
 62
   256
  6
BYLAYER
 49
-0.5
 62
   256
  6
BYLAYER
  0
ACDBPLACEHOLDER
  5
F
102
{ACAD_REACTORS
330
E
102
}
330
E
  0
SCALE
  5
48
102
{ACAD_REACTORS
330
47
102
}
330
47
100
AcDbScale
 70
     0
300
1:1
140
1.0
141
1.0
290
     1
  0
SCALE
  5
49
102
{ACAD_REACTORS
330
47
102
}
330
47
100
AcDbScale
 70
     0
300
1/128" = 1'-0"
140
0.0078125
141
12.0
290
     0
  0
SCALE
  5
4A
102
{ACAD_REACTORS
330
47
102
}
330
47
100
AcDbScale
 70
     0
300
1/64" = 1'-0"
140
0.015625
141
12.0
290
     0
  0
SCALE
  5
4B
102
{ACAD_REACTORS
330
47
102
}
330
47
100
AcDbScale
 70
     0
300
1/32" = 1'-0"
140
0.03125
141
12.0
290
     0
  0
SCALE
  5
4C
102
{ACAD_REACTORS
330
47
102
}
330
47
100
AcDbScale
 70
     0
300
1/16" = 1'-0"
140
0.0625
141
12.0
290
     0
  0
SCALE
  5
4D
102
{ACAD_REACTORS
330
47
102
}
330
47
100
AcDbScale
 70
     0
300
3/32" = 1'-0"
140
0.09375
141
12.0
290
     0
  0
SCALE
  5
4E
102
{ACAD_REACTORS
330
47
102
}
330
47
100
AcDbScale
 70
     0
300
1/8" = 1'-0"
140
0.125
141
12.0
290
     0
  0
SCALE
  5
4F
102
{ACAD_REACTORS
330
47
102
}
330
47
100
AcDbScale
 70
     0
300
3/16" = 1'-0"
140
0.1875
141
12.0
290
     0
  0
SCALE
  5
50
102
{ACAD_REACTORS
330
47
102
}
330
47
100
AcDbScale
 70
     0
300
1/4" = 1'-0"
140
0.25
141
12.0
290
     0
  0
SCALE
  5
51
102
{ACAD_REACTORS
330
47
102
}
330
47
100
AcDbScale
 70
     0
300
3/8" = 1'-0"
140
0.375
141
12.0
290
     0
  0
SCALE
  5
52
102
{ACAD_REACTORS
330
47
102
}
330
47
100
AcDbScale
 70
     0
300
1/2" = 1'-0"
140
0.5
141
12.0
290
     0
  0
SCALE
  5
53
102
{ACAD_REACTORS
330
47
102
}
330
47
100
AcDbScale
 70
     0
300
3/4" = 1'-0"
140
0.75
141
12.0
290
     0
  0
SCALE
  5
54
102
{ACAD_REACTORS
330
47
102
}
330
47
100
AcDbScale
 70
     0
300
1" = 1'-0"
140
1.0
141
12.0
290
     0
  0
SCALE
  5
55
102
{ACAD_REACTORS
330
47
102
}
330
47
100
AcDbScale
 70
     0
300
1-1/2" = 1'-0"
140
1.5
141
12.0
290
     0
  0
SCALE
  5
56
102
{ACAD_REACTORS
330
47
102
}
330
47
100
AcDbScale
 70
     0
300
3" = 1'-0"
140
3.0
141
12.0
290
     0
  0
SCALE
  5
57
102
{ACAD_REACTORS
330
47
102
}
330
47
100
AcDbScale
 70
     0
300
6" = 1'-0"
140
6.0
141
12.0
290
     0
  0
SCALE
  5
58
102
{ACAD_REACTORS
330
47
102
}
330
47
100
AcDbScale
 70
     0
300
1'-0" = 1'-0"
140
12.0
141
12.0
290
     0
  0
TABLESTYLE
  5
5A
102
{ACAD_REACTORS
330
59
102
}
102
{ACAD_XDICTIONARY
360
DD
102
}
330
59
100
AcDbTableStyle
  3
Standard
 70
     0
 71
     0
 40
0.06
 41
0.06
280
     0
281
     0
  7
Standard
140
0.18
170
     2
 62
     0
 63
   257
283
     0
 90
        4
 91
        0
  1

274
    -2
284
     1
 64
     0
275
    -2
285
     1
 65
     0
276
    -2
286
     1
 66
     0
277
    -2
287
     1
 67
     0
278
    -2
288
     1
 68
     0
279
    -2
289
     1
 69
     0
  7
Standard
140
0.25
170
     5
 62
     0
 63
   257
283
     0
 90
        4
 91
        0
  1

274
    -2
284
     1
 64
     0
275
    -2
285
     1
 65
     0
276
    -2
286
     1
 66
     0
277
    -2
287
     1
 67
     0
278
    -2
288
     1
 68
     0
279
    -2
289
     1
 69
     0
  7
Standard
140
0.18
170
     5
 62
     0
 63
   257
283
     0
 90
        4
 91
        0
  1

274
    -2
284
     1
 64
     0
275
    -2
285
     1
 65
     0
276
    -2
286
     1
 66
     0
277
    -2
287
     1
 67
     0
278
    -2
288
     1
 68
     0
279
    -2
289
     1
 69
     0
  0
VISUALSTYLE
  5
2F
102
{ACAD_REACTORS
330
2A
102
}
330
2A
100
AcDbVisualStyle
  2
2dWireframe
 70
     4
177
     3
291
     0
 70
    58
 90
        0
176
     1
 90
        2
176
     1
 90
        0
176
     1
 90
        0
176
     1
 40
0.6
176
     1
 40
30.0
176
     1
 62
     7
420
 16777215
176
     1
 90
        1
176
     1
 90
        4
176
     1
 62
     7
176
     1
 62
   257
176
     1
 90
        1
176
     1
 90
        1
176
     1
 40
1.0
176
     1
 90
        0
176
     1
 62
   257
176
     1
 40
1.0
176
     1
 90
        1
176
     1
 90
        6
176
     1
 90
        2
176
     1
 62
     7
176
     1
 90
        5
176
     1
 90
        0
176
     1
 90
        0
176
     1
290
     0
176
     1
 90
        1
176
     1
 40
0.0
176
     1
 90
        0
176
     1
290
     1
176
     1
290
     1
176
     1
290
     0
176
     1
290
     0
176
     1
290
     0
176
     1
290
     0
176
     1
290
     0
176
     1
290
     0
176
     1
290
     0
176
     1
 90
       50
176
     1
 40
0.0
176
     1
 40
1.0
176
     1
 90
        0
176
     1
 62
    18
420
        0
176
     1
 90
       50
176
     1
 90
        3
176
     1
 62
     5
420
      255
176
     1
290
     0
176
     1
 90
       50
176
     1
 90
       50
176
     1
 90
       50
176
     1
290
     0
176
     1
 90
       50
176
     1
 62
   256
176
     0
 40
1.0
176
     0
 90
        2
176
     1
  1
strokes_ogs.tif
176
     1
290
     0
176
     1
 40
1.0
176
     1
 40
1.0
176
     1
  0
VISUALSTYLE
  5
32
102
{ACAD_REACTORS
330
2A
102
}
330
2A
100
AcDbVisualStyle
  2
Basic
 70
     7
177
     3
291
     1
 70
    58
 90
        1
176
     1
 90
        0
176
     1
 90
        1
176
     1
 90
        0
176
     1
 40
0.6
176
     1
 40
30.0
176
     1
 62
     7
420
 16777215
176
     1
 90
        0
176
     1
 90
        4
176
     1
 62
     7
176
     1
 62
   257
176
     1
 90
        1
176
     1
 90
        1
176
     1
 40
1.0
176
     1
 90
        8
176
     1
 62
     7
176
     1
 40
1.0
176
     1
 90
        1
176
     1
 90
        6
176
     1
 90
        2
176
     1
 62
     7
176
     1
 90
        5
176
     1
 90
        0
176
     1
 90
        0
176
     1
290
     0
176
     1
 90
        1
176
     1
 40
0.0
176
     1
 90
        0
176
     1
290
     0
176
     1
290
     1
176
     1
290
     1
176
     1
290
     0
176
     1
290
     0
176
     1
290
     0
176
     1
290
     0
176
     1
290
     0
176
     1
290
     0
176
     1
 90
       50
176
     1
 40
0.0
176
     1
 40
1.0
176
     1
 90
        0
176
     1
 62
    18
420
        0
176
     1
 90
       50
176
     1
 90
        3
176
     1
 62
     5
420
      255
176
     1
290
     0
176
     1
 90
       50
176
     1
 90
       50
176
     1
 90
       50
176
     1
290
     0
176
     1
 90
       50
176
     1
 62
   256
176
     0
 40
1.0
176
     0
 90
        2
176
     1
  1
strokes_ogs.tif
176
     1
290
     0
176
     1
 40
1.0
176
     1
 40
1.0
176
     1
  0
VISUALSTYLE
  5
36
102
{ACAD_REACTORS
330
2A
102
}
330
2A
100
AcDbVisualStyle
  2
Brighten
 70
    12
177
     3
291
     1
 70
    58
 90
        2
176
     1
 90
        2
176
     1
 90
        0
176
     1
 90
        0
176
     1
 40
0.6
176
     1
 40
30.0
176
     1
 62
     7
420
 16777215
176
     1
 90
        1
176
     1
 90
        4
176
     1
 62
     7
176
     1
 62
   257
176
     1
 90
        1
176
     1
 90
        1
176
     1
 40
1.0
176
     1
 90
        8
176
     1
 62
     7
176
     1
 40
1.0
176
     1
 90
        1
176
     1
 90
        6
176
     1
 90
        2
176
     1
 62
     7
176
     1
 90
        5
176
     1
 90
        0
176
     1
 90
        0
176
     1
290
     0
176
     1
 90
        1
176
     1
 40
50.0
176
     1
 90
        0
176
     1
290
     0
176
     1
290
     1
176
     1
290
     1
176
     1
290
     0
176
     1
290
     0
176
     1
290
     0
176
     1
290
     0
176
     1
290
     0
176
     1
290
     0
176
     1
 90
       50
176
     1
 40
0.0
176
     1
 40
1.0
176
     1
 90
        0
176
     1
 62
    18
420
        0
176
     1
 90
       50
176
     1
 90
        3
176
     1
 62
     5
420
      255
176
     1
290
     0
176
     1
 90
       50
176
     1
 90
       50
176
     1
 90
       50
176
     1
290
     0
176
     1
 90
       50
176
     1
 62
   256
176
     0
 40
1.0
176
     0
 90
        2
176
     1
  1
strokes_ogs.tif
176
     1
290
     0
176
     1
 40
1.0
176
     1
 40
1.0
176
     1
  0
VISUALSTYLE
  5
3A
102
{ACAD_REACTORS
330
2A
102
}
330
2A
100
AcDbVisualStyle
  2
ColorChange
 70
    16
177
     3
291
     1
 70
    58
 90
        2
176
     1
 90
        2
176
     1
 90
        3
176
     1
 90
        0
176
     1
 40
0.6
176
     1
 40
30.0
176
     1
 62
     8
420
  8421504
176
     1
 90
        1
176
     1
 90
        4
176
     1
 62
     7
176
     1
 62
   257
176
     1
 90
        1
176
     1
 90
        1
176
     1
 40
1.0
176
     1
 90
        8
176
     1
 62
     8
420
  8421504
176
     1
 40
1.0
176
     1
 90
        1
176
     1
 90
        6
176
     1
 90
        2
176
     1
 62
     7
176
     1
 90
        5
176
     1
 90
        0
176
     1
 90
        0
176
     1
290
     0
176
     1
 90
        1
176
     1
 40
0.0
176
     1
 90
        0
176
     1
290
     0
176
     1
290
     1
176
     1
290
     1
176
     1
290
     0
176
     1
290
     0
176
     1
290
     0
176
     1
290
     0
176
     1
290
     0
176
     1
290
     0
176
     1
 90
       50
176
     1
 40
0.0
176
     1
 40
1.0
176
     1
 90
        0
176
     1
 62
    18
420
        0
176
     1
 90
       50
176
     1
 90
        3
176
     1
 62
     5
420
      255
176
     1
290
     0
176
     1
 90
       50
176
     1
 90
       50
176
     1
 90
       50
176
     1
290
     0
176
     1
 90
       50
176
     1
 62
   256
176
     0
 40
1.0
176
     0
 90
        2
176
     1
  1
strokes_ogs.tif
176
     1
290
     0
176
     1
 40
1.0
176
     1
 40
1.0
176
     1
  0
VISUALSTYLE
  5
34
102
{ACAD_REACTORS
330
2A
102
}
330
2A
100
AcDbVisualStyle
  2
Conceptual
 70
     9
177
     3
291
     0
 70
    58
 90
        3
176
     1
 90
        2
176
     1
 90
        0
176
     1
 90
        0
176
     1
 40
0.6
176
     1
 40
30.0
176
     1
 62
     7
420
 16777215
176
     1
 90
        2
176
     1
 90
        2
176
     1
 62
     7
176
     1
 62
   257
176
     1
 90
        1
176
     1
 90
        1
176
     1
 40
179.0
176
     1
 90
        8
176
     1
 62
     7
176
     1
 40
1.0
176
     1
 90
        1
176
     1
 90
        6
176
     1
 90
        2
176
     1
 62
     7
176
     1
 90
        3
176
     1
 90
        0
176
     1
 90
        0
176
     1
290
     0
176
     1
 90
        1
176
     1
 40
0.0
176
     1
 90
        0
176
     1
290
     0
176
     1
290
     1
176
     1
290
     1
176
     1
290
     0
176
     1
290
     0
176
     1
290
     0
176
     1
290
     0
176
     1
290
     0
176
     1
290
     0
176
     1
 90
       50
176
     1
 40
0.0
176
     1
 40
1.0
176
     1
 90
        0
176
     1
 62
    18
420
        0
176
     1
 90
       50
176
     1
 90
        3
176
     1
 62
     5
420
      255
176
     1
290
     0
176
     1
 90
       50
176
     1
 90
       50
176
     1
 90
       50
176
     1
290
     0
176
     1
 90
       50
176
     1
 62
   256
176
     0
 40
1.0
176
     0
 90
        2
176
     1
  1
strokes_ogs.tif
176
     1
290
     0
176
     1
 40
1.0
176
     1
 40
1.0
176
     1
  0
VISUALSTYLE
  5
35
102
{ACAD_REACTORS
330
2A
102
}
330
2A
100
AcDbVisualStyle
  2
Dim
 70
    11
177
     3
291
     1
 70
    58
 90
        2
176
     1
 90
        2
176
     1
 90
        0
176
     1
 90
        0
176
     1
 40
0.6
176
     1
 40
30.0
176
     1
 62
     7
420
 16777215
176
     1
 90
        1
176
     1
 90
        4
176
     1
 62
     7
176
     1
 62
   257
176
     1
 90
        1
176
     1
 90
        1
176
     1
 40
1.0
176
     1
 90
        8
176
     1
 62
     7
176
     1
 40
1.0
176
     1
 90
        1
176
     1
 90
        6
176
     1
 90
        2
176
     1
 62
     7
176
     1
 90
        5
176
     1
 90
        0
176
     1
 90
        0
176
     1
290
     0
176
     1
 90
        1
176
     1
 40
-50.0
176
     1
 90
        0
176
     1
290
     0
176
     1
290
     1
176
     1
290
     1
176
     1
290
     0
176
     1
290
     0
176
     1
290
     0
176
     1
290
     0
176
     1
290
     0
176
     1
290
     0
176
     1
 90
       50
176
     1
 40
0.0
176
     1
 40
1.0
176
     1
 90
        0
176
     1
 62
    18
420
        0
176
     1
 90
       50
176
     1
 90
        3
176
     1
 62
     5
420
      255
176
     1
290
     0
176
     1
 90
       50
176
     1
 90
       50
176
     1
 90
       50
176
     1
290
     0
176
     1
 90
       50
176
     1
 62
   256
176
     0
 40
1.0
176
     0
 90
        2
176
     1
  1
strokes_ogs.tif
176
     1
290
     0
176
     1
 40
1.0
176
     1
 40
1.0
176
     1
  0
VISUALSTYLE
  5
3D
102
{ACAD_REACTORS
330
2A
102
}
330
2A
100
AcDbVisualStyle
  2
EdgeColorOff
 70
    22
177
     3
291
     1
 70
    58
 90
        2
176
     0
 90
        2
176
     0
 90
        0
176
     0
 90
        0
176
     0
 40
0.6
176
     0
 40
30.0
176
     0
 62
     7
420
 16777215
176
     0
 90
        1
176
     0
 90
        4
176
     0
 62
     7
176
     0
 62
   257
176
     0
 90
        1
176
     0
 90
        1
176
     0
 40
1.0
176
     0
 90
        8
176
     2
 62
     7
176
     0
 40
1.0
176
     0
 90
        1
176
     0
 90
        6
176
     0
 90
        2
176
     0
 62
     7
176
     0
 90
        5
176
     0
 90
        0
176
     0
 90
        0
176
     0
290
     0
176
     0
 90
        1
176
     0
 40
0.0
176
     0
 90
        0
176
     0
290
     0
176
     0
290
     1
176
     0
290
     1
176
     0
290
     0
176
     0
290
     0
176
     0
290
     0
176
     0
290
     0
176
     0
290
     0
176
     0
290
     0
176
     0
 90
       50
176
     0
 40
0.0
176
     0
 40
1.0
176
     0
 90
        0
176
     0
 62
    18
420
        0
176
     0
 90
       50
176
     0
 90
        3
176
     0
 62
     5
420
      255
176
     0
290
     0
176
     0
 90
       50
176
     0
 90
       50
176
     0
 90
       50
176
     0
290
     0
176
     0
 90
       50
176
     0
 62
   256
176
     0
 40
1.0
176
     0
 90
        2
176
     0
  1
strokes_ogs.tif
176
     0
290
     0
176
     0
 40
1.0
176
     0
 40
1.0
176
     0
  0
VISUALSTYLE
  5
39
102
{ACAD_REACTORS
330
2A
102
}
330
2A
100
AcDbVisualStyle
  2
Facepattern
 70
    15
177
     3
291
     1
 70
    58
 90
        2
176
     1
 90
        2
176
     1
 90
        0
176
     1
 90
        0
176
     1
 40
0.6
176
     1
 40
30.0
176
     1
 62
     7
420
 16777215
176
     1
 90
        1
176
     1
 90
        4
176
     1
 62
     7
176
     1
 62
   257
176
     1
 90
        1
176
     1
 90
        1
176
     1
 40
1.0
176
     1
 90
        8
176
     1
 62
     7
176
     1
 40
1.0
176
     1
 90
        1
176
     1
 90
        6
176
     1
 90
        2
176
     1
 62
     7
176
     1
 90
        5
176
     1
 90
        0
176
     1
 90
        0
176
     1
290
     0
176
     1
 90
        1
176
     1
 40
0.0
176
     1
 90
        0
176
     1
290
     0
176
     1
290
     1
176
     1
290
     1
176
     1
290
     0
176
     1
290
     0
176
     1
290
     0
176
     1
290
     0
176
     1
290
     0
176
     1
290
     0
176
     1
 90
       50
176
     1
 40
0.0
176
     1
 40
1.0
176
     1
 90
        0
176
     1
 62
    18
420
        0
176
     1
 90
       50
176
     1
 90
        3
176
     1
 62
     5
420
      255
176
     1
290
     0
176
     1
 90
       50
176
     1
 90
       50
176
     1
 90
       50
176
     1
290
     0
176
     1
 90
       50
176
     1
 62
   256
176
     0
 40
1.0
176
     0
 90
        2
176
     1
  1
strokes_ogs.tif
176
     1
290
     0
176
     1
 40
1.0
176
     1
 40
1.0
176
     1
  0
VISUALSTYLE
  5
2B
102
{ACAD_REACTORS
330
2A
102
}
330
2A
100
AcDbVisualStyle
  2
Flat
 70
     0
177
     3
291
     1
 70
    58
 90
        2
176
     1
 90
        1
176
     1
 90
        1
176
     1
 90
        2
176
     1
 40
0.6
176
     1
 40
30.0
176
     1
 62
     7
420
 16777215
176
     1
 90
        0
176
     1
 90
        0
176
     1
 62
     7
176
     1
 62
   257
176
     1
 90
        1
176
     1
 90
        1
176
     1
 40
1.0
176
     1
 90
        8
176
     1
 62
     7
176
     1
 40
1.0
176
     1
 90
        1
176
     1
 90
        6
176
     1
 90
        2
176
     1
 62
     7
176
     1
 90
        5
176
     1
 90
        0
176
     1
 90
        0
176
     1
290
     0
176
     1
 90
       13
176
     1
 40
0.0
176
     1
 90
        0
176
     1
290
     0
176
     1
290
     1
176
     1
290
     1
176
     1
290
     0
176
     1
290
     0
176
     1
290
     0
176
     1
290
     0
176
     1
290
     0
176
     1
290
     0
176
     1
 90
       50
176
     1
 40
0.0
176
     1
 40
1.0
176
     1
 90
        0
176
     1
 62
    18
420
        0
176
     1
 90
       50
176
     1
 90
        3
176
     1
 62
     5
420
      255
176
     1
290
     0
176
     1
 90
       50
176
     1
 90
       50
176
     1
 90
       50
176
     1
290
     0
176
     1
 90
       50
176
     1
 62
   256
176
     0
 40
1.0
176
     0
 90
        2
176
     1
  1
strokes_ogs.tif
176
     1
290
     0
176
     1
 40
1.0
176
     1
 40
1.0
176
     1
  0
VISUALSTYLE
  5
2C
102
{ACAD_REACTORS
330
2A
102
}
330
2A
100
AcDbVisualStyle
  2
FlatWithEdges
 70
     1
177
     3
291
     1
 70
    58
 90
        2
176
     1
 90
        1
176
     1
 90
        1
176
     1
 90
        2
176
     1
 40
0.6
176
     1
 40
30.0
176
     1
 62
     7
420
 16777215
176
     1
 90
        1
176
     1
 90
        0
176
     1
 62
     7
176
     1
 62
   257
176
     1
 90
        1
176
     1
 90
        1
176
     1
 40
1.0
176
     1
 90
        0
176
     1
 62
   257
176
     1
 40
1.0
176
     1
 90
        1
176
     1
 90
        6
176
     1
 90
        2
176
     1
 62
     7
176
     1
 90
        5
176
     1
 90
        0
176
     1
 90
        0
176
     1
290
     0
176
     1
 90
       13
176
     1
 40
0.0
176
     1
 90
        0
176
     1
290
     0
176
     1
290
     1
176
     1
290
     1
176
     1
290
     0
176
     1
290
     0
176
     1
290
     0
176
     1
290
     0
176
     1
290
     0
176
     1
290
     0
176
     1
 90
       50
176
     1
 40
0.0
176
     1
 40
1.0
176
     1
 90
        0
176
     1
 62
    18
420
        0
176
     1
 90
       50
176
     1
 90
        3
176
     1
 62
     5
420
      255
176
     1
290
     0
176
     1
 90
       50
176
     1
 90
       50
176
     1
 90
       50
176
     1
290
     0
176
     1
 90
       50
176
     1
 62
   256
176
     0
 40
1.0
176
     0
 90
        2
176
     1
  1
strokes_ogs.tif
176
     1
290
     0
176
     1
 40
1.0
176
     1
 40
1.0
176
     1
  0
VISUALSTYLE
  5
2D
102
{ACAD_REACTORS
330
2A
102
}
330
2A
100
AcDbVisualStyle
  2
Gouraud
 70
     2
177
     3
291
     1
 70
    58
 90
        2
176
     1
 90
        2
176
     1
 90
        1
176
     1
 90
        2
176
     1
 40
0.6
176
     1
 40
30.0
176
     1
 62
     7
420
 16777215
176
     1
 90
        0
176
     1
 90
        0
176
     1
 62
     7
176
     1
 62
   257
176
     1
 90
        1
176
     1
 90
        1
176
     1
 40
1.0
176
     1
 90
        0
176
     1
 62
     7
176
     1
 40
1.0
176
     1
 90
        1
176
     1
 90
        6
176
     1
 90
        2
176
     1
 62
     7
176
     1
 90
        5
176
     1
 90
        0
176
     1
 90
        0
176
     1
290
     0
176
     1
 90
       13
176
     1
 40
0.0
176
     1
 90
        0
176
     1
290
     0
176
     1
290
     1
176
     1
290
     1
176
     1
290
     0
176
     1
290
     0
176
     1
290
     0
176
     1
290
     0
176
     1
290
     0
176
     1
290
     0
176
     1
 90
       50
176
     1
 40
0.0
176
     1
 40
1.0
176
     1
 90
        0
176
     1
 62
    18
420
        0
176
     1
 90
       50
176
     1
 90
        3
176
     1
 62
     5
420
      255
176
     1
290
     0
176
     1
 90
       50
176
     1
 90
       50
176
     1
 90
       50
176
     1
290
     0
176
     1
 90
       50
176
     1
 62
   256
176
     0
 40
1.0
176
     0
 90
        2
176
     1
  1
strokes_ogs.tif
176
     1
290
     0
176
     1
 40
1.0
176
     1
 40
1.0
176
     1
  0
VISUALSTYLE
  5
2E
102
{ACAD_REACTORS
330
2A
102
}
330
2A
100
AcDbVisualStyle
  2
GouraudWithEdges
 70
     3
177
     3
291
     1
 70
    58
 90
        2
176
     1
 90
        2
176
     1
 90
        1
176
     1
 90
        2
176
     1
 40
0.6
176
     1
 40
30.0
176
     1
 62
     7
420
 16777215
176
     1
 90
        1
176
     1
 90
        0
176
     1
 62
     7
176
     1
 62
   257
176
     1
 90
        1
176
     1
 90
        1
176
     1
 40
1.0
176
     1
 90
        0
176
     1
 62
   257
176
     1
 40
1.0
176
     1
 90
        1
176
     1
 90
        6
176
     1
 90
        2
176
     1
 62
     7
176
     1
 90
        5
176
     1
 90
        0
176
     1
 90
        0
176
     1
290
     0
176
     1
 90
       13
176
     1
 40
0.0
176
     1
 90
        0
176
     1
290
     0
176
     1
290
     1
176
     1
290
     1
176
     1
290
     0
176
     1
290
     0
176
     1
290
     0
176
     1
290
     0
176
     1
290
     0
176
     1
290
     0
176
     1
 90
       50
176
     1
 40
0.0
176
     1
 40
1.0
176
     1
 90
        0
176
     1
 62
    18
420
        0
176
     1
 90
       50
176
     1
 90
        3
176
     1
 62
     5
420
      255
176
     1
290
     0
176
     1
 90
       50
176
     1
 90
       50
176
     1
 90
       50
176
     1
290
     0
176
     1
 90
       50
176
     1
 62
   256
176
     0
 40
1.0
176
     0
 90
        2
176
     1
  1
strokes_ogs.tif
176
     1
290
     0
176
     1
 40
1.0
176
     1
 40
1.0
176
     1
  0
VISUALSTYLE
  5
31
102
{ACAD_REACTORS
330
2A
102
}
330
2A
100
AcDbVisualStyle
  2
Hidden
 70
     6
177
     3
291
     0
 70
    58
 90
        1
176
     1
 90
        2
176
     1
 90
        2
176
     1
 90
        0
176
     1
 40
0.6
176
     1
 40
30.0
176
     1
 62
     7
420
 16777215
176
     1
 90
        2
176
     1
 90
        2
176
     1
 62
     7
176
     1
 62
   257
176
     1
 90
        2
176
     1
 90
        1
176
     1
 40
40.0
176
     1
 90
        0
176
     1
 62
   257
176
     1
 40
1.0
176
     1
 90
        1
176
     1
 90
        6
176
     1
 90
        2
176
     1
 62
     7
176
     1
 90
        3
176
     1
 90
        0
176
     1
 90
        0
176
     1
290
     0
176
     1
 90
        1
176
     1
 40
0.0
176
     1
 90
        0
176
     1
290
     0
176
     1
290
     1
176
     1
290
     1
176
     1
290
     0
176
     1
290
     0
176
     1
290
     0
176
     1
290
     0
176
     1
290
     0
176
     1
290
     0
176
     1
 90
       50
176
     1
 40
0.0
176
     1
 40
1.0
176
     1
 90
        0
176
     1
 62
    18
420
        0
176
     1
 90
       50
176
     1
 90
        3
176
     1
 62
     5
420
      255
176
     1
290
     0
176
     1
 90
       50
176
     1
 90
       50
176
     1
 90
       50
176
     1
290
     0
176
     1
 90
       50
176
     1
 62
   256
176
     0
 40
1.0
176
     0
 90
        2
176
     1
  1
strokes_ogs.tif
176
     1
290
     0
176
     1
 40
1.0
176
     1
 40
1.0
176
     1
  0
VISUALSTYLE
  5
3B
102
{ACAD_REACTORS
330
2A
102
}
330
2A
100
AcDbVisualStyle
  2
JitterOff
 70
    20
177
     3
291
     1
 70
    58
 90
        2
176
     0
 90
        2
176
     0
 90
        0
176
     0
 90
        0
176
     0
 40
0.6
176
     0
 40
30.0
176
     0
 62
     7
420
 16777215
176
     0
 90
        1
176
     0
 90
        4
176
     0
 62
     7
176
     0
 62
   257
176
     0
 90
        1
176
     0
 90
        1
176
     0
 40
1.0
176
     0
 90
       10
176
     2
 62
     7
176
     0
 40
1.0
176
     0
 90
        1
176
     0
 90
        6
176
     0
 90
        2
176
     0
 62
     7
176
     0
 90
        5
176
     0
 90
        0
176
     0
 90
        0
176
     0
290
     0
176
     0
 90
        1
176
     0
 40
0.0
176
     0
 90
        0
176
     0
290
     0
176
     0
290
     1
176
     0
290
     1
176
     0
290
     0
176
     0
290
     0
176
     0
290
     0
176
     0
290
     0
176
     0
290
     0
176
     0
290
     0
176
     0
 90
       50
176
     0
 40
0.0
176
     0
 40
1.0
176
     0
 90
        0
176
     0
 62
    18
420
        0
176
     0
 90
       50
176
     0
 90
        3
176
     0
 62
     5
420
      255
176
     0
290
     0
176
     0
 90
       50
176
     0
 90
       50
176
     0
 90
       50
176
     0
290
     0
176
     0
 90
       50
176
     0
 62
   256
176
     0
 40
1.0
176
     0
 90
        2
176
     0
  1
strokes_ogs.tif
176
     0
290
     0
176
     0
 40
1.0
176
     0
 40
1.0
176
     0
  0
VISUALSTYLE
  5
38
102
{ACAD_REACTORS
330
2A
102
}
330
2A
100
AcDbVisualStyle
  2
Linepattern
 70
    14
177
     3
291
     1
 70
    58
 90
        2
176
     1
 90
        2
176
     1
 90
        0
176
     1
 90
        0
176
     1
 40
0.6
176
     1
 40
30.0
176
     1
 62
     7
420
 16777215
176
     1
 90
        1
176
     1
 90
        4
176
     1
 62
     7
176
     1
 62
   257
176
     1
 90
        7
176
     1
 90
        7
176
     1
 40
1.0
176
     1
 90
        8
176
     1
 62
     7
176
     1
 40
1.0
176
     1
 90
        1
176
     1
 90
        6
176
     1
 90
        2
176
     1
 62
     7
176
     1
 90
        5
176
     1
 90
        0
176
     1
 90
        0
176
     1
290
     0
176
     1
 90
        1
176
     1
 40
0.0
176
     1
 90
        0
176
     1
290
     0
176
     1
290
     1
176
     1
290
     1
176
     1
290
     0
176
     1
290
     0
176
     1
290
     0
176
     1
290
     0
176
     1
290
     0
176
     1
290
     0
176
     1
 90
       50
176
     1
 40
0.0
176
     1
 40
1.0
176
     1
 90
        0
176
     1
 62
    18
420
        0
176
     1
 90
       50
176
     1
 90
        3
176
     1
 62
     5
420
      255
176
     1
290
     0
176
     1
 90
       50
176
     1
 90
       50
176
     1
 90
       50
176
     1
290
     0
176
     1
 90
       50
176
     1
 62
   256
176
     0
 40
1.0
176
     0
 90
        2
176
     1
  1
strokes_ogs.tif
176
     1
290
     0
176
     1
 40
1.0
176
     1
 40
1.0
176
     1
  0
VISUALSTYLE
  5
3C
102
{ACAD_REACTORS
330
2A
102
}
330
2A
100
AcDbVisualStyle
  2
OverhangOff
 70
    21
177
     3
291
     1
 70
    58
 90
        2
176
     0
 90
        2
176
     0
 90
        0
176
     0
 90
        0
176
     0
 40
0.6
176
     0
 40
30.0
176
     0
 62
     7
420
 16777215
176
     0
 90
        1
176
     0
 90
        4
176
     0
 62
     7
176
     0
 62
   257
176
     0
 90
        1
176
     0
 90
        1
176
     0
 40
1.0
176
     0
 90
        9
176
     2
 62
     7
176
     0
 40
1.0
176
     0
 90
        1
176
     0
 90
        6
176
     0
 90
        2
176
     0
 62
     7
176
     0
 90
        5
176
     0
 90
        0
176
     0
 90
        0
176
     0
290
     0
176
     0
 90
        1
176
     0
 40
0.0
176
     0
 90
        0
176
     0
290
     0
176
     0
290
     1
176
     0
290
     1
176
     0
290
     0
176
     0
290
     0
176
     0
290
     0
176
     0
290
     0
176
     0
290
     0
176
     0
290
     0
176
     0
 90
       50
176
     0
 40
0.0
176
     0
 40
1.0
176
     0
 90
        0
176
     0
 62
    18
420
        0
176
     0
 90
       50
176
     0
 90
        3
176
     0
 62
     5
420
      255
176
     0
290
     0
176
     0
 90
       50
176
     0
 90
       50
176
     0
 90
       50
176
     0
290
     0
176
     0
 90
       50
176
     0
 62
   256
176
     0
 40
1.0
176
     0
 90
        2
176
     0
  1
strokes_ogs.tif
176
     0
290
     0
176
     0
 40
1.0
176
     0
 40
1.0
176
     0
  0
VISUALSTYLE
  5
33
102
{ACAD_REACTORS
330
2A
102
}
330
2A
100
AcDbVisualStyle
  2
Realistic
 70
     8
177
     3
291
     0
 70
    58
 90
        2
176
     1
 90
        3
176
     1
 90
        0
176
     1
 90
        2
176
     1
 40
0.6
176
     1
 40
30.0
176
     1
 62
     7
420
 16777215
176
     1
 90
        0
176
     1
 90
        0
176
     1
 62
     7
176
     1
 62
   257
176
     1
 90
        1
176
     1
 90
        1
176
     1
 40
1.0
176
     1
 90
        8
176
     1
 62
   257
176
     1
 40
1.0
176
     1
 90
        1
176
     1
 90
        6
176
     1
 90
        2
176
     1
 62
     7
176
     1
 90
        3
176
     1
 90
        0
176
     1
 90
        0
176
     1
290
     0
176
     1
 90
       13
176
     1
 40
0.0
176
     1
 90
        0
176
     1
290
     0
176
     1
290
     1
176
     1
290
     1
176
     1
290
     0
176
     1
290
     0
176
     1
290
     0
176
     1
290
     0
176
     1
290
     0
176
     1
290
     0
176
     1
 90
       50
176
     1
 40
0.0
176
     1
 40
1.0
176
     1
 90
        0
176
     1
 62
    18
420
        0
176
     1
 90
       50
176
     1
 90
        3
176
     1
 62
     5
420
      255
176
     1
290
     0
176
     1
 90
       50
176
     1
 90
       50
176
     1
 90
       50
176
     1
290
     0
176
     1
 90
       50
176
     1
 62
   256
176
     0
 40
1.0
176
     0
 90
        2
176
     1
  1
strokes_ogs.tif
176
     1
290
     0
176
     1
 40
1.0
176
     1
 40
1.0
176
     1
  0
VISUALSTYLE
  5
42
102
{ACAD_REACTORS
330
2A
102
}
330
2A
100
AcDbVisualStyle
  2
Shaded
 70
    27
177
     3
291
     0
 70
    58
 90
        2
176
     1
 90
        2
176
     1
 90
        1
176
     1
 90
        2
176
     1
 40
0.6
176
     1
 40
30.0
176
     1
 62
     7
420
 16777215
176
     1
 90
        0
176
     1
 90
        4
176
     1
 62
     7
176
     1
 62
   257
176
     1
 90
        1
176
     1
 90
        1
176
     1
 40
1.0
176
     1
 90
        8
176
     1
 62
   257
176
     1
 40
1.0
176
     1
 90
        1
176
     1
 90
        6
176
     1
 90
        2
176
     1
 62
     8
420
  7895160
176
     1
 90
        3
176
     1
 90
        0
176
     1
 90
        0
176
     1
290
     0
176
     1
 90
        5
176
     1
 40
0.0
176
     1
 90
        0
176
     1
290
     0
176
     1
290
     1
176
     1
290
     1
176
     1
290
     0
176
     1
290
     0
176
     1
290
     0
176
     1
290
     0
176
     1
290
     0
176
     1
290
     0
176
     1
 90
       50
176
     1
 40
0.0
176
     1
 40
1.0
176
     1
 90
        0
176
     1
 62
    18
420
        0
176
     1
 90
       50
176
     1
 90
        3
176
     1
 62
     5
420
      255
176
     1
290
     0
176
     1
 90
       50
176
     1
 90
       50
176
     1
 90
       50
176
     1
290
     0
176
     1
 90
       50
176
     1
 62
   256
176
     0
 40
1.0
176
     0
 90
        2
176
     1
  1
strokes_ogs.tif
176
     1
290
     0
176
     1
 40
1.0
176
     1
 40
1.0
176
     1
  0
VISUALSTYLE
  5
41
102
{ACAD_REACTORS
330
2A
102
}
330
2A
100
AcDbVisualStyle
  2
Shaded with edges
 70
    26
177
     3
291
     0
 70
    58
 90
        2
176
     1
 90
        2
176
     1
 90
        1
176
     1
 90
        2
176
     1
 40
0.6
176
     1
 40
30.0
176
     1
 62
     7
420
 16777215
176
     1
 90
        1
176
     1
 90
       10
176
     1
 62
     7
176
     1
 62
   257
176
     1
 90
        2
176
     1
 90
        1
176
     1
 40
1.0
176
     1
 90
        8
176
     1
 62
   257
176
     1
 40
1.0
176
     1
 90
        1
176
     1
 90
        6
176
     1
 90
        2
176
     1
 62
     7
176
     1
 90
        3
176
     1
 90
        0
176
     1
 90
        0
176
     1
290
     0
176
     1
 90
        5
176
     1
 40
0.0
176
     1
 90
        0
176
     1
290
     0
176
     1
290
     1
176
     1
290
     1
176
     1
290
     0
176
     1
290
     0
176
     1
290
     0
176
     1
290
     0
176
     1
290
     0
176
     1
290
     0
176
     1
 90
       50
176
     1
 40
0.0
176
     1
 40
1.0
176
     1
 90
        0
176
     1
 62
    18
420
        0
176
     1
 90
       50
176
     1
 90
        3
176
     1
 62
     5
420
      255
176
     1
290
     0
176
     1
 90
       50
176
     1
 90
       50
176
     1
 90
       50
176
     1
290
     0
176
     1
 90
       50
176
     1
 62
   256
176
     0
 40
1.0
176
     0
 90
        2
176
     1
  1
strokes_ogs.tif
176
     1
290
     0
176
     1
 40
1.0
176
     1
 40
1.0
176
     1
  0
VISUALSTYLE
  5
3E
102
{ACAD_REACTORS
330
2A
102
}
330
2A
100
AcDbVisualStyle
  2
Shades of Gray
 70
    23
177
     3
291
     0
 70
    58
 90
        2
176
     1
 90
        2
176
     1
 90
        3
176
     1
 90
        0
176
     1
 40
0.6
176
     1
 40
30.0
176
     1
 62
     7
420
 16777215
176
     1
 90
        2
176
     1
 90
        2
176
     1
 62
     7
176
     1
 62
     7
176
     1
 90
        1
176
     1
 90
        1
176
     1
 40
40.0
176
     1
 90
        8
176
     1
 62
     7
176
     1
 40
1.0
176
     1
 90
        1
176
     1
 90
        6
176
     1
 90
        2
176
     1
 62
     7
176
     1
 90
        3
176
     1
 90
        0
176
     1
 90
        0
176
     1
290
     0
176
     1
 90
        1
176
     1
 40
0.0
176
     1
 90
        0
176
     1
290
     0
176
     1
290
     1
176
     1
290
     1
176
     1
290
     0
176
     1
290
     0
176
     1
290
     0
176
     1
290
     0
176
     1
290
     0
176
     1
290
     0
176
     1
 90
       50
176
     1
 40
0.0
176
     1
 40
1.0
176
     1
 90
        0
176
     1
 62
    18
420
        0
176
     1
 90
       50
176
     1
 90
        3
176
     1
 62
     5
420
      255
176
     1
290
     0
176
     1
 90
       50
176
     1
 90
       50
176
     1
 90
       50
176
     1
290
     0
176
     1
 90
       50
176
     1
 62
   256
176
     0
 40
1.0
176
     0
 90
        2
176
     1
  1
strokes_ogs.tif
176
     1
290
     0
176
     1
 40
1.0
176
     1
 40
1.0
176
     1
  0
VISUALSTYLE
  5
3F
102
{ACAD_REACTORS
330
2A
102
}
330
2A
100
AcDbVisualStyle
  2
Sketchy
 70
    24
177
     3
291
     0
 70
    58
 90
        1
176
     1
 90
        2
176
     1
 90
        2
176
     1
 90
        0
176
     1
 40
0.6
176
     1
 40
30.0
176
     1
 62
     7
420
 16777215
176
     1
 90
        2
176
     1
 90
        2
176
     1
 62
     7
176
     1
 62
     7
176
     1
 90
        1
176
     1
 90
        1
176
     1
 40
40.0
176
     1
 90
       11
176
     1
 62
     7
176
     1
 40
1.0
176
     1
 90
        1
176
     1
 90
        6
176
     1
 90
        2
176
     1
 62
     7
176
     1
 90
        6
176
     1
 90
        0
176
     1
 90
        0
176
     1
290
     0
176
     1
 90
        1
176
     1
 40
0.0
176
     1
 90
        0
176
     1
290
     0
176
     1
290
     1
176
     1
290
     1
176
     1
290
     0
176
     1
290
     0
176
     1
290
     0
176
     1
290
     0
176
     1
290
     0
176
     1
290
     0
176
     1
 90
       50
176
     1
 40
0.0
176
     1
 40
1.0
176
     1
 90
        0
176
     1
 62
    18
420
        0
176
     1
 90
       50
176
     1
 90
        3
176
     1
 62
     5
420
      255
176
     1
290
     0
176
     1
 90
       50
176
     1
 90
       50
176
     1
 90
       50
176
     1
290
     0
176
     1
 90
       50
176
     1
 62
   256
176
     0
 40
1.0
176
     0
 90
        2
176
     1
  1
strokes_ogs.tif
176
     1
290
     0
176
     1
 40
1.0
176
     1
 40
1.0
176
     1
  0
VISUALSTYLE
  5
37
102
{ACAD_REACTORS
330
2A
102
}
330
2A
100
AcDbVisualStyle
  2
Thicken
 70
    13
177
     3
291
     1
 70
    58
 90
        2
176
     1
 90
        2
176
     1
 90
        0
176
     1
 90
        0
176
     1
 40
0.6
176
     1
 40
30.0
176
     1
 62
     7
420
 16777215
176
     1
 90
        1
176
     1
 90
        4
176
     1
 62
     7
176
     1
 62
   257
176
     1
 90
        1
176
     1
 90
        1
176
     1
 40
1.0
176
     1
 90
       12
176
     1
 62
     7
176
     1
 40
1.0
176
     1
 90
        1
176
     1
 90
        6
176
     1
 90
        2
176
     1
 62
     7
176
     1
 90
        5
176
     1
 90
        0
176
     1
 90
        0
176
     1
290
     0
176
     1
 90
        1
176
     1
 40
0.0
176
     1
 90
        0
176
     1
290
     0
176
     1
290
     1
176
     1
290
     1
176
     1
290
     0
176
     1
290
     0
176
     1
290
     0
176
     1
290
     0
176
     1
290
     0
176
     1
290
     0
176
     1
 90
       50
176
     1
 40
0.0
176
     1
 40
1.0
176
     1
 90
        0
176
     1
 62
    18
420
        0
176
     1
 90
       50
176
     1
 90
        3
176
     1
 62
     5
420
      255
176
     1
290
     0
176
     1
 90
       50
176
     1
 90
       50
176
     1
 90
       50
176
     1
290
     0
176
     1
 90
       50
176
     1
 62
   256
176
     0
 40
1.0
176
     0
 90
        2
176
     1
  1
strokes_ogs.tif
176
     1
290
     0
176
     1
 40
1.0
176
     1
 40
1.0
176
     1
  0
VISUALSTYLE
  5
30
102
{ACAD_REACTORS
330
2A
102
}
330
2A
100
AcDbVisualStyle
  2
Wireframe
 70
     5
177
     3
291
     0
 70
    58
 90
        0
176
     1
 90
        2
176
     1
 90
        0
176
     1
 90
        0
176
     1
 40
0.6
176
     1
 40
30.0
176
     1
 62
     7
420
 16777215
176
     1
 90
        1
176
     1
 90
        4
176
     1
 62
     7
176
     1
 62
   257
176
     1
 90
        1
176
     1
 90
        1
176
     1
 40
1.0
176
     1
 90
        0
176
     1
 62
   257
176
     1
 40
1.0
176
     1
 90
        1
176
     1
 90
        6
176
     1
 90
        2
176
     1
 62
     7
176
     1
 90
        3
176
     1
 90
        0
176
     1
 90
        0
176
     1
290
     0
176
     1
 90
        1
176
     1
 40
0.0
176
     1
 90
        0
176
     1
290
     0
176
     1
290
     1
176
     1
290
     1
176
     1
290
     0
176
     1
290
     0
176
     1
290
     0
176
     1
290
     0
176
     1
290
     0
176
     1
290
     0
176
     1
 90
       50
176
     1
 40
0.0
176
     1
 40
1.0
176
     1
 90
        0
176
     1
 62
    18
420
        0
176
     1
 90
       50
176
     1
 90
        3
176
     1
 62
     5
420
      255
176
     1
290
     0
176
     1
 90
       50
176
     1
 90
       50
176
     1
 90
       50
176
     1
290
     0
176
     1
 90
       50
176
     1
 62
   256
176
     0
 40
1.0
176
     0
 90
        2
176
     1
  1
strokes_ogs.tif
176
     1
290
     0
176
     1
 40
1.0
176
     1
 40
1.0
176
     1
  0
VISUALSTYLE
  5
40
102
{ACAD_REACTORS
330
2A
102
}
330
2A
100
AcDbVisualStyle
  2
X-Ray
 70
    25
177
     3
291
     0
 70
    58
 90
        2
176
     1
 90
        2
176
     1
 90
        1
176
     1
 90
        1
176
     1
 40
0.5
176
     1
 40
30.0
176
     1
 62
     7
420
 16777215
176
     1
 90
        1
176
     1
 90
        0
176
     1
 62
     7
176
     1
 62
   257
176
     1
 90
        1
176
     1
 90
        1
176
     1
 40
1.0
176
     1
 90
        8
176
     1
 62
     7
176
     1
 40
1.0
176
     1
 90
        1
176
     1
 90
        6
176
     1
 90
        2
176
     1
 62
     7
176
     1
 90
        3
176
     1
 90
        0
176
     1
 90
        0
176
     1
290
     0
176
     1
 90
       13
176
     1
 40
0.0
176
     1
 90
        0
176
     1
290
     0
176
     1
290
     1
176
     1
290
     1
176
     1
290
     0
176
     1
290
     0
176
     1
290
     0
176
     1
290
     0
176
     1
290
     0
176
     1
290
     0
176
     1
 90
       50
176
     1
 40
0.0
176
     1
 40
1.0
176
     1
 90
        0
176
     1
 62
    18
420
        0
176
     1
 90
       50
176
     1
 90
        3
176
     1
 62
     5
420
      255
176
     1
290
     0
176
     1
 90
       50
176
     1
 90
       50
176
     1
 90
       50
176
     1
290
     0
176
     1
 90
       50
176
     1
 62
   256
176
     0
 40
1.0
176
     0
 90
        2
176
     1
  1
strokes_ogs.tif
176
     1
290
     0
176
     1
 40
1.0
176
     1
 40
1.0
176
     1
  0
DICTIONARYVAR
  5
DC
102
{ACAD_REACTORS
330
DB
102
}
330
DB
100
DictionaryVariables
280
     0
  1
1:1
  0
DICTIONARYVAR
  5
E1
102
{ACAD_REACTORS
330
DB
102
}
330
DB
100
DictionaryVariables
280
     0
  1
Standard
  0
DICTIONARYVAR
  5
E0
102
{ACAD_REACTORS
330
DB
102
}
330
DB
100
DictionaryVariables
280
     0
  1
Standard
  0
DICTIONARY
  5
DD
330
5A
100
AcDbDictionary
280
     1
281
     1
  3
ACAD_ROUNDTRIP_2008_TABLESTYLE_CELLSTYLEMAP
360
DE
  0
CELLSTYLEMAP
  5
DE
102
{ACAD_REACTORS
330
DD
102
}
330
DD
100
AcDbCellStyleMap
 90
        3
300
CELLSTYLE
  1
TABLEFORMAT_BEGIN
 90
        5
170
     1
 91
        0
 92
    32768
 62
   257
 93
        1
300
CONTENTFORMAT
  1
CONTENTFORMAT_BEGIN
 90
        0
 91
        0
 92
        4
 93
        0
300

 40
0.0
140
1.0
 94
        5
 62
     0
340
11
144
0.25
309
CONTENTFORMAT_END
171
     1
301
MARGIN
  1
CELLMARGIN_BEGIN
 40
0.06
 40
0.06
 40
0.06
 40
0.06
 40
0.06
 40
0.06
309
CELLMARGIN_END
 94
        6
 95
        1
302
GRIDFORMAT
  1
GRIDFORMAT_BEGIN
 90
        0
 91
        1
 62
     0
 92
       -2
340
14
 93
        0
 40
0.045
309
GRIDFORMAT_END
 95
        2
302
GRIDFORMAT
  1
GRIDFORMAT_BEGIN
 90
        0
 91
        1
 62
     0
 92
       -2
340
14
 93
        0
 40
0.045
309
GRIDFORMAT_END
 95
        4
302
GRIDFORMAT
  1
GRIDFORMAT_BEGIN
 90
        0
 91
        1
 62
     0
 92
       -2
340
14
 93
        0
 40
0.045
309
GRIDFORMAT_END
 95
        8
302
GRIDFORMAT
  1
GRIDFORMAT_BEGIN
 90
        0
 91
        1
 62
     0
 92
       -2
340
14
 93
        0
 40
0.045
309
GRIDFORMAT_END
 95
       16
302
GRIDFORMAT
  1
GRIDFORMAT_BEGIN
 90
        0
 91
        1
 62
     0
 92
       -2
340
14
 93
        0
 40
0.045
309
GRIDFORMAT_END
 95
       32
302
GRIDFORMAT
  1
GRIDFORMAT_BEGIN
 90
        0
 91
        1
 62
     0
 92
       -2
340
14
 93
        0
 40
0.045
309
GRIDFORMAT_END
309
TABLEFORMAT_END
  1
CELLSTYLE_BEGIN
 90
        1
 91
        1
300
_TITLE
309
CELLSTYLE_END
300
CELLSTYLE
  1
TABLEFORMAT_BEGIN
 90
        5
170
     1
 91
        0
 92
        0
 62
   257
 93
        1
300
CONTENTFORMAT
  1
CONTENTFORMAT_BEGIN
 90
        0
 91
        0
 92
        4
 93
        0
300

 40
0.0
140
1.0
 94
        5
 62
     0
340
11
144
0.18
309
CONTENTFORMAT_END
171
     1
301
MARGIN
  1
CELLMARGIN_BEGIN
 40
0.06
 40
0.06
 40
0.06
 40
0.06
 40
0.06
 40
0.06
309
CELLMARGIN_END
 94
        6
 95
        1
302
GRIDFORMAT
  1
GRIDFORMAT_BEGIN
 90
        0
 91
        1
 62
     0
 92
       -2
340
14
 93
        0
 40
0.045
309
GRIDFORMAT_END
 95
        2
302
GRIDFORMAT
  1
GRIDFORMAT_BEGIN
 90
        0
 91
        1
 62
     0
 92
       -2
340
14
 93
        0
 40
0.045
309
GRIDFORMAT_END
 95
        4
302
GRIDFORMAT
  1
GRIDFORMAT_BEGIN
 90
        0
 91
        1
 62
     0
 92
       -2
340
14
 93
        0
 40
0.045
309
GRIDFORMAT_END
 95
        8
302
GRIDFORMAT
  1
GRIDFORMAT_BEGIN
 90
        0
 91
        1
 62
     0
 92
       -2
340
14
 93
        0
 40
0.045
309
GRIDFORMAT_END
 95
       16
302
GRIDFORMAT
  1
GRIDFORMAT_BEGIN
 90
        0
 91
        1
 62
     0
 92
       -2
340
14
 93
        0
 40
0.045
309
GRIDFORMAT_END
 95
       32
302
GRIDFORMAT
  1
GRIDFORMAT_BEGIN
 90
        0
 91
        1
 62
     0
 92
       -2
340
14
 93
        0
 40
0.045
309
GRIDFORMAT_END
309
TABLEFORMAT_END
  1
CELLSTYLE_BEGIN
 90
        2
 91
        1
300
_HEADER
309
CELLSTYLE_END
300
CELLSTYLE
  1
TABLEFORMAT_BEGIN
 90
        5
170
     1
 91
        0
 92
        0
 62
   257
 93
        1
300
CONTENTFORMAT
  1
CONTENTFORMAT_BEGIN
 90
        0
 91
        0
 92
        4
 93
        0
300

 40
0.0
140
1.0
 94
        2
 62
     0
340
11
144
0.18
309
CONTENTFORMAT_END
171
     1
301
MARGIN
  1
CELLMARGIN_BEGIN
 40
0.06
 40
0.06
 40
0.06
 40
0.06
 40
0.06
 40
0.06
309
CELLMARGIN_END
 94
        6
 95
        1
302
GRIDFORMAT
  1
GRIDFORMAT_BEGIN
 90
        0
 91
        1
 62
     0
 92
       -2
340
14
 93
        0
 40
0.045
309
GRIDFORMAT_END
 95
        2
302
GRIDFORMAT
  1
GRIDFORMAT_BEGIN
 90
        0
 91
        1
 62
     0
 92
       -2
340
14
 93
        0
 40
0.045
309
GRIDFORMAT_END
 95
        4
302
GRIDFORMAT
  1
GRIDFORMAT_BEGIN
 90
        0
 91
        1
 62
     0
 92
       -2
340
14
 93
        0
 40
0.045
309
GRIDFORMAT_END
 95
        8
302
GRIDFORMAT
  1
GRIDFORMAT_BEGIN
 90
        0
 91
        1
 62
     0
 92
       -2
340
14
 93
        0
 40
0.045
309
GRIDFORMAT_END
 95
       16
302
GRIDFORMAT
  1
GRIDFORMAT_BEGIN
 90
        0
 91
        1
 62
     0
 92
       -2
340
14
 93
        0
 40
0.045
309
GRIDFORMAT_END
 95
       32
302
GRIDFORMAT
  1
GRIDFORMAT_BEGIN
 90
        0
 91
        1
 62
     0
 92
       -2
340
14
 93
        0
 40
0.045
309
GRIDFORMAT_END
309
TABLEFORMAT_END
  1
CELLSTYLE_BEGIN
 90
        3
 91
        2
300
_DATA
309
CELLSTYLE_END
  0
ENDSEC
  0
EOF
