  0
SECTION
  2
HEADER
  9
$ACADVER
  1
AC1032
  9
$ACADMAINTVER
 90
       55
  9
$DWGCODEPAGE
  3
ANSI_1251
  9
$LASTSAVEDBY
  1
torde
  9
$REQUIREDVERSIONS
160
                 0
  9
$INSBASE
 10
0.0
 20
0.0
 30
0.0
  9
$EXTMIN
 10
-129.6786
 20
-93.08657
 30
0.0
  9
$EXTMAX
 10
30.68973
 20
62.16746
 30
0.0
  9
$LIMMIN
 10
0.0
 20
0.0
  9
$LIMMAX
 10
12.0
 20
9.0
  9
$ORTHOMODE
 70
     0
  9
$REGENMODE
 70
     1
  9
$FILLMODE
 70
     1
  9
$QTEXTMODE
 70
     0
  9
$MIRRTEXT
 70
     1
  9
$LTSCALE
 40
1.0
  9
$ATTMODE
 70
     1
  9
$TEXTSIZE
 40
0.2
  9
$TRACEWID
 40
0.05
  9
$TEXTSTYLE
  7
Standard
  9
$CLAYER
  8
0
  9
$CELTYPE
  6
ByLayer
  9
$CECOLOR
 62
   256
  9
$CELTSCALE
 40
1.0
  9
$DISPSILH
 70
     0
  9
$DIMSCALE
 40
1.0
  9
$DIMASZ
 40
0.18
  9
$DIMEXO
 40
0.0625
  9
$DIMDLI
 40
0.38
  9
$DIMRND
 40
0.0
  9
$DIMDLE
 40
0.0
  9
$DIMEXE
 40
0.18
  9
$DIMTP
 40
0.0
  9
$DIMTM
 40
0.0
  9
$DIMTXT
 40
0.18
  9
$DIMCEN
 40
0.09
  9
$DIMTSZ
 40
0.0
  9
$DIMTOL
 70
     0
  9
$DIMLIM
 70
     0
  9
$DIMTIH
 70
     1
  9
$DIMTOH
 70
     1
  9
$DIMSE1
 70
     0
  9
$DIMSE2
 70
     0
  9
$DIMTAD
 70
     0
  9
$DIMZIN
 70
     0
  9
$DIMBLK
  1

  9
$DIMASO
 70
     1
  9
$DIMSHO
 70
     1
  9
$DIMPOST
  1

  9
$DIMAPOST
  1

  9
$DIMALT
 70
     0
  9
$DIMALTD
 70
     2
  9
$DIMALTF
 40
25.4
  9
$DIMLFAC
 40
1.0
  9
$DIMTOFL
 70
     0
  9
$DIMTVP
 40
0.0
  9
$DIMTIX
 70
     0
  9
$DIMSOXD
 70
     0
  9
$DIMSAH
 70
     0
  9
$DIMBLK1
  1

  9
$DIMBLK2
  1

  9
$DIMSTYLE
  2
Standard
  9
$DIMCLRD
 70
     0
  9
$DIMCLRE
 70
     0
  9
$DIMCLRT
 70
     0
  9
$DIMTFAC
 40
1.0
  9
$DIMGAP
 40
0.09
  9
$DIMJUST
 70
     0
  9
$DIMSD1
 70
     0
  9
$DIMSD2
 70
     0
  9
$DIMTOLJ
 70
     1
  9
$DIMTZIN
 70
     0
  9
$DIMALTZ
 70
     0
  9
$DIMALTTZ
 70
     0
  9
$DIMUPT
 70
     0
  9
$DIMDEC
 70
     4
  9
$DIMTDEC
 70
     4
  9
$DIMALTU
 70
     2
  9
$DIMALTTD
 70
     2
  9
$DIMTXSTY
  7
Standard
  9
$DIMAUNIT
 70
     0
  9
$DIMADEC
 70
     0
  9
$DIMALTRND
 40
0.0
  9
$DIMAZIN
 70
     0
  9
$DIMDSEP
 70
    46
  9
$DIMATFIT
 70
     3
  9
$DIMFRAC
 70
     0
  9
$DIMLDRBLK
  1

  9
$DIMLUNIT
 70
     2
  9
$DIMLWD
 70
    -2
  9
$DIMLWE
 70
    -2
  9
$DIMTMOVE
 70
     0
  9
$DIMFXL
 40
1.0
  9
$DIMFXLON
 70
     0
  9
$DIMJOGANG
 40
0.7853981633974483
  9
$DIMTFILL
 70
     0
  9
$DIMTFILLCLR
 70
     0
  9
$DIMARCSYM
 70
     0
  9
$DIMLTYPE
  6

  9
$DIMLTEX1
  6

  9
$DIMLTEX2
  6

  9
$DIMTXTDIRECTION
 70
     0
  9
$LUNITS
 70
     2
  9
$LUPREC
 70
     4
  9
$SKETCHINC
 40
0.1
  9
$FILLETRAD
 40
0.0
  9
$AUNITS
 70
     0
  9
$AUPREC
 70
     0
  9
$MENU
  1
.
  9
$ELEVATION
 40
0.0
  9
$PELEVATION
 40
0.0
  9
$THICKNESS
 40
0.0
  9
$LIMCHECK
 70
     0
  9
$CHAMFERA
 40
0.0
  9
$CHAMFERB
 40
0.0
  9
$CHAMFERC
 40
0.0
  9
$CHAMFERD
 40
0.0
  9
$SKPOLY
 70
     0
  9
$TDCREATE
 40
2461096.54155809
  9
$TDUCREATE
 40
2461096.41655809
  9
$TDUPDATE
 40
2461096.54155809
  9
$TDUUPDATE
 40
2461096.41655809
  9
$TDINDWG
 40
0.0000000116
  9
$TDUSRTIMER
 40
0.0000000116
  9
$USRTIMER
 70
     1
  9
$ANGBASE
 50
0.0
  9
$ANGDIR
 70
     0
  9
$PDMODE
 70
     0
  9
$PDSIZE
 40
0.0
  9
$PLINEWID
 40
0.0
  9
$SPLFRAME
 70
     0
  9
$SPLINETYPE
 70
     6
  9
$SPLINESEGS
 70
     8
  9
$HANDSEED
  5
E3
  9
$SURFTAB1
 70
     6
  9
$SURFTAB2
 70
     6
  9
$SURFTYPE
 70
     6
  9
$SURFU
 70
     6
  9
$SURFV
 70
     6
  9
$UCSBASE
  2

  9
$UCSNAME
  2

  9
$UCSORG
 10
0.0
 20
0.0
 30
0.0
  9
$UCSXDIR
 10
1.0
 20
0.0
 30
0.0
  9
$UCSYDIR
 10
0.0
 20
1.0
 30
0.0
  9
$UCSORTHOREF
  2

  9
$UCSORTHOVIEW
 70
     0
  9
$UCSORGTOP
 10
0.0
 20
0.0
 30
0.0
  9
$UCSORGBOTTOM
 10
0.0
 20
0.0
 30
0.0
  9
$UCSORGLEFT
 10
0.0
 20
0.0
 30
0.0
  9
$UCSORGRIGHT
 10
0.0
 20
0.0
 30
0.0
  9
$UCSORGFRONT
 10
0.0
 20
0.0
 30
0.0
  9
$UCSORGBACK
 10
0.0
 20
0.0
 30
0.0
  9
$PUCSBASE
  2

  9
$PUCSNAME
  2

  9
$PUCSORG
 10
0.0
 20
0.0
 30
0.0
  9
$PUCSXDIR
 10
1.0
 20
0.0
 30
0.0
  9
$PUCSYDIR
 10
0.0
 20
1.0
 30
0.0
  9
$PUCSORTHOREF
  2

  9
$PUCSORTHOVIEW
 70
     0
  9
$PUCSORGTOP
 10
0.0
 20
0.0
 30
0.0
  9
$PUCSORGBOTTOM
 10
0.0
 20
0.0
 30
0.0
  9
$PUCSORGLEFT
 10
0.0
 20
0.0
 30
0.0
  9
$PUCSORGRIGHT
 10
0.0
 20
0.0
 30
0.0
  9
$PUCSORGFRONT
 10
0.0
 20
0.0
 30
0.0
  9
$PUCSORGBACK
 10
0.0
 20
0.0
 30
0.0
  9
$USERI1
 70
     0
  9
$USERI2
 70
     0
  9
$USERI3
 70
     0
  9
$USERI4
 70
     0
  9
$USERI5
 70
     0
  9
$USERR1
 40
0.0
  9
$USERR2
 40
0.0
  9
$USERR3
 40
0.0
  9
$USERR4
 40
0.0
  9
$USERR5
 40
0.0
  9
$WORLDVIEW
 70
     1
  9
$SHADEDGE
 70
     3
  9
$SHADEDIF
 70
    70
  9
$TILEMODE
 70
     1
  9
$MAXACTVP
 70
    64
  9
$PINSBASE
 10
0.0
 20
0.0
 30
0.0
  9
$PLIMCHECK
 70
     0
  9
$PEXTMIN
 10
1.000000000000000E+20
 20
1.000000000000000E+20
 30
1.000000000000000E+20
  9
$PEXTMAX
 10
-1.000000000000000E+20
 20
-1.000000000000000E+20
 30
-1.000000000000000E+20
  9
$PLIMMIN
 10
0.0
 20
0.0
  9
$PLIMMAX
 10
12.0
 20
9.0
  9
$UNITMODE
 70
     0
  9
$VISRETAIN
 70
     1
  9
$PLINEGEN
 70
     0
  9
$PSLTSCALE
 70
     1
  9
$TREEDEPTH
 70
  3020
  9
$CMLSTYLE
  2
Standard
  9
$CMLJUST
 70
     0
  9
$CMLSCALE
 40
1.0
  9
$PROXYGRAPHICS
 70
     1
  9
$MEASUREMENT
 70
     0
  9
$CELWEIGHT
370
    -1
  9
$ENDCAPS
280
     0
  9
$JOINSTYLE
280
     0
  9
$LWDISPLAY
290
     0
  9
$INSUNITS
 70
     5
  9
$HYPERLINKBASE
  1

  9
$STYLESHEET
  1

  9
$XEDIT
290
     1
  9
$CEPSNTYPE
380
     0
  9
$PSTYLEMODE
290
     1
  9
$FINGERPRINTGUID
  2
{db06bfb2-95ab-4fa0-b5af-79c6b12682a3}
  9
$VERSIONGUID
  2
{FAEB1C32-E019-11D5-929B-00C0DF256EC4}
  9
$EXTNAMES
290
     1
  9
$PSVPSCALE
 40
0.0
  9
$OLESTARTUP
290
     0
  9
$SORTENTS
280
   127
  9
$INDEXCTL
280
     0
  9
$HIDETEXT
280
     1
  9
$XCLIPFRAME
280
     2
  9
$HALOGAP
280
     0
  9
$OBSCOLOR
 70
   257
  9
$OBSLTYPE
280
     0
  9
$INTERSECTIONDISPLAY
280
     0
  9
$INTERSECTIONCOLOR
 70
   257
  9
$DIMASSOC
280
     2
  9
$PROJECTNAME
  1

  9
$CAMERADISPLAY
290
     0
  9
$LENSLENGTH
 40
50.0
  9
$CAMERAHEIGHT
 40
0.0
  9
$STEPSPERSEC
 40
2.0
  9
$STEPSIZE
 40
6.0
  9
$3DDWFPREC
 40
2.0
  9
$PSOLWIDTH
 40
0.25
  9
$PSOLHEIGHT
 40
4.0
  9
$LOFTANG1
 40
1.570796326794897
  9
$LOFTANG2
 40
1.570796326794897
  9
$LOFTMAG1
 40
0.0
  9
$LOFTMAG2
 40
0.0
  9
$LOFTPARAM
 70
     7
  9
$LOFTNORMALS
280
     1
  9
$LATITUDE
 40
37.795
  9
$LONGITUDE
 40
-122.394
  9
$NORTHDIRECTION
 40
0.0
  9
$TIMEZONE
 70
 -8000
  9
$LIGHTGLYPHDISPLAY
280
     1
  9
$TILEMODELIGHTSYNCH
280
     1
  9
$CMATERIAL
347
44
  9
$SOLIDHIST
280
     0
  9
$SHOWHIST
280
     1
  9
$DWFFRAME
280
     2
  9
$DGNFRAME
280
     2
  9
$REALWORLDSCALE
290
     1
  9
$INTERFERECOLOR
 62
   256
  9
$CSHADOW
280
     0
  9
$SHADOWPLANELOCATION
 40
0.0
  0
ENDSEC
  0
SECTION
  2
CLASSES
  0
CLASS
  1
ACDBDICTIONARYWDFLT
  2
AcDbDictionaryWithDefault
  3
ObjectDBX Classes
 90
        0
 91
        3
280
     0
281
     0
  0
CLASS
  1
VISUALSTYLE
  2
AcDbVisualStyle
  3
ObjectDBX Classes
 90
     4095
 91
        3
280
     0
281
     0
  0
CLASS
  1
MATERIAL
  2
AcDbMaterial
  3
ObjectDBX Classes
 90
     1153
 91
        3
280
     0
281
     0
  0
CLASS
  1
SCALE
  2
AcDbScale
  3
ObjectDBX Classes
 90
     1153
 91
        3
280
     0
281
     0
  0
CLASS
  1
TABLESTYLE
  2
AcDbTableStyle
  3
ObjectDBX Classes
 90
     4095
 91
        3
280
     0
281
     0
  0
CLASS
  1
MLEADERSTYLE
  2
AcDbMLeaderStyle
  3
ACDB_MLEADERSTYLE_CLASS
 90
     4095
 91
        3
280
     0
281
     0
  0
CLASS
  1
SUN
  2
AcDbSun
  3
SCENEOE
 90
     1153
 91
        3
280
     0
281
     0
  0
CLASS
  1
DICTIONARYVAR
  2
AcDbDictionaryVar
  3
ObjectDBX Classes
 90
        0
 91
        3
280
     0
281
     0
  0
CLASS
  1
CELLSTYLEMAP
  2
AcDbCellStyleMap
  3
ObjectDBX Classes
 90
     1152
 91
        3
280
     0
281
     0
  0
ENDSEC
  0
SECTION
  2
TABLES
  0
TABLE
  2
VPORT
  5
8
330
0
100
AcDbSymbolTable
 70
     1
  0
VPORT
  5
29
330
8
100
AcDbSymbolTableRecord
100
AcDbViewportTableRecord
  2
*Active
 70
     0
 10
0.0
 20
0.0
 11
1.0
 21
1.0
 12
10.42990654205607
 22
4.5
 13
0.0
 23
0.0
 14
0.5
 24
0.5
 15
0.5
 25
0.5
 16
0.0
 26
0.0
 36
1.0
 17
0.0
 27
0.0
 37
0.0
 40
9.0
 41
1.972972972850329
 42
50.0
 43
0.0
 44
0.0
 50
0.0
 51
0.0
 71
     0
 72
   100
 73
     1
 74
     3
 75
     0
 76
     0
 77
     0
 78
     0
281
     0
 65
     1
110
0.0
120
0.0
130
0.0
111
1.0
121
0.0
131
0.0
112
0.0
122
1.0
132
0.0
 79
     0
146
0.0
348
2F
 60
     3
 61
     5
292
     1
282
     1
141
0.0
142
0.0
 63
   250
361
5D
  0
ENDTAB
  0
TABLE
  2
LTYPE
  5
5
330
0
100
AcDbSymbolTable
 70
     1
  0
LTYPE
  5
14
330
5
100
AcDbSymbolTableRecord
100
AcDbLinetypeTableRecord
  2
ByBlock
 70
     0
  3

 72
    65
 73
     0
 40
0.0
  0
LTYPE
  5
15
330
5
100
AcDbSymbolTableRecord
100
AcDbLinetypeTableRecord
  2
ByLayer
 70
     0
  3

 72
    65
 73
     0
 40
0.0
  0
LTYPE
  5
16
330
5
100
AcDbSymbolTableRecord
100
AcDbLinetypeTableRecord
  2
Continuous
 70
     0
  3
Solid line
 72
    65
 73
     0
 40
0.0
  0
ENDTAB
  0
TABLE
  2
LAYER
  5
2
330
0
100
AcDbSymbolTable
 70
     2
  0
LAYER
  5
10
330
2
100
AcDbSymbolTableRecord
100
AcDbLayerTableRecord
  2
0
 70
     0
 62
     7
  6
Continuous
370
    -3
390
F
347
46
348
0
  0
LAYER
  5
5F
330
2
100
AcDbSymbolTableRecord
100
AcDbLayerTableRecord
  2
Layer 1
 70
     0
 62
     7
  6
Continuous
370
    -3
390
F
347
46
348
0
  0
ENDTAB
  0
TABLE
  2
STYLE
  5
3
330
0
100
AcDbSymbolTable
 70
     1
  0
STYLE
  5
11
330
3
100
AcDbSymbolTableRecord
100
AcDbTextStyleTableRecord
  2
Standard
 70
     0
 40
0.0
 41
1.0
 50
0.0
 71
     0
 42
0.2
  3
txt
  4

  0
ENDTAB
  0
TABLE
  2
VIEW
  5
6
330
0
100
AcDbSymbolTable
 70
     0
  0
ENDTAB
  0
TABLE
  2
UCS
  5
7
330
0
100
AcDbSymbolTable
 70
     0
  0
ENDTAB
  0
TABLE
  2
APPID
  5
9
330
0
100
AcDbSymbolTable
 70
     2
  0
APPID
  5
12
330
9
100
AcDbSymbolTableRecord
100
AcDbRegAppTableRecord
  2
ACAD
 70
     0
  0
APPID
  5
5E
330
9
100
AcDbSymbolTableRecord
100
AcDbRegAppTableRecord
  2
ODA
 70
     0
  0
ENDTAB
  0
TABLE
  2
DIMSTYLE
  5
A
330
0
100
AcDbSymbolTable
 70
     1
100
AcDbDimStyleTable
  0
DIMSTYLE
105
27
330
A
100
AcDbSymbolTableRecord
100
AcDbDimStyleTableRecord
  2
Standard
 70
     0
178
     0
340
11
  0
ENDTAB
  0
TABLE
  2
BLOCK_RECORD
  5
1
330
0
100
AcDbSymbolTable
 70
     1
  0
BLOCK_RECORD
  5
1F
330
1
100
AcDbSymbolTableRecord
100
AcDbBlockTableRecord
  2
*Model_Space
340
22
 70
     0
280
     1
281
     0
  0
BLOCK_RECORD
  5
1B
330
1
100
AcDbSymbolTableRecord
100
AcDbBlockTableRecord
  2
*Paper_Space
340
1E
 70
     0
280
     1
281
     0
  0
BLOCK_RECORD
  5
23
330
1
100
AcDbSymbolTableRecord
100
AcDbBlockTableRecord
  2
*Paper_Space0
340
26
 70
     0
280
     1
281
     0
  0
ENDTAB
  0
ENDSEC
  0
SECTION
  2
BLOCKS
  0
BLOCK
  5
20
330
1F
100
AcDbEntity
  8
0
100
AcDbBlockBegin
  2
*Model_Space
 70
     0
 10
0.0
 20
0.0
 30
0.0
  3
*Model_Space
  1

  0
ENDBLK
  5
21
330
1F
100
AcDbEntity
  8
0
100
AcDbBlockEnd
  0
BLOCK
  5
1C
330
1B
100
AcDbEntity
 67
     1
  8
0
100
AcDbBlockBegin
  2
*Paper_Space
 70
     0
 10
0.0
 20
0.0
 30
0.0
  3
*Paper_Space
  1

  0
ENDBLK
  5
1D
330
1B
100
AcDbEntity
 67
     1
  8
0
100
AcDbBlockEnd
  0
BLOCK
  5
24
330
23
100
AcDbEntity
  8
0
100
AcDbBlockBegin
  2
*Paper_Space0
 70
     0
 10
0.0
 20
0.0
 30
0.0
  3
*Paper_Space0
  1

  0
ENDBLK
  5
25
330
23
100
AcDbEntity
  8
0
100
AcDbBlockEnd
  0
ENDSEC
  0
SECTION
  2
ENTITIES
  0
SPLINE
  5
60
330
1F
100
AcDbEntity
  8
Layer 1
 62
   250
370
     9
100
AcDbSpline
210
0.0
220
0.0
230
1.0
 70
    11
 71
     3
 72
    29
 73
    25
 74
     0
 42
0.0000000001
 43
0.0000000001
 40
0.0
 40
0.0
 40
0.0
 40
0.0
 40
0.125
 40
0.125
 40
0.125
 40
0.25
 40
0.25
 40
0.25
 40
0.375
 40
0.375
 40
0.375
 40
0.5
 40
0.5
 40
0.5
 40
0.625
 40
0.625
 40
0.625
 40
0.75
 40
0.75
 40
0.75
 40
0.875
 40
0.875
 40
0.875
 40
1.0
 40
1.0
 40
1.0
 40
1.0
 10
-80.85813
 20
17.25835
 30
0.0
 10
-80.85813
 20
17.25835
 30
0.0
 10
-38.85811
 20
17.25835
 30
0.0
 10
-38.85811
 20
17.25835
 30
0.0
 10
-38.30811
 20
17.25835
 30
0.0
 10
-37.85812
 20
16.80836
 30
0.0
 10
-37.85812
 20
16.25836
 30
0.0
 10
-37.85812
 20
16.25836
 30
0.0
 10
-37.85812
 20
-11.74166
 30
0.0
 10
-37.85812
 20
-11.74166
 30
0.0
 10
-37.85812
 20
-12.29167
 30
0.0
 10
-38.30811
 20
-12.74165
 30
0.0
 10
-38.85811
 20
-12.74165
 30
0.0
 10
-38.85811
 20
-12.74165
 30
0.0
 10
-80.85813
 20
-12.74165
 30
0.0
 10
-80.85813
 20
-12.74165
 30
0.0
 10
-81.40813
 20
-12.74165
 30
0.0
 10
-81.85812
 20
-12.29167
 30
0.0
 10
-81.85812
 20
-11.74166
 30
0.0
 10
-81.85812
 20
-11.74166
 30
0.0
 10
-81.85812
 20
16.25836
 30
0.0
 10
-81.85812
 20
16.25836
 30
0.0
 10
-81.85812
 20
16.80836
 30
0.0
 10
-81.40813
 20
17.25835
 30
0.0
 10
-80.85813
 20
17.25835
 30
0.0
  0
SPLINE
  5
61
330
1F
100
AcDbEntity
  8
Layer 1
 62
   250
370
     9
100
AcDbSpline
210
0.0
220
0.0
230
1.0
 70
    11
 71
     3
 72
    17
 73
    13
 74
     0
 42
0.0000000001
 43
0.0000000001
 40
0.0
 40
0.0
 40
0.0
 40
0.0
 40
0.25
 40
0.25
 40
0.25
 40
0.5
 40
0.5
 40
0.5
 40
0.75
 40
0.75
 40
0.75
 40
1.0
 40
1.0
 40
1.0
 40
1.0
 10
-38.85812
 20
12.25835
 30
0.0
 10
-38.85812
 20
12.25835
 30
0.0
 10
-39.25812
 20
12.25835
 30
0.0
 10
-39.25812
 20
12.25835
 30
0.0
 10
-39.25812
 20
12.25835
 30
0.0
 10
-39.25812
 20
8.25835
 30
0.0
 10
-39.25812
 20
8.25835
 30
0.0
 10
-39.25812
 20
8.25835
 30
0.0
 10
-38.85812
 20
8.25835
 30
0.0
 10
-38.85812
 20
8.25835
 30
0.0
 10
-38.85812
 20
8.25835
 30
0.0
 10
-38.85812
 20
12.25835
 30
0.0
 10
-38.85812
 20
12.25835
 30
0.0
  0
SPLINE
  5
62
330
1F
100
AcDbEntity
  8
Layer 1
 62
   250
370
     9
100
AcDbSpline
210
0.0
220
0.0
230
1.0
 70
    11
 71
     3
 72
    17
 73
    13
 74
     0
 42
0.0000000001
 43
0.0000000001
 40
0.0
 40
0.0
 40
0.0
 40
0.0
 40
0.25
 40
0.25
 40
0.25
 40
0.5
 40
0.5
 40
0.5
 40
0.75
 40
0.75
 40
0.75
 40
1.0
 40
1.0
 40
1.0
 40
1.0
 10
-38.85812
 20
4.25835
 30
0.0
 10
-38.85812
 20
4.25835
 30
0.0
 10
-39.25812
 20
4.25835
 30
0.0
 10
-39.25812
 20
4.25835
 30
0.0
 10
-39.25812
 20
4.25835
 30
0.0
 10
-39.25812
 20
0.25835
 30
0.0
 10
-39.25812
 20
0.25835
 30
0.0
 10
-39.25812
 20
0.25835
 30
0.0
 10
-38.85812
 20
0.25835
 30
0.0
 10
-38.85812
 20
0.25835
 30
0.0
 10
-38.85812
 20
0.25835
 30
0.0
 10
-38.85812
 20
4.25835
 30
0.0
 10
-38.85812
 20
4.25835
 30
0.0
  0
SPLINE
  5
63
330
1F
100
AcDbEntity
  8
Layer 1
 62
   250
370
     9
100
AcDbSpline
210
0.0
220
0.0
230
1.0
 70
    11
 71
     3
 72
    17
 73
    13
 74
     0
 42
0.0000000001
 43
0.0000000001
 40
0.0
 40
0.0
 40
0.0
 40
0.0
 40
0.25
 40
0.25
 40
0.25
 40
0.5
 40
0.5
 40
0.5
 40
0.75
 40
0.75
 40
0.75
 40
1.0
 40
1.0
 40
1.0
 40
1.0
 10
-38.85812
 20
-3.74165
 30
0.0
 10
-38.85812
 20
-3.74165
 30
0.0
 10
-39.25812
 20
-3.74165
 30
0.0
 10
-39.25812
 20
-3.74165
 30
0.0
 10
-39.25812
 20
-3.74165
 30
0.0
 10
-39.25812
 20
-7.74165
 30
0.0
 10
-39.25812
 20
-7.74165
 30
0.0
 10
-39.25812
 20
-7.74165
 30
0.0
 10
-38.85812
 20
-7.74165
 30
0.0
 10
-38.85812
 20
-7.74165
 30
0.0
 10
-38.85812
 20
-7.74165
 30
0.0
 10
-38.85812
 20
-3.74165
 30
0.0
 10
-38.85812
 20
-3.74165
 30
0.0
  0
SPLINE
  5
64
330
1F
100
AcDbEntity
  8
Layer 1
 62
   250
370
     9
100
AcDbSpline
210
0.0
220
0.0
230
1.0
 70
    11
 71
     3
 72
    17
 73
    13
 74
     0
 42
0.0000000001
 43
0.0000000001
 40
0.0
 40
0.0
 40
0.0
 40
0.0
 40
0.25
 40
0.25
 40
0.25
 40
0.5
 40
0.5
 40
0.5
 40
0.75
 40
0.75
 40
0.75
 40
1.0
 40
1.0
 40
1.0
 40
1.0
 10
-80.45812
 20
12.25835
 30
0.0
 10
-80.45812
 20
12.25835
 30
0.0
 10
-80.85812
 20
12.25835
 30
0.0
 10
-80.85812
 20
12.25835
 30
0.0
 10
-80.85812
 20
12.25835
 30
0.0
 10
-80.85812
 20
8.25835
 30
0.0
 10
-80.85812
 20
8.25835
 30
0.0
 10
-80.85812
 20
8.25835
 30
0.0
 10
-80.45812
 20
8.25835
 30
0.0
 10
-80.45812
 20
8.25835
 30
0.0
 10
-80.45812
 20
8.25835
 30
0.0
 10
-80.45812
 20
12.25835
 30
0.0
 10
-80.45812
 20
12.25835
 30
0.0
  0
SPLINE
  5
65
330
1F
100
AcDbEntity
  8
Layer 1
 62
   250
370
     9
100
AcDbSpline
210
0.0
220
0.0
230
1.0
 70
    11
 71
     3
 72
    17
 73
    13
 74
     0
 42
0.0000000001
 43
0.0000000001
 40
0.0
 40
0.0
 40
0.0
 40
0.0
 40
0.25
 40
0.25
 40
0.25
 40
0.5
 40
0.5
 40
0.5
 40
0.75
 40
0.75
 40
0.75
 40
1.0
 40
1.0
 40
1.0
 40
1.0
 10
-80.45812
 20
4.25835
 30
0.0
 10
-80.45812
 20
4.25835
 30
0.0
 10
-80.85812
 20
4.25835
 30
0.0
 10
-80.85812
 20
4.25835
 30
0.0
 10
-80.85812
 20
4.25835
 30
0.0
 10
-80.85812
 20
0.25835
 30
0.0
 10
-80.85812
 20
0.25835
 30
0.0
 10
-80.85812
 20
0.25835
 30
0.0
 10
-80.45812
 20
0.25835
 30
0.0
 10
-80.45812
 20
0.25835
 30
0.0
 10
-80.45812
 20
0.25835
 30
0.0
 10
-80.45812
 20
4.25835
 30
0.0
 10
-80.45812
 20
4.25835
 30
0.0
  0
SPLINE
  5
66
330
1F
100
AcDbEntity
  8
Layer 1
 62
   250
370
     9
100
AcDbSpline
210
0.0
220
0.0
230
1.0
 70
    11
 71
     3
 72
    17
 73
    13
 74
     0
 42
0.0000000001
 43
0.0000000001
 40
0.0
 40
0.0
 40
0.0
 40
0.0
 40
0.25
 40
0.25
 40
0.25
 40
0.5
 40
0.5
 40
0.5
 40
0.75
 40
0.75
 40
0.75
 40
1.0
 40
1.0
 40
1.0
 40
1.0
 10
-80.45812
 20
-3.74165
 30
0.0
 10
-80.45812
 20
-3.74165
 30
0.0
 10
-80.85812
 20
-3.74165
 30
0.0
 10
-80.85812
 20
-3.74165
 30
0.0
 10
-80.85812
 20
-3.74165
 30
0.0
 10
-80.85812
 20
-7.74165
 30
0.0
 10
-80.85812
 20
-7.74165
 30
0.0
 10
-80.85812
 20
-7.74165
 30
0.0
 10
-80.45812
 20
-7.74165
 30
0.0
 10
-80.45812
 20
-7.74165
 30
0.0
 10
-80.45812
 20
-7.74165
 30
0.0
 10
-80.45812
 20
-3.74165
 30
0.0
 10
-80.45812
 20
-3.74165
 30
0.0
  0
SPLINE
  5
67
330
1F
100
AcDbEntity
  8
Layer 1
 62
   250
370
     9
100
AcDbSpline
210
0.0
220
0.0
230
1.0
 70
    11
 71
     3
 72
    17
 73
    13
 74
     0
 42
0.0000000001
 43
0.0000000001
 40
0.0
 40
0.0
 40
0.0
 40
0.0
 40
0.25
 40
0.25
 40
0.25
 40
0.5
 40
0.5
 40
0.5
 40
0.75
 40
0.75
 40
0.75
 40
1.0
 40
1.0
 40
1.0
 40
1.0
 10
-41.15812
 20
-11.74165
 30
0.0
 10
-41.15812
 20
-11.74165
 30
0.0
 10
-39.65812
 20
-11.74165
 30
0.0
 10
-39.65812
 20
-11.74165
 30
0.0
 10
-39.65812
 20
-11.74165
 30
0.0
 10
-39.65812
 20
-11.34165
 30
0.0
 10
-39.65812
 20
-11.34165
 30
0.0
 10
-39.65812
 20
-11.34165
 30
0.0
 10
-41.15812
 20
-11.34165
 30
0.0
 10
-41.15812
 20
-11.34165
 30
0.0
 10
-41.15812
 20
-11.34165
 30
0.0
 10
-41.15812
 20
-11.74165
 30
0.0
 10
-41.15812
 20
-11.74165
 30
0.0
  0
SPLINE
  5
68
330
1F
100
AcDbEntity
  8
Layer 1
 62
   250
370
     9
100
AcDbSpline
210
0.0
220
0.0
230
1.0
 70
    11
 71
     3
 72
    17
 73
    13
 74
     0
 42
0.0000000001
 43
0.0000000001
 40
0.0
 40
0.0
 40
0.0
 40
0.0
 40
0.25
 40
0.25
 40
0.25
 40
0.5
 40
0.5
 40
0.5
 40
0.75
 40
0.75
 40
0.75
 40
1.0
 40
1.0
 40
1.0
 40
1.0
 10
-80.05812
 20
-11.74165
 30
0.0
 10
-80.05812
 20
-11.74165
 30
0.0
 10
-78.55812
 20
-11.74165
 30
0.0
 10
-78.55812
 20
-11.74165
 30
0.0
 10
-78.55812
 20
-11.74165
 30
0.0
 10
-78.55812
 20
-11.34165
 30
0.0
 10
-78.55812
 20
-11.34165
 30
0.0
 10
-78.55812
 20
-11.34165
 30
0.0
 10
-80.05812
 20
-11.34165
 30
0.0
 10
-80.05812
 20
-11.34165
 30
0.0
 10
-80.05812
 20
-11.34165
 30
0.0
 10
-80.05812
 20
-11.74165
 30
0.0
 10
-80.05812
 20
-11.74165
 30
0.0
  0
SPLINE
  5
69
330
1F
100
AcDbEntity
  8
Layer 1
 62
   250
370
     9
100
AcDbSpline
210
0.0
220
0.0
230
1.0
 70
    11
 71
     3
 72
    17
 73
    13
 74
     0
 42
0.0000000001
 43
0.0000000001
 40
0.0
 40
0.0
 40
0.0
 40
0.0
 40
0.25
 40
0.25
 40
0.25
 40
0.5
 40
0.5
 40
0.5
 40
0.75
 40
0.75
 40
0.75
 40
1.0
 40
1.0
 40
1.0
 40
1.0
 10
-41.15812
 20
15.85835
 30
0.0
 10
-41.15812
 20
15.85835
 30
0.0
 10
-39.65812
 20
15.85835
 30
0.0
 10
-39.65812
 20
15.85835
 30
0.0
 10
-39.65812
 20
15.85835
 30
0.0
 10
-39.65812
 20
16.25835
 30
0.0
 10
-39.65812
 20
16.25835
 30
0.0
 10
-39.65812
 20
16.25835
 30
0.0
 10
-41.15812
 20
16.25835
 30
0.0
 10
-41.15812
 20
16.25835
 30
0.0
 10
-41.15812
 20
16.25835
 30
0.0
 10
-41.15812
 20
15.85835
 30
0.0
 10
-41.15812
 20
15.85835
 30
0.0
  0
SPLINE
  5
6A
330
1F
100
AcDbEntity
  8
Layer 1
 62
   250
370
     9
100
AcDbSpline
210
0.0
220
0.0
230
1.0
 70
    11
 71
     3
 72
    17
 73
    13
 74
     0
 42
0.0000000001
 43
0.0000000001
 40
0.0
 40
0.0
 40
0.0
 40
0.0
 40
0.25
 40
0.25
 40
0.25
 40
0.5
 40
0.5
 40
0.5
 40
0.75
 40
0.75
 40
0.75
 40
1.0
 40
1.0
 40
1.0
 40
1.0
 10
-80.05812
 20
15.85835
 30
0.0
 10
-80.05812
 20
15.85835
 30
0.0
 10
-78.55812
 20
15.85835
 30
0.0
 10
-78.55812
 20
15.85835
 30
0.0
 10
-78.55812
 20
15.85835
 30
0.0
 10
-78.55812
 20
16.25835
 30
0.0
 10
-78.55812
 20
16.25835
 30
0.0
 10
-78.55812
 20
16.25835
 30
0.0
 10
-80.05812
 20
16.25835
 30
0.0
 10
-80.05812
 20
16.25835
 30
0.0
 10
-80.05812
 20
16.25835
 30
0.0
 10
-80.05812
 20
15.85835
 30
0.0
 10
-80.05812
 20
15.85835
 30
0.0
  0
SPLINE
  5
6B
330
1F
100
AcDbEntity
  8
Layer 1
 62
   250
370
     9
100
AcDbSpline
210
0.0
220
0.0
230
1.0
 70
    11
 71
     3
 72
    17
 73
    13
 74
     0
 42
0.0000000001
 43
0.0000000001
 40
0.0
 40
0.0
 40
0.0
 40
0.0
 40
0.25
 40
0.25
 40
0.25
 40
0.5
 40
0.5
 40
0.5
 40
0.75
 40
0.75
 40
0.75
 40
1.0
 40
1.0
 40
1.0
 40
1.0
 10
-61.35812
 20
16.25835
 30
0.0
 10
-61.35812
 20
16.25835
 30
0.0
 10
-58.35812
 20
16.25835
 30
0.0
 10
-58.35812
 20
16.25835
 30
0.0
 10
-58.35812
 20
16.25835
 30
0.0
 10
-58.35812
 20
15.85835
 30
0.0
 10
-58.35812
 20
15.85835
 30
0.0
 10
-58.35812
 20
15.85835
 30
0.0
 10
-61.35812
 20
15.85835
 30
0.0
 10
-61.35812
 20
15.85835
 30
0.0
 10
-61.35812
 20
15.85835
 30
0.0
 10
-61.35812
 20
16.25835
 30
0.0
 10
-61.35812
 20
16.25835
 30
0.0
  0
SPLINE
  5
6C
330
1F
100
AcDbEntity
  8
Layer 1
 62
   250
370
     9
100
AcDbSpline
210
0.0
220
0.0
230
1.0
 70
    11
 71
     3
 72
    17
 73
    13
 74
     0
 42
0.0000000001
 43
0.0000000001
 40
0.0
 40
0.0
 40
0.0
 40
0.0
 40
0.25
 40
0.25
 40
0.25
 40
0.5
 40
0.5
 40
0.5
 40
0.75
 40
0.75
 40
0.75
 40
1.0
 40
1.0
 40
1.0
 40
1.0
 10
-58.25812
 20
-9.84628
 30
0.0
 10
-58.25812
 20
-9.84628
 30
0.0
 10
-58.25812
 20
-10.84628
 30
0.0
 10
-58.25812
 20
-10.84628
 30
0.0
 10
-58.25812
 20
-10.84628
 30
0.0
 10
-58.65812
 20
-10.84628
 30
0.0
 10
-58.65812
 20
-10.84628
 30
0.0
 10
-58.65812
 20
-10.84628
 30
0.0
 10
-58.65812
 20
-9.84628
 30
0.0
 10
-58.65812
 20
-9.84628
 30
0.0
 10
-58.65812
 20
-9.84628
 30
0.0
 10
-58.25812
 20
-9.84628
 30
0.0
 10
-58.25812
 20
-9.84628
 30
0.0
  0
SPLINE
  5
6D
330
1F
100
AcDbEntity
  8
Layer 1
 62
   250
370
     9
100
AcDbSpline
210
0.0
220
0.0
230
1.0
 70
    11
 71
     3
 72
    17
 73
    13
 74
     0
 42
0.0000000001
 43
0.0000000001
 40
0.0
 40
0.0
 40
0.0
 40
0.0
 40
0.25
 40
0.25
 40
0.25
 40
0.5
 40
0.5
 40
0.5
 40
0.75
 40
0.75
 40
0.75
 40
1.0
 40
1.0
 40
1.0
 40
1.0
 10
-61.05812
 20
-9.84628
 30
0.0
 10
-61.05812
 20
-9.84628
 30
0.0
 10
-61.05812
 20
-10.84628
 30
0.0
 10
-61.05812
 20
-10.84628
 30
0.0
 10
-61.05812
 20
-10.84628
 30
0.0
 10
-61.45812
 20
-10.84628
 30
0.0
 10
-61.45812
 20
-10.84628
 30
0.0
 10
-61.45812
 20
-10.84628
 30
0.0
 10
-61.45812
 20
-9.84628
 30
0.0
 10
-61.45812
 20
-9.84628
 30
0.0
 10
-61.45812
 20
-9.84628
 30
0.0
 10
-61.05812
 20
-9.84628
 30
0.0
 10
-61.05812
 20
-9.84628
 30
0.0
  0
SPLINE
  5
6E
330
1F
100
AcDbEntity
  8
Layer 1
 62
   250
370
     9
100
AcDbSpline
210
0.0
220
0.0
230
1.0
 70
    11
 71
     3
 72
    38
 73
    34
 74
     0
 42
0.0000000001
 43
0.0000000001
 40
0.0
 40
0.0
 40
0.0
 40
0.0
 40
0.0909090909090909
 40
0.0909090909090909
 40
0.0909090909090909
 40
0.1818181818181818
 40
0.1818181818181818
 40
0.1818181818181818
 40
0.2727272727272727
 40
0.2727272727272727
 40
0.2727272727272727
 40
0.3636363636363636
 40
0.3636363636363636
 40
0.3636363636363636
 40
0.4545454545454546
 40
0.4545454545454546
 40
0.4545454545454546
 40
0.5454545454545454
 40
0.5454545454545454
 40
0.5454545454545454
 40
0.6363636363636364
 40
0.6363636363636364
 40
0.6363636363636364
 40
0.7272727272727273
 40
0.7272727272727273
 40
0.7272727272727273
 40
0.8181818181818182
 40
0.8181818181818182
 40
0.8181818181818182
 40
0.9090909090909092
 40
0.9090909090909092
 40
0.9090909090909092
 40
1.0
 40
1.0
 40
1.0
 40
1.0
 10
22.70754
 20
45.75504
 30
0.0
 10
22.29333
 20
45.75504
 30
0.0
 10
21.95754
 20
46.09082
 30
0.0
 10
21.95754
 20
46.50504
 30
0.0
 10
21.95754
 20
46.91926
 30
0.0
 10
22.29333
 20
47.25504
 30
0.0
 10
22.70754
 20
47.25504
 30
0.0
 10
22.70754
 20
47.25504
 30
0.0
 10
26.35755
 20
47.25504
 30
0.0
 10
26.35755
 20
47.25504
 30
0.0
 10
26.55004
 20
47.25504
 30
0.0
 10
26.70754
 20
47.09754
 30
0.0
 10
26.70754
 20
46.90504
 30
0.0
 10
26.70754
 20
46.90504
 30
0.0
 10
26.70754
 20
46.70504
 30
0.0
 10
26.70754
 20
46.70504
 30
0.0
 10
26.70754
 20
46.70504
 30
0.0
 10
25.20754
 20
46.70504
 30
0.0
 10
25.20754
 20
46.70504
 30
0.0
 10
25.20754
 20
46.70504
 30
0.0
 10
25.20754
 20
46.30504
 30
0.0
 10
25.20754
 20
46.30504
 30
0.0
 10
25.20754
 20
46.30504
 30
0.0
 10
26.70754
 20
46.30504
 30
0.0
 10
26.70754
 20
46.30504
 30
0.0
 10
26.70754
 20
46.30504
 30
0.0
 10
26.70754
 20
46.10504
 30
0.0
 10
26.70754
 20
46.10504
 30
0.0
 10
26.70754
 20
45.91254
 30
0.0
 10
26.55004
 20
45.75504
 30
0.0
 10
26.35755
 20
45.75504
 30
0.0
 10
26.35755
 20
45.75504
 30
0.0
 10
22.70754
 20
45.75504
 30
0.0
 10
22.70754
 20
45.75504
 30
0.0
  0
SPLINE
  5
6F
330
1F
100
AcDbEntity
  8
Layer 1
 62
   250
370
     9
100
AcDbSpline
210
0.0
220
0.0
230
1.0
 70
    11
 71
     3
 72
    17
 73
    13
 74
     0
 42
0.0000000001
 43
0.0000000001
 40
0.0
 40
0.0
 40
0.0
 40
0.0
 40
0.25
 40
0.25
 40
0.25
 40
0.5
 40
0.5
 40
0.5
 40
0.75
 40
0.75
 40
0.75
 40
1.0
 40
1.0
 40
1.0
 40
1.0
 10
22.70754
 20
46.80504
 30
0.0
 10
22.87322
 20
46.80504
 30
0.0
 10
23.00754
 20
46.67073
 30
0.0
 10
23.00754
 20
46.50504
 30
0.0
 10
23.00754
 20
46.33935
 30
0.0
 10
22.87322
 20
46.20504
 30
0.0
 10
22.70754
 20
46.20504
 30
0.0
 10
22.54186
 20
46.20504
 30
0.0
 10
22.40754
 20
46.33935
 30
0.0
 10
22.40754
 20
46.50504
 30
0.0
 10
22.40754
 20
46.67073
 30
0.0
 10
22.54186
 20
46.80504
 30
0.0
 10
22.70754
 20
46.80504
 30
0.0
  0
SPLINE
  5
70
330
1F
100
AcDbEntity
  8
Layer 1
 62
   250
370
     9
100
AcDbSpline
210
0.0
220
0.0
230
1.0
 70
    11
 71
     3
 72
    68
 73
    64
 74
     0
 42
0.0000000001
 43
0.0000000001
 40
0.0
 40
0.0
 40
0.0
 40
0.0
 40
0.0476190476190476
 40
0.0476190476190476
 40
0.0476190476190476
 40
0.0952380952380952
 40
0.0952380952380952
 40
0.0952380952380952
 40
0.1428571428571428
 40
0.1428571428571428
 40
0.1428571428571428
 40
0.1904761904761905
 40
0.1904761904761905
 40
0.1904761904761905
 40
0.2380952380952381
 40
0.2380952380952381
 40
0.2380952380952381
 40
0.2857142857142857
 40
0.2857142857142857
 40
0.2857142857142857
 40
0.3333333333333333
 40
0.3333333333333333
 40
0.3333333333333333
 40
0.3809523809523809
 40
0.3809523809523809
 40
0.3809523809523809
 40
0.4285714285714285
 40
0.4285714285714285
 40
0.4285714285714285
 40
0.4761904761904762
 40
0.4761904761904762
 40
0.4761904761904762
 40
0.5238095238095237
 40
0.5238095238095237
 40
0.5238095238095237
 40
0.5714285714285714
 40
0.5714285714285714
 40
0.5714285714285714
 40
0.6190476190476191
 40
0.6190476190476191
 40
0.6190476190476191
 40
0.6666666666666666
 40
0.6666666666666666
 40
0.6666666666666666
 40
0.7142857142857142
 40
0.7142857142857142
 40
0.7142857142857142
 40
0.7619047619047619
 40
0.7619047619047619
 40
0.7619047619047619
 40
0.8095238095238095
 40
0.8095238095238095
 40
0.8095238095238095
 40
0.8571428571428571
 40
0.8571428571428571
 40
0.8571428571428571
 40
0.9047619047619047
 40
0.9047619047619047
 40
0.9047619047619047
 40
0.9523809523809523
 40
0.9523809523809523
 40
0.9523809523809523
 40
1.0
 40
1.0
 40
1.0
 40
1.0
 10
-5.76166
 20
27.09582
 30
0.0
 10
-5.76166
 20
27.09582
 30
0.0
 10
-6.56392
 20
27.09582
 30
0.0
 10
-6.56392
 20
27.09582
 30
0.0
 10
-6.56392
 20
27.09582
 30
0.0
 10
-6.56392
 20
27.69582
 30
0.0
 10
-6.56392
 20
27.69582
 30
0.0
 10
-6.56392
 20
27.69582
 30
0.0
 10
-4.41038
 20
27.69582
 30
0.0
 10
-4.41038
 20
27.69582
 30
0.0
 10
-4.41038
 20
27.69582
 30
0.0
 10
-4.41038
 20
28.09582
 30
0.0
 10
-4.41038
 20
28.09582
 30
0.0
 10
-4.41038
 20
28.09582
 30
0.0
 10
-6.56392
 20
28.09582
 30
0.0
 10
-6.56392
 20
28.09582
 30
0.0
 10
-6.56392
 20
28.32011
 30
0.0
 10
-6.56392
 20
44.49958
 30
0.0
 10
-6.56392
 20
51.69582
 30
0.0
 10
-6.56392
 20
51.69582
 30
0.0
 10
-6.56392
 20
52.29582
 30
0.0
 10
-6.56392
 20
52.29582
 30
0.0
 10
-6.56392
 20
52.29582
 30
0.0
 10
-4.41038
 20
52.29582
 30
0.0
 10
-4.41038
 20
52.29582
 30
0.0
 10
-4.41038
 20
52.29582
 30
0.0
 10
-4.41038
 20
52.69582
 30
0.0
 10
-4.41038
 20
52.69582
 30
0.0
 10
-4.41038
 20
52.69582
 30
0.0
 10
-6.56392
 20
52.69582
 30
0.0
 10
-6.56392
 20
52.69582
 30
0.0
 10
-6.56392
 20
54.21718
 30
0.0
 10
-6.56392
 20
52.77446
 30
0.0
 10
-6.56392
 20
54.29582
 30
0.0
 10
-6.56392
 20
54.29582
 30
0.0
 10
-5.76166
 20
54.29582
 30
0.0
 10
-5.76166
 20
54.29582
 30
0.0
 10
-5.76166
 20
54.29582
 30
0.0
 10
-5.76166
 20
55.09582
 30
0.0
 10
-5.76166
 20
55.09582
 30
0.0
 10
-5.76166
 20
55.09582
 30
0.0
 10
17.63834
 20
55.09582
 30
0.0
 10
17.63834
 20
55.09582
 30
0.0
 10
17.63834
 20
55.09582
 30
0.0
 10
17.63834
 20
54.29582
 30
0.0
 10
17.63834
 20
54.29582
 30
0.0
 10
17.63834
 20
54.29582
 30
0.0
 10
17.63834
 20
51.69582
 30
0.0
 10
17.63834
 20
51.69582
 30
0.0
 10
17.63834
 20
51.69582
 30
0.0
 10
17.63834
 20
29.69582
 30
0.0
 10
17.63834
 20
29.69582
 30
0.0
 10
17.63834
 20
29.69582
 30
0.0
 10
17.63834
 20
27.09582
 30
0.0
 10
17.63834
 20
27.09582
 30
0.0
 10
17.63834
 20
27.09582
 30
0.0
 10
17.63834
 20
26.29582
 30
0.0
 10
17.63834
 20
26.29582
 30
0.0
 10
17.63834
 20
26.29582
 30
0.0
 10
-5.76166
 20
26.29582
 30
0.0
 10
-5.76166
 20
26.29582
 30
0.0
 10
-5.76166
 20
26.29582
 30
0.0
 10
-5.76166
 20
27.09582
 30
0.0
 10
-5.76166
 20
27.09582
 30
0.0
  0
SPLINE
  5
71
330
1F
100
AcDbEntity
  8
Layer 1
 62
   250
370
     9
100
AcDbSpline
210
0.0
220
0.0
230
1.0
 70
    11
 71
     3
 72
    38
 73
    34
 74
     0
 42
0.0000000001
 43
0.0000000001
 40
0.0
 40
0.0
 40
0.0
 40
0.0
 40
0.0909090909090909
 40
0.0909090909090909
 40
0.0909090909090909
 40
0.1818181818181818
 40
0.1818181818181818
 40
0.1818181818181818
 40
0.2727272727272727
 40
0.2727272727272727
 40
0.2727272727272727
 40
0.3636363636363636
 40
0.3636363636363636
 40
0.3636363636363636
 40
0.4545454545454546
 40
0.4545454545454546
 40
0.4545454545454546
 40
0.5454545454545454
 40
0.5454545454545454
 40
0.5454545454545454
 40
0.6363636363636364
 40
0.6363636363636364
 40
0.6363636363636364
 40
0.7272727272727273
 40
0.7272727272727273
 40
0.7272727272727273
 40
0.8181818181818182
 40
0.8181818181818182
 40
0.8181818181818182
 40
0.9090909090909092
 40
0.9090909090909092
 40
0.9090909090909092
 40
1.0
 40
1.0
 40
1.0
 40
1.0
 10
22.70754
 20
43.85504
 30
0.0
 10
22.29333
 20
43.85504
 30
0.0
 10
21.95754
 20
44.19082
 30
0.0
 10
21.95754
 20
44.60504
 30
0.0
 10
21.95754
 20
45.01926
 30
0.0
 10
22.29333
 20
45.35504
 30
0.0
 10
22.70754
 20
45.35504
 30
0.0
 10
22.70754
 20
45.35504
 30
0.0
 10
26.35755
 20
45.35504
 30
0.0
 10
26.35755
 20
45.35504
 30
0.0
 10
26.55004
 20
45.35504
 30
0.0
 10
26.70754
 20
45.19754
 30
0.0
 10
26.70754
 20
45.00504
 30
0.0
 10
26.70754
 20
45.00504
 30
0.0
 10
26.70754
 20
44.80504
 30
0.0
 10
26.70754
 20
44.80504
 30
0.0
 10
26.70754
 20
44.80504
 30
0.0
 10
25.20754
 20
44.80504
 30
0.0
 10
25.20754
 20
44.80504
 30
0.0
 10
25.20754
 20
44.80504
 30
0.0
 10
25.20754
 20
44.40504
 30
0.0
 10
25.20754
 20
44.40504
 30
0.0
 10
25.20754
 20
44.40504
 30
0.0
 10
26.70754
 20
44.40504
 30
0.0
 10
26.70754
 20
44.40504
 30
0.0
 10
26.70754
 20
44.40504
 30
0.0
 10
26.70754
 20
44.20504
 30
0.0
 10
26.70754
 20
44.20504
 30
0.0
 10
26.70754
 20
44.01254
 30
0.0
 10
26.55004
 20
43.85504
 30
0.0
 10
26.35755
 20
43.85504
 30
0.0
 10
26.35755
 20
43.85504
 30
0.0
 10
22.70754
 20
43.85504
 30
0.0
 10
22.70754
 20
43.85504
 30
0.0
  0
SPLINE
  5
72
330
1F
100
AcDbEntity
  8
Layer 1
 62
   250
370
     9
100
AcDbSpline
210
0.0
220
0.0
230
1.0
 70
    11
 71
     3
 72
    17
 73
    13
 74
     0
 42
0.0000000001
 43
0.0000000001
 40
0.0
 40
0.0
 40
0.0
 40
0.0
 40
0.25
 40
0.25
 40
0.25
 40
0.5
 40
0.5
 40
0.5
 40
0.75
 40
0.75
 40
0.75
 40
1.0
 40
1.0
 40
1.0
 40
1.0
 10
22.70754
 20
44.90504
 30
0.0
 10
22.87322
 20
44.90504
 30
0.0
 10
23.00754
 20
44.77073
 30
0.0
 10
23.00754
 20
44.60504
 30
0.0
 10
23.00754
 20
44.43935
 30
0.0
 10
22.87322
 20
44.30504
 30
0.0
 10
22.70754
 20
44.30504
 30
0.0
 10
22.54186
 20
44.30504
 30
0.0
 10
22.40754
 20
44.43935
 30
0.0
 10
22.40754
 20
44.60504
 30
0.0
 10
22.40754
 20
44.77073
 30
0.0
 10
22.54186
 20
44.90504
 30
0.0
 10
22.70754
 20
44.90504
 30
0.0
  0
SPLINE
  5
73
330
1F
100
AcDbEntity
  8
Layer 1
 62
   250
370
     9
100
AcDbSpline
210
0.0
220
0.0
230
1.0
 70
    11
 71
     3
 72
    38
 73
    34
 74
     0
 42
0.0000000001
 43
0.0000000001
 40
0.0
 40
0.0
 40
0.0
 40
0.0
 40
0.0909090909090909
 40
0.0909090909090909
 40
0.0909090909090909
 40
0.1818181818181818
 40
0.1818181818181818
 40
0.1818181818181818
 40
0.2727272727272727
 40
0.2727272727272727
 40
0.2727272727272727
 40
0.3636363636363636
 40
0.3636363636363636
 40
0.3636363636363636
 40
0.4545454545454546
 40
0.4545454545454546
 40
0.4545454545454546
 40
0.5454545454545454
 40
0.5454545454545454
 40
0.5454545454545454
 40
0.6363636363636364
 40
0.6363636363636364
 40
0.6363636363636364
 40
0.7272727272727273
 40
0.7272727272727273
 40
0.7272727272727273
 40
0.8181818181818182
 40
0.8181818181818182
 40
0.8181818181818182
 40
0.9090909090909092
 40
0.9090909090909092
 40
0.9090909090909092
 40
1.0
 40
1.0
 40
1.0
 40
1.0
 10
22.70754
 20
41.95504
 30
0.0
 10
22.29333
 20
41.95504
 30
0.0
 10
21.95754
 20
42.29082
 30
0.0
 10
21.95754
 20
42.70504
 30
0.0
 10
21.95754
 20
43.11926
 30
0.0
 10
22.29333
 20
43.45504
 30
0.0
 10
22.70754
 20
43.45504
 30
0.0
 10
22.70754
 20
43.45504
 30
0.0
 10
26.35755
 20
43.45504
 30
0.0
 10
26.35755
 20
43.45504
 30
0.0
 10
26.55004
 20
43.45504
 30
0.0
 10
26.70754
 20
43.29754
 30
0.0
 10
26.70754
 20
43.10504
 30
0.0
 10
26.70754
 20
43.10504
 30
0.0
 10
26.70754
 20
42.90504
 30
0.0
 10
26.70754
 20
42.90504
 30
0.0
 10
26.70754
 20
42.90504
 30
0.0
 10
25.20754
 20
42.90504
 30
0.0
 10
25.20754
 20
42.90504
 30
0.0
 10
25.20754
 20
42.90504
 30
0.0
 10
25.20754
 20
42.50504
 30
0.0
 10
25.20754
 20
42.50504
 30
0.0
 10
25.20754
 20
42.50504
 30
0.0
 10
26.70754
 20
42.50504
 30
0.0
 10
26.70754
 20
42.50504
 30
0.0
 10
26.70754
 20
42.50504
 30
0.0
 10
26.70754
 20
42.30504
 30
0.0
 10
26.70754
 20
42.30504
 30
0.0
 10
26.70754
 20
42.11254
 30
0.0
 10
26.55004
 20
41.95504
 30
0.0
 10
26.35755
 20
41.95504
 30
0.0
 10
26.35755
 20
41.95504
 30
0.0
 10
22.70754
 20
41.95504
 30
0.0
 10
22.70754
 20
41.95504
 30
0.0
  0
SPLINE
  5
74
330
1F
100
AcDbEntity
  8
Layer 1
 62
   250
370
     9
100
AcDbSpline
210
0.0
220
0.0
230
1.0
 70
    11
 71
     3
 72
    17
 73
    13
 74
     0
 42
0.0000000001
 43
0.0000000001
 40
0.0
 40
0.0
 40
0.0
 40
0.0
 40
0.25
 40
0.25
 40
0.25
 40
0.5
 40
0.5
 40
0.5
 40
0.75
 40
0.75
 40
0.75
 40
1.0
 40
1.0
 40
1.0
 40
1.0
 10
22.70754
 20
43.00504
 30
0.0
 10
22.87322
 20
43.00504
 30
0.0
 10
23.00754
 20
42.87073
 30
0.0
 10
23.00754
 20
42.70504
 30
0.0
 10
23.00754
 20
42.53935
 30
0.0
 10
22.87322
 20
42.40504
 30
0.0
 10
22.70754
 20
42.40504
 30
0.0
 10
22.54186
 20
42.40504
 30
0.0
 10
22.40754
 20
42.53935
 30
0.0
 10
22.40754
 20
42.70504
 30
0.0
 10
22.40754
 20
42.87073
 30
0.0
 10
22.54186
 20
43.00504
 30
0.0
 10
22.70754
 20
43.00504
 30
0.0
  0
SPLINE
  5
75
330
1F
100
AcDbEntity
  8
Layer 1
 62
   250
370
     9
100
AcDbSpline
210
0.0
220
0.0
230
1.0
 70
    11
 71
     3
 72
    38
 73
    34
 74
     0
 42
0.0000000001
 43
0.0000000001
 40
0.0
 40
0.0
 40
0.0
 40
0.0
 40
0.0909090909090909
 40
0.0909090909090909
 40
0.0909090909090909
 40
0.1818181818181818
 40
0.1818181818181818
 40
0.1818181818181818
 40
0.2727272727272727
 40
0.2727272727272727
 40
0.2727272727272727
 40
0.3636363636363636
 40
0.3636363636363636
 40
0.3636363636363636
 40
0.4545454545454546
 40
0.4545454545454546
 40
0.4545454545454546
 40
0.5454545454545454
 40
0.5454545454545454
 40
0.5454545454545454
 40
0.6363636363636364
 40
0.6363636363636364
 40
0.6363636363636364
 40
0.7272727272727273
 40
0.7272727272727273
 40
0.7272727272727273
 40
0.8181818181818182
 40
0.8181818181818182
 40
0.8181818181818182
 40
0.9090909090909092
 40
0.9090909090909092
 40
0.9090909090909092
 40
1.0
 40
1.0
 40
1.0
 40
1.0
 10
22.70754
 20
40.05504
 30
0.0
 10
22.29333
 20
40.05504
 30
0.0
 10
21.95754
 20
40.39082
 30
0.0
 10
21.95754
 20
40.80504
 30
0.0
 10
21.95754
 20
41.21926
 30
0.0
 10
22.29333
 20
41.55504
 30
0.0
 10
22.70754
 20
41.55504
 30
0.0
 10
22.70754
 20
41.55504
 30
0.0
 10
26.35755
 20
41.55504
 30
0.0
 10
26.35755
 20
41.55504
 30
0.0
 10
26.55004
 20
41.55504
 30
0.0
 10
26.70754
 20
41.39754
 30
0.0
 10
26.70754
 20
41.20504
 30
0.0
 10
26.70754
 20
41.20504
 30
0.0
 10
26.70754
 20
41.00504
 30
0.0
 10
26.70754
 20
41.00504
 30
0.0
 10
26.70754
 20
41.00504
 30
0.0
 10
25.20754
 20
41.00504
 30
0.0
 10
25.20754
 20
41.00504
 30
0.0
 10
25.20754
 20
41.00504
 30
0.0
 10
25.20754
 20
40.60504
 30
0.0
 10
25.20754
 20
40.60504
 30
0.0
 10
25.20754
 20
40.60504
 30
0.0
 10
26.70754
 20
40.60504
 30
0.0
 10
26.70754
 20
40.60504
 30
0.0
 10
26.70754
 20
40.60504
 30
0.0
 10
26.70754
 20
40.40504
 30
0.0
 10
26.70754
 20
40.40504
 30
0.0
 10
26.70754
 20
40.21254
 30
0.0
 10
26.55004
 20
40.05504
 30
0.0
 10
26.35755
 20
40.05504
 30
0.0
 10
26.35755
 20
40.05504
 30
0.0
 10
22.70754
 20
40.05504
 30
0.0
 10
22.70754
 20
40.05504
 30
0.0
  0
SPLINE
  5
76
330
1F
100
AcDbEntity
  8
Layer 1
 62
   250
370
     9
100
AcDbSpline
210
0.0
220
0.0
230
1.0
 70
    11
 71
     3
 72
    17
 73
    13
 74
     0
 42
0.0000000001
 43
0.0000000001
 40
0.0
 40
0.0
 40
0.0
 40
0.0
 40
0.25
 40
0.25
 40
0.25
 40
0.5
 40
0.5
 40
0.5
 40
0.75
 40
0.75
 40
0.75
 40
1.0
 40
1.0
 40
1.0
 40
1.0
 10
22.70754
 20
41.10504
 30
0.0
 10
22.87322
 20
41.10504
 30
0.0
 10
23.00754
 20
40.97073
 30
0.0
 10
23.00754
 20
40.80504
 30
0.0
 10
23.00754
 20
40.63935
 30
0.0
 10
22.87322
 20
40.50504
 30
0.0
 10
22.70754
 20
40.50504
 30
0.0
 10
22.54186
 20
40.50504
 30
0.0
 10
22.40754
 20
40.63935
 30
0.0
 10
22.40754
 20
40.80504
 30
0.0
 10
22.40754
 20
40.97073
 30
0.0
 10
22.54186
 20
41.10504
 30
0.0
 10
22.70754
 20
41.10504
 30
0.0
  0
SPLINE
  5
77
330
1F
100
AcDbEntity
  8
Layer 1
 62
   250
370
     9
100
AcDbSpline
210
0.0
220
0.0
230
1.0
 70
    11
 71
     3
 72
    68
 73
    64
 74
     0
 42
0.0000000001
 43
0.0000000001
 40
0.0
 40
0.0
 40
0.0
 40
0.0
 40
0.0476190476190476
 40
0.0476190476190476
 40
0.0476190476190476
 40
0.0952380952380952
 40
0.0952380952380952
 40
0.0952380952380952
 40
0.1428571428571428
 40
0.1428571428571428
 40
0.1428571428571428
 40
0.1904761904761905
 40
0.1904761904761905
 40
0.1904761904761905
 40
0.2380952380952381
 40
0.2380952380952381
 40
0.2380952380952381
 40
0.2857142857142857
 40
0.2857142857142857
 40
0.2857142857142857
 40
0.3333333333333333
 40
0.3333333333333333
 40
0.3333333333333333
 40
0.3809523809523809
 40
0.3809523809523809
 40
0.3809523809523809
 40
0.4285714285714285
 40
0.4285714285714285
 40
0.4285714285714285
 40
0.4761904761904762
 40
0.4761904761904762
 40
0.4761904761904762
 40
0.5238095238095237
 40
0.5238095238095237
 40
0.5238095238095237
 40
0.5714285714285714
 40
0.5714285714285714
 40
0.5714285714285714
 40
0.6190476190476191
 40
0.6190476190476191
 40
0.6190476190476191
 40
0.6666666666666666
 40
0.6666666666666666
 40
0.6666666666666666
 40
0.7142857142857142
 40
0.7142857142857142
 40
0.7142857142857142
 40
0.7619047619047619
 40
0.7619047619047619
 40
0.7619047619047619
 40
0.8095238095238095
 40
0.8095238095238095
 40
0.8095238095238095
 40
0.8571428571428571
 40
0.8571428571428571
 40
0.8571428571428571
 40
0.9047619047619047
 40
0.9047619047619047
 40
0.9047619047619047
 40
0.9523809523809523
 40
0.9523809523809523
 40
0.9523809523809523
 40
1.0
 40
1.0
 40
1.0
 40
1.0
 10
-7.76618
 20
27.09582
 30
0.0
 10
-7.76618
 20
27.09582
 30
0.0
 10
-6.96392
 20
27.09582
 30
0.0
 10
-6.96392
 20
27.09582
 30
0.0
 10
-6.96392
 20
28.61718
 30
0.0
 10
-6.96392
 20
27.17446
 30
0.0
 10
-6.96392
 20
28.69582
 30
0.0
 10
-6.96392
 20
28.69582
 30
0.0
 10
-9.11746
 20
28.69582
 30
0.0
 10
-9.11746
 20
28.69582
 30
0.0
 10
-9.11746
 20
28.69582
 30
0.0
 10
-9.11746
 20
29.09582
 30
0.0
 10
-9.11746
 20
29.09582
 30
0.0
 10
-9.11746
 20
29.09582
 30
0.0
 10
-6.96392
 20
29.09582
 30
0.0
 10
-6.96392
 20
29.09582
 30
0.0
 10
-6.96392
 20
29.09582
 30
0.0
 10
-6.96392
 20
29.69582
 30
0.0
 10
-6.96392
 20
29.69582
 30
0.0
 10
-6.96392
 20
36.89206
 30
0.0
 10
-6.96392
 20
53.07153
 30
0.0
 10
-6.96392
 20
53.29582
 30
0.0
 10
-6.96392
 20
53.29582
 30
0.0
 10
-9.11746
 20
53.29582
 30
0.0
 10
-9.11746
 20
53.29582
 30
0.0
 10
-9.11746
 20
53.29582
 30
0.0
 10
-9.11746
 20
53.69582
 30
0.0
 10
-9.11746
 20
53.69582
 30
0.0
 10
-9.11746
 20
53.69582
 30
0.0
 10
-6.96392
 20
53.69582
 30
0.0
 10
-6.96392
 20
53.69582
 30
0.0
 10
-6.96392
 20
53.69582
 30
0.0
 10
-6.96392
 20
54.29582
 30
0.0
 10
-6.96392
 20
54.29582
 30
0.0
 10
-6.96392
 20
54.29582
 30
0.0
 10
-7.76618
 20
54.29582
 30
0.0
 10
-7.76618
 20
54.29582
 30
0.0
 10
-7.76618
 20
54.29582
 30
0.0
 10
-7.76618
 20
55.09582
 30
0.0
 10
-7.76618
 20
55.09582
 30
0.0
 10
-7.76618
 20
55.09582
 30
0.0
 10
-31.16618
 20
55.09582
 30
0.0
 10
-31.16618
 20
55.09582
 30
0.0
 10
-31.16618
 20
55.09582
 30
0.0
 10
-31.16618
 20
54.29582
 30
0.0
 10
-31.16618
 20
54.29582
 30
0.0
 10
-31.16618
 20
54.29582
 30
0.0
 10
-31.16618
 20
51.69582
 30
0.0
 10
-31.16618
 20
51.69582
 30
0.0
 10
-31.16618
 20
51.69582
 30
0.0
 10
-31.16618
 20
29.69582
 30
0.0
 10
-31.16618
 20
29.69582
 30
0.0
 10
-31.16618
 20
29.69582
 30
0.0
 10
-31.16618
 20
27.09582
 30
0.0
 10
-31.16618
 20
27.09582
 30
0.0
 10
-31.16618
 20
27.09582
 30
0.0
 10
-31.16618
 20
26.29582
 30
0.0
 10
-31.16618
 20
26.29582
 30
0.0
 10
-31.16618
 20
26.29582
 30
0.0
 10
-7.76618
 20
26.29582
 30
0.0
 10
-7.76618
 20
26.29582
 30
0.0
 10
-7.76618
 20
26.29582
 30
0.0
 10
-7.76618
 20
27.09582
 30
0.0
 10
-7.76618
 20
27.09582
 30
0.0
  0
SPLINE
  5
78
330
1F
100
AcDbEntity
  8
Layer 1
 62
   250
370
     9
100
AcDbSpline
210
0.0
220
0.0
230
1.0
 70
    11
 71
     3
 72
    17
 73
    13
 74
     0
 42
0.0000000001
 43
0.0000000001
 40
0.0
 40
0.0
 40
0.0
 40
0.0
 40
0.25
 40
0.25
 40
0.25
 40
0.5
 40
0.5
 40
0.5
 40
0.75
 40
0.75
 40
0.75
 40
1.0
 40
1.0
 40
1.0
 40
1.0
 10
-60.05814
 20
59.39181
 30
0.0
 10
-60.05814
 20
59.39181
 30
0.0
 10
-59.65814
 20
59.39181
 30
0.0
 10
-59.65814
 20
59.39181
 30
0.0
 10
-59.65814
 20
59.39181
 30
0.0
 10
-59.65814
 20
56.39181
 30
0.0
 10
-59.65814
 20
56.39181
 30
0.0
 10
-59.65814
 20
56.39181
 30
0.0
 10
-60.05814
 20
56.39181
 30
0.0
 10
-60.05814
 20
56.39181
 30
0.0
 10
-60.05814
 20
56.39181
 30
0.0
 10
-60.05814
 20
59.39181
 30
0.0
 10
-60.05814
 20
59.39181
 30
0.0
  0
SPLINE
  5
79
330
1F
100
AcDbEntity
  8
Layer 1
 62
   250
370
     9
100
AcDbSpline
210
0.0
220
0.0
230
1.0
 70
    11
 71
     3
 72
   146
 73
   142
 74
     0
 42
0.0000000001
 43
0.0000000001
 40
0.0
 40
0.0
 40
0.0
 40
0.0
 40
0.0212765957446809
 40
0.0212765957446809
 40
0.0212765957446809
 40
0.0425531914893617
 40
0.0425531914893617
 40
0.0425531914893617
 40
0.0638297872340425
 40
0.0638297872340425
 40
0.0638297872340425
 40
0.0851063829787234
 40
0.0851063829787234
 40
0.0851063829787234
 40
0.1063829787234043
 40
0.1063829787234043
 40
0.1063829787234043
 40
0.1276595744680851
 40
0.1276595744680851
 40
0.1276595744680851
 40
0.148936170212766
 40
0.148936170212766
 40
0.148936170212766
 40
0.1702127659574468
 40
0.1702127659574468
 40
0.1702127659574468
 40
0.1914893617021277
 40
0.1914893617021277
 40
0.1914893617021277
 40
0.2127659574468085
 40
0.2127659574468085
 40
0.2127659574468085
 40
0.2340425531914894
 40
0.2340425531914894
 40
0.2340425531914894
 40
0.2553191489361702
 40
0.2553191489361702
 40
0.2553191489361702
 40
0.2765957446808511
 40
0.2765957446808511
 40
0.2765957446808511
 40
0.2978723404255319
 40
0.2978723404255319
 40
0.2978723404255319
 40
0.3191489361702128
 40
0.3191489361702128
 40
0.3191489361702128
 40
0.3404255319148936
 40
0.3404255319148936
 40
0.3404255319148936
 40
0.3617021276595744
 40
0.3617021276595744
 40
0.3617021276595744
 40
0.3829787234042553
 40
0.3829787234042553
 40
0.3829787234042553
 40
0.4042553191489361
 40
0.4042553191489361
 40
0.4042553191489361
 40
0.425531914893617
 40
0.425531914893617
 40
0.425531914893617
 40
0.4468085106382979
 40
0.4468085106382979
 40
0.4468085106382979
 40
0.4680851063829787
 40
0.4680851063829787
 40
0.4680851063829787
 40
0.4893617021276596
 40
0.4893617021276596
 40
0.4893617021276596
 40
0.5106382978723404
 40
0.5106382978723404
 40
0.5106382978723404
 40
0.5319148936170213
 40
0.5319148936170213
 40
0.5319148936170213
 40
0.5531914893617021
 40
0.5531914893617021
 40
0.5531914893617021
 40
0.5744680851063829
 40
0.5744680851063829
 40
0.5744680851063829
 40
0.5957446808510638
 40
0.5957446808510638
 40
0.5957446808510638
 40
0.6170212765957447
 40
0.6170212765957447
 40
0.6170212765957447
 40
0.6382978723404256
 40
0.6382978723404256
 40
0.6382978723404256
 40
0.6595744680851063
 40
0.6595744680851063
 40
0.6595744680851063
 40
0.6808510638297872
 40
0.6808510638297872
 40
0.6808510638297872
 40
0.7021276595744681
 40
0.7021276595744681
 40
0.7021276595744681
 40
0.7234042553191489
 40
0.7234042553191489
 40
0.7234042553191489
 40
0.7446808510638298
 40
0.7446808510638298
 40
0.7446808510638298
 40
0.7659574468085106
 40
0.7659574468085106
 40
0.7659574468085106
 40
0.7872340425531915
 40
0.7872340425531915
 40
0.7872340425531915
 40
0.8085106382978723
 40
0.8085106382978723
 40
0.8085106382978723
 40
0.8297872340425532
 40
0.8297872340425532
 40
0.8297872340425532
 40
0.851063829787234
 40
0.851063829787234
 40
0.851063829787234
 40
0.8723404255319148
 40
0.8723404255319148
 40
0.8723404255319148
 40
0.8936170212765957
 40
0.8936170212765957
 40
0.8936170212765957
 40
0.9148936170212766
 40
0.9148936170212766
 40
0.9148936170212766
 40
0.9361702127659575
 40
0.9361702127659575
 40
0.9361702127659575
 40
0.9574468085106382
 40
0.9574468085106382
 40
0.9574468085106382
 40
0.9787234042553191
 40
0.9787234042553191
 40
0.9787234042553191
 40
1.0
 40
1.0
 40
1.0
 40
1.0
 10
-41.15812
 20
18.25835
 30
0.0
 10
-41.15812
 20
18.25835
 30
0.0
 10
-39.65812
 20
18.25835
 30
0.0
 10
-39.65812
 20
18.25835
 30
0.0
 10
-39.65812
 20
18.25835
 30
0.0
 10
-39.65812
 20
18.65835
 30
0.0
 10
-39.65812
 20
18.65835
 30
0.0
 10
-39.65812
 20
18.65835
 30
0.0
 10
-38.85812
 20
18.65835
 30
0.0
 10
-38.85812
 20
18.65835
 30
0.0
 10
-38.85812
 20
18.65835
 30
0.0
 10
-38.85812
 20
23.25835
 30
0.0
 10
-38.85812
 20
23.25835
 30
0.0
 10
-38.85812
 20
23.25835
 30
0.0
 10
-39.25812
 20
23.25835
 30
0.0
 10
-39.25812
 20
23.25835
 30
0.0
 10
-39.25812
 20
23.25835
 30
0.0
 10
-39.25812
 20
27.25835
 30
0.0
 10
-39.25812
 20
27.25835
 30
0.0
 10
-39.25812
 20
27.25835
 30
0.0
 10
-38.85812
 20
27.25835
 30
0.0
 10
-38.85812
 20
27.25835
 30
0.0
 10
-38.85812
 20
27.25835
 30
0.0
 10
-38.85812
 20
31.85835
 30
0.0
 10
-38.85812
 20
31.85835
 30
0.0
 10
-38.85812
 20
31.85835
 30
0.0
 10
-39.25812
 20
31.85835
 30
0.0
 10
-39.25812
 20
31.85835
 30
0.0
 10
-39.25812
 20
31.85835
 30
0.0
 10
-39.25812
 20
35.85835
 30
0.0
 10
-39.25812
 20
35.85835
 30
0.0
 10
-39.25812
 20
35.85835
 30
0.0
 10
-38.85812
 20
35.85835
 30
0.0
 10
-38.85812
 20
35.85835
 30
0.0
 10
-38.85812
 20
35.85835
 30
0.0
 10
-38.85812
 20
40.45835
 30
0.0
 10
-38.85812
 20
40.45835
 30
0.0
 10
-38.85812
 20
40.45835
 30
0.0
 10
-39.25812
 20
40.45835
 30
0.0
 10
-39.25812
 20
40.45835
 30
0.0
 10
-39.25812
 20
40.45835
 30
0.0
 10
-39.25812
 20
44.45835
 30
0.0
 10
-39.25812
 20
44.45835
 30
0.0
 10
-39.25812
 20
44.45835
 30
0.0
 10
-38.85812
 20
44.45835
 30
0.0
 10
-38.85812
 20
44.45835
 30
0.0
 10
-38.85812
 20
44.45835
 30
0.0
 10
-38.85812
 20
49.05835
 30
0.0
 10
-38.85812
 20
49.05835
 30
0.0
 10
-38.85812
 20
49.05835
 30
0.0
 10
-59.33217
 20
60.87905
 30
0.0
 10
-59.33217
 20
60.87905
 30
0.0
 10
-59.19391
 20
61.01509
 30
0.0
 10
-59.10813
 20
61.20434
 30
0.0
 10
-59.10813
 20
61.41365
 30
0.0
 10
-59.10813
 20
61.82787
 30
0.0
 10
-59.44392
 20
62.16364
 30
0.0
 10
-59.85813
 20
62.16365
 30
0.0
 10
-60.27235
 20
62.16365
 30
0.0
 10
-60.60813
 20
61.82787
 30
0.0
 10
-60.60813
 20
61.41365
 30
0.0
 10
-60.60813
 20
61.20434
 30
0.0
 10
-60.52235
 20
61.0151
 30
0.0
 10
-60.38408
 20
60.87905
 30
0.0
 10
-60.38408
 20
60.87905
 30
0.0
 10
-80.85812
 20
49.05835
 30
0.0
 10
-80.85812
 20
49.05835
 30
0.0
 10
-80.85812
 20
49.05835
 30
0.0
 10
-80.85812
 20
44.45835
 30
0.0
 10
-80.85812
 20
44.45835
 30
0.0
 10
-80.85812
 20
44.45835
 30
0.0
 10
-80.45812
 20
44.45835
 30
0.0
 10
-80.45812
 20
44.45835
 30
0.0
 10
-80.45812
 20
44.45835
 30
0.0
 10
-80.45812
 20
40.45835
 30
0.0
 10
-80.45812
 20
40.45835
 30
0.0
 10
-80.45812
 20
40.45835
 30
0.0
 10
-80.85812
 20
40.45835
 30
0.0
 10
-80.85812
 20
40.45835
 30
0.0
 10
-80.85812
 20
40.45835
 30
0.0
 10
-80.85812
 20
35.85835
 30
0.0
 10
-80.85812
 20
35.85835
 30
0.0
 10
-80.85812
 20
35.85835
 30
0.0
 10
-80.45812
 20
35.85835
 30
0.0
 10
-80.45812
 20
35.85835
 30
0.0
 10
-80.45812
 20
35.85835
 30
0.0
 10
-80.45812
 20
31.85835
 30
0.0
 10
-80.45812
 20
31.85835
 30
0.0
 10
-80.45812
 20
31.85835
 30
0.0
 10
-80.85812
 20
31.85835
 30
0.0
 10
-80.85812
 20
31.85835
 30
0.0
 10
-80.85812
 20
31.85835
 30
0.0
 10
-80.85812
 20
27.25835
 30
0.0
 10
-80.85812
 20
27.25835
 30
0.0
 10
-80.85812
 20
27.25835
 30
0.0
 10
-80.45812
 20
27.25835
 30
0.0
 10
-80.45812
 20
27.25835
 30
0.0
 10
-80.45812
 20
27.25835
 30
0.0
 10
-80.45812
 20
23.25835
 30
0.0
 10
-80.45812
 20
23.25835
 30
0.0
 10
-80.45812
 20
23.25835
 30
0.0
 10
-80.85812
 20
23.25835
 30
0.0
 10
-80.85812
 20
23.25835
 30
0.0
 10
-80.85812
 20
23.25835
 30
0.0
 10
-80.85812
 20
18.65835
 30
0.0
 10
-80.85812
 20
18.65835
 30
0.0
 10
-80.85812
 20
18.65835
 30
0.0
 10
-80.05812
 20
18.65835
 30
0.0
 10
-80.05812
 20
18.65835
 30
0.0
 10
-80.05812
 20
18.65835
 30
0.0
 10
-80.05812
 20
18.25835
 30
0.0
 10
-80.05812
 20
18.25835
 30
0.0
 10
-80.05812
 20
18.25835
 30
0.0
 10
-78.55812
 20
18.25835
 30
0.0
 10
-78.55812
 20
18.25835
 30
0.0
 10
-78.55812
 20
18.25835
 30
0.0
 10
-78.55812
 20
18.65835
 30
0.0
 10
-78.55812
 20
18.65835
 30
0.0
 10
-78.55812
 20
18.65835
 30
0.0
 10
-77.75813
 20
18.65835
 30
0.0
 10
-77.75813
 20
18.65835
 30
0.0
 10
-77.75813
 20
18.65835
 30
0.0
 10
-76.95813
 20
46.25835
 30
0.0
 10
-76.95813
 20
46.25835
 30
0.0
 10
-76.92626
 20
47.35789
 30
0.0
 10
-76.05812
 20
48.25835
 30
0.0
 10
-74.95813
 20
48.25835
 30
0.0
 10
-74.95813
 20
48.25835
 30
0.0
 10
-44.75813
 20
48.25835
 30
0.0
 10
-44.75813
 20
48.25835
 30
0.0
 10
-43.65813
 20
48.25835
 30
0.0
 10
-42.78999
 20
47.35774
 30
0.0
 10
-42.75812
 20
46.25835
 30
0.0
 10
-42.75812
 20
46.25835
 30
0.0
 10
-41.95812
 20
18.65835
 30
0.0
 10
-41.95812
 20
18.65835
 30
0.0
 10
-41.95812
 20
18.65835
 30
0.0
 10
-41.15812
 20
18.65835
 30
0.0
 10
-41.15812
 20
18.65835
 30
0.0
 10
-41.15812
 20
18.65835
 30
0.0
 10
-41.15812
 20
18.25835
 30
0.0
 10
-41.15812
 20
18.25835
 30
0.0
  0
SPLINE
  5
7A
330
1F
100
AcDbEntity
  8
Layer 1
 62
   250
370
     9
100
AcDbSpline
210
0.0
220
0.0
230
1.0
 70
    11
 71
     3
 72
    17
 73
    13
 74
     0
 42
0.0000000001
 43
0.0000000001
 40
0.0
 40
0.0
 40
0.0
 40
0.0
 40
0.25
 40
0.25
 40
0.25
 40
0.5
 40
0.5
 40
0.5
 40
0.75
 40
0.75
 40
0.75
 40
1.0
 40
1.0
 40
1.0
 40
1.0
 10
-59.70813
 20
61.67346
 30
0.0
 10
-59.56466
 20
61.59065
 30
0.0
 10
-59.5155
 20
61.40719
 30
0.0
 10
-59.59833
 20
61.26362
 30
0.0
 10
-59.68115
 20
61.12017
 30
0.0
 10
-59.86463
 20
61.07103
 30
0.0
 10
-60.00815
 20
61.15384
 30
0.0
 10
-60.15159
 20
61.23668
 30
0.0
 10
-60.20081
 20
61.42018
 30
0.0
 10
-60.11794
 20
61.56365
 30
0.0
 10
-60.0351
 20
61.70711
 30
0.0
 10
-59.8516
 20
61.7563
 30
0.0
 10
-59.70813
 20
61.67346
 30
0.0
  0
SPLINE
  5
7B
330
1F
100
AcDbEntity
  8
Layer 1
 62
   250
370
     9
100
AcDbSpline
210
0.0
220
0.0
230
1.0
 70
    11
 71
     3
 72
    29
 73
    25
 74
     0
 42
0.0000000001
 43
0.0000000001
 40
0.0
 40
0.0
 40
0.0
 40
0.0
 40
0.125
 40
0.125
 40
0.125
 40
0.25
 40
0.25
 40
0.25
 40
0.375
 40
0.375
 40
0.375
 40
0.5
 40
0.5
 40
0.5
 40
0.625
 40
0.625
 40
0.625
 40
0.75
 40
0.75
 40
0.75
 40
0.875
 40
0.875
 40
0.875
 40
1.0
 40
1.0
 40
1.0
 40
1.0
 10
-72.2744
 20
51.05835
 30
0.0
 10
-72.2744
 20
51.05835
 30
0.0
 10
-62.97772
 20
51.05835
 30
0.0
 10
-62.97772
 20
51.05835
 30
0.0
 10
-62.84002
 20
51.05835
 30
0.0
 10
-62.72358
 20
51.14771
 30
0.0
 10
-62.68795
 20
51.28071
 30
0.0
 10
-62.65231
 20
51.41371
 30
0.0
 10
-62.70848
 20
51.54931
 30
0.0
 10
-62.82772
 20
51.61816
 30
0.0
 10
-62.82772
 20
51.61816
 30
0.0
 10
-67.47607
 20
54.30188
 30
0.0
 10
-67.47607
 20
54.30188
 30
0.0
 10
-67.57147
 20
54.35696
 30
0.0
 10
-67.68067
 20
54.35696
 30
0.0
 10
-67.77607
 20
54.30188
 30
0.0
 10
-67.77607
 20
54.30188
 30
0.0
 10
-72.4244
 20
51.61816
 30
0.0
 10
-72.4244
 20
51.61816
 30
0.0
 10
-72.54365
 20
51.54931
 30
0.0
 10
-72.59982
 20
51.41371
 30
0.0
 10
-72.56418
 20
51.2807
 30
0.0
 10
-72.52854
 20
51.1477
 30
0.0
 10
-72.4121
 20
51.05835
 30
0.0
 10
-72.2744
 20
51.05835
 30
0.0
  0
SPLINE
  5
7C
330
1F
100
AcDbEntity
  8
Layer 1
 62
   250
370
     9
100
AcDbSpline
210
0.0
220
0.0
230
1.0
 70
    11
 71
     3
 72
    29
 73
    25
 74
     0
 42
0.0000000001
 43
0.0000000001
 40
0.0
 40
0.0
 40
0.0
 40
0.0
 40
0.125
 40
0.125
 40
0.125
 40
0.25
 40
0.25
 40
0.25
 40
0.375
 40
0.375
 40
0.375
 40
0.5
 40
0.5
 40
0.5
 40
0.625
 40
0.625
 40
0.625
 40
0.75
 40
0.75
 40
0.75
 40
0.875
 40
0.875
 40
0.875
 40
1.0
 40
1.0
 40
1.0
 40
1.0
 10
-56.73849
 20
51.05835
 30
0.0
 10
-56.73849
 20
51.05835
 30
0.0
 10
-47.44183
 20
51.05835
 30
0.0
 10
-47.44183
 20
51.05835
 30
0.0
 10
-47.30413
 20
51.05835
 30
0.0
 10
-47.18768
 20
51.14771
 30
0.0
 10
-47.15205
 20
51.28071
 30
0.0
 10
-47.11642
 20
51.41371
 30
0.0
 10
-47.17258
 20
51.54931
 30
0.0
 10
-47.29182
 20
51.61816
 30
0.0
 10
-47.29182
 20
51.61816
 30
0.0
 10
-51.94015
 20
54.30188
 30
0.0
 10
-51.94015
 20
54.30188
 30
0.0
 10
-52.03555
 20
54.35696
 30
0.0
 10
-52.14476
 20
54.35696
 30
0.0
 10
-52.24016
 20
54.30188
 30
0.0
 10
-52.24016
 20
54.30188
 30
0.0
 10
-56.88849
 20
51.61816
 30
0.0
 10
-56.88849
 20
51.61816
 30
0.0
 10
-57.00774
 20
51.54931
 30
0.0
 10
-57.06391
 20
51.41371
 30
0.0
 10
-57.02827
 20
51.2807
 30
0.0
 10
-56.99263
 20
51.1477
 30
0.0
 10
-56.87619
 20
51.05835
 30
0.0
 10
-56.73849
 20
51.05835
 30
0.0
  0
SPLINE
  5
7D
330
1F
100
AcDbEntity
  8
Layer 1
 62
   250
370
     9
100
AcDbSpline
210
0.0
220
0.0
230
1.0
 70
    11
 71
     3
 72
    32
 73
    28
 74
     0
 42
0.0000000001
 43
0.0000000001
 40
0.0
 40
0.0
 40
0.0
 40
0.0
 40
0.1111111111111111
 40
0.1111111111111111
 40
0.1111111111111111
 40
0.2222222222222222
 40
0.2222222222222222
 40
0.2222222222222222
 40
0.3333333333333333
 40
0.3333333333333333
 40
0.3333333333333333
 40
0.4444444444444444
 40
0.4444444444444444
 40
0.4444444444444444
 40
0.5555555555555556
 40
0.5555555555555556
 40
0.5555555555555556
 40
0.6666666666666666
 40
0.6666666666666666
 40
0.6666666666666666
 40
0.7777777777777777
 40
0.7777777777777777
 40
0.7777777777777777
 40
0.8888888888888888
 40
0.8888888888888888
 40
0.8888888888888888
 40
1.0
 40
1.0
 40
1.0
 40
1.0
 10
-54.54016
 20
55.80299
 30
0.0
 10
-54.54016
 20
55.80299
 30
0.0
 10
-58.40812
 20
58.03617
 30
0.0
 10
-58.40812
 20
58.03617
 30
0.0
 10
-58.50352
 20
58.09125
 30
0.0
 10
-58.61272
 20
58.09124
 30
0.0
 10
-58.70812
 20
58.03617
 30
0.0
 10
-58.80352
 20
57.98109
 30
0.0
 10
-58.85813
 20
57.88652
 30
0.0
 10
-58.85813
 20
57.77636
 30
0.0
 10
-58.85813
 20
57.77636
 30
0.0
 10
-58.85813
 20
53.31002
 30
0.0
 10
-58.85813
 20
53.31002
 30
0.0
 10
-58.85813
 20
53.19986
 30
0.0
 10
-58.80353
 20
53.10529
 30
0.0
 10
-58.70813
 20
53.05021
 30
0.0
 10
-58.61273
 20
52.99513
 30
0.0
 10
-58.50353
 20
52.99513
 30
0.0
 10
-58.40813
 20
53.05021
 30
0.0
 10
-58.40813
 20
53.05021
 30
0.0
 10
-54.54016
 20
55.28338
 30
0.0
 10
-54.54016
 20
55.28338
 30
0.0
 10
-54.44477
 20
55.33846
 30
0.0
 10
-54.39017
 20
55.43303
 30
0.0
 10
-54.39017
 20
55.54319
 30
0.0
 10
-54.39017
 20
55.65334
 30
0.0
 10
-54.44477
 20
55.74791
 30
0.0
 10
-54.54016
 20
55.80299
 30
0.0
  0
SPLINE
  5
7E
330
1F
100
AcDbEntity
  8
Layer 1
 62
   250
370
     9
100
AcDbSpline
210
0.0
220
0.0
230
1.0
 70
    11
 71
     3
 72
    32
 73
    28
 74
     0
 42
0.0000000001
 43
0.0000000001
 40
0.0
 40
0.0
 40
0.0
 40
0.0
 40
0.1111111111111111
 40
0.1111111111111111
 40
0.1111111111111111
 40
0.2222222222222222
 40
0.2222222222222222
 40
0.2222222222222222
 40
0.3333333333333333
 40
0.3333333333333333
 40
0.3333333333333333
 40
0.4444444444444444
 40
0.4444444444444444
 40
0.4444444444444444
 40
0.5555555555555556
 40
0.5555555555555556
 40
0.5555555555555556
 40
0.6666666666666666
 40
0.6666666666666666
 40
0.6666666666666666
 40
0.7777777777777777
 40
0.7777777777777777
 40
0.7777777777777777
 40
0.8888888888888888
 40
0.8888888888888888
 40
0.8888888888888888
 40
1.0
 40
1.0
 40
1.0
 40
1.0
 10
-61.30813
 20
58.03615
 30
0.0
 10
-61.30813
 20
58.03615
 30
0.0
 10
-65.17606
 20
55.80299
 30
0.0
 10
-65.17606
 20
55.80299
 30
0.0
 10
-65.27146
 20
55.74792
 30
0.0
 10
-65.32607
 20
55.65334
 30
0.0
 10
-65.32607
 20
55.54319
 30
0.0
 10
-65.32607
 20
55.43303
 30
0.0
 10
-65.27146
 20
55.33846
 30
0.0
 10
-65.17606
 20
55.28338
 30
0.0
 10
-65.17606
 20
55.28338
 30
0.0
 10
-61.30812
 20
53.05022
 30
0.0
 10
-61.30812
 20
53.05022
 30
0.0
 10
-61.21272
 20
52.99514
 30
0.0
 10
-61.10351
 20
52.99514
 30
0.0
 10
-61.00812
 20
53.05022
 30
0.0
 10
-60.91273
 20
53.1053
 30
0.0
 10
-60.85813
 20
53.19988
 30
0.0
 10
-60.85813
 20
53.31003
 30
0.0
 10
-60.85813
 20
53.31003
 30
0.0
 10
-60.85813
 20
57.77634
 30
0.0
 10
-60.85813
 20
57.77634
 30
0.0
 10
-60.85813
 20
57.8865
 30
0.0
 10
-60.91274
 20
57.98107
 30
0.0
 10
-61.00814
 20
58.03615
 30
0.0
 10
-61.10353
 20
58.09122
 30
0.0
 10
-61.21273
 20
58.09122
 30
0.0
 10
-61.30813
 20
58.03615
 30
0.0
  0
SPLINE
  5
7F
330
1F
100
AcDbEntity
  8
Layer 1
 62
   250
370
     9
100
AcDbSpline
210
0.0
220
0.0
230
1.0
 70
    11
 71
     3
 72
   161
 73
   157
 74
     0
 42
0.0000000001
 43
0.0000000001
 40
0.0
 40
0.0
 40
0.0
 40
0.0
 40
0.0192307692307692
 40
0.0192307692307692
 40
0.0192307692307692
 40
0.0384615384615385
 40
0.0384615384615385
 40
0.0384615384615385
 40
0.0576923076923077
 40
0.0576923076923077
 40
0.0576923076923077
 40
0.0769230769230769
 40
0.0769230769230769
 40
0.0769230769230769
 40
0.0961538461538462
 40
0.0961538461538462
 40
0.0961538461538462
 40
0.1153846153846154
 40
0.1153846153846154
 40
0.1153846153846154
 40
0.1346153846153846
 40
0.1346153846153846
 40
0.1346153846153846
 40
0.1538461538461539
 40
0.1538461538461539
 40
0.1538461538461539
 40
0.1730769230769231
 40
0.1730769230769231
 40
0.1730769230769231
 40
0.1923076923076923
 40
0.1923076923076923
 40
0.1923076923076923
 40
0.2115384615384616
 40
0.2115384615384616
 40
0.2115384615384616
 40
0.2307692307692308
 40
0.2307692307692308
 40
0.2307692307692308
 40
0.25
 40
0.25
 40
0.25
 40
0.2692307692307693
 40
0.2692307692307693
 40
0.2692307692307693
 40
0.2884615384615385
 40
0.2884615384615385
 40
0.2884615384615385
 40
0.3076923076923077
 40
0.3076923076923077
 40
0.3076923076923077
 40
0.3269230769230769
 40
0.3269230769230769
 40
0.3269230769230769
 40
0.3461538461538461
 40
0.3461538461538461
 40
0.3461538461538461
 40
0.3653846153846154
 40
0.3653846153846154
 40
0.3653846153846154
 40
0.3846153846153846
 40
0.3846153846153846
 40
0.3846153846153846
 40
0.4038461538461539
 40
0.4038461538461539
 40
0.4038461538461539
 40
0.4230769230769231
 40
0.4230769230769231
 40
0.4230769230769231
 40
0.4423076923076923
 40
0.4423076923076923
 40
0.4423076923076923
 40
0.4615384615384616
 40
0.4615384615384616
 40
0.4615384615384616
 40
0.4807692307692308
 40
0.4807692307692308
 40
0.4807692307692308
 40
0.5
 40
0.5
 40
0.5
 40
0.5192307692307693
 40
0.5192307692307693
 40
0.5192307692307693
 40
0.5384615384615385
 40
0.5384615384615385
 40
0.5384615384615385
 40
0.5576923076923077
 40
0.5576923076923077
 40
0.5576923076923077
 40
0.576923076923077
 40
0.576923076923077
 40
0.576923076923077
 40
0.5961538461538461
 40
0.5961538461538461
 40
0.5961538461538461
 40
0.6153846153846154
 40
0.6153846153846154
 40
0.6153846153846154
 40
0.6346153846153847
 40
0.6346153846153847
 40
0.6346153846153847
 40
0.6538461538461539
 40
0.6538461538461539
 40
0.6538461538461539
 40
0.6730769230769231
 40
0.6730769230769231
 40
0.6730769230769231
 40
0.6923076923076923
 40
0.6923076923076923
 40
0.6923076923076923
 40
0.7115384615384616
 40
0.7115384615384616
 40
0.7115384615384616
 40
0.7307692307692308
 40
0.7307692307692308
 40
0.7307692307692308
 40
0.75
 40
0.75
 40
0.75
 40
0.7692307692307693
 40
0.7692307692307693
 40
0.7692307692307693
 40
0.7884615384615385
 40
0.7884615384615385
 40
0.7884615384615385
 40
0.8076923076923077
 40
0.8076923076923077
 40
0.8076923076923077
 40
0.826923076923077
 40
0.826923076923077
 40
0.826923076923077
 40
0.8461538461538463
 40
0.8461538461538463
 40
0.8461538461538463
 40
0.8653846153846154
 40
0.8653846153846154
 40
0.8653846153846154
 40
0.8846153846153847
 40
0.8846153846153847
 40
0.8846153846153847
 40
0.9038461538461539
 40
0.9038461538461539
 40
0.9038461538461539
 40
0.9230769230769231
 40
0.9230769230769231
 40
0.9230769230769231
 40
0.9423076923076924
 40
0.9423076923076924
 40
0.9423076923076924
 40
0.9615384615384616
 40
0.9615384615384616
 40
0.9615384615384616
 40
0.9807692307692308
 40
0.9807692307692308
 40
0.9807692307692308
 40
1.0
 40
1.0
 40
1.0
 40
1.0
 10
18.231
 20
10.75497
 30
0.0
 10
18.231
 20
10.75497
 30
0.0
 10
18.90814
 20
10.75497
 30
0.0
 10
18.90814
 20
10.75497
 30
0.0
 10
18.90814
 20
10.75497
 30
0.0
 10
18.90814
 20
11.15497
 30
0.0
 10
18.90814
 20
11.15497
 30
0.0
 10
18.90814
 20
11.15497
 30
0.0
 10
18.09742
 20
11.15497
 30
0.0
 10
18.09742
 20
11.15497
 30
0.0
 10
18.09742
 20
11.15497
 30
0.0
 10
17.77988
 20
12.10583
 30
0.0
 10
17.77988
 20
12.10583
 30
0.0
 10
17.77988
 20
12.10583
 30
0.0
 10
17.69625
 20
12.29497
 30
0.0
 10
17.91601
 20
12.29497
 30
0.0
 10
18.43677
 20
12.29497
 30
0.0
 10
18.93753
 20
12.29497
 30
0.0
 10
19.4583
 20
12.29497
 30
0.0
 10
19.7283
 20
12.29497
 30
0.0
 10
19.80208
 20
12.01158
 30
0.0
 10
19.80208
 20
12.01158
 30
0.0
 10
19.80208
 20
12.01158
 30
0.0
 10
20.08815
 20
11.15497
 30
0.0
 10
20.08815
 20
11.15497
 30
0.0
 10
20.08815
 20
11.15497
 30
0.0
 10
20.22173
 20
10.75497
 30
0.0
 10
20.22173
 20
10.75497
 30
0.0
 10
20.22173
 20
10.75497
 30
0.0
 10
20.60243
 20
9.61497
 30
0.0
 10
20.60243
 20
9.61497
 30
0.0
 10
20.60243
 20
9.61497
 30
0.0
 10
19.89065
 20
9.61497
 30
0.0
 10
19.89065
 20
9.61497
 30
0.0
 10
19.89065
 20
9.61497
 30
0.0
 10
19.89065
 20
9.21497
 30
0.0
 10
19.89065
 20
9.21497
 30
0.0
 10
19.89065
 20
9.21497
 30
0.0
 10
20.73602
 20
9.21497
 30
0.0
 10
20.73602
 20
9.21497
 30
0.0
 10
20.73602
 20
9.21497
 30
0.0
 10
21.11672
 20
8.07497
 30
0.0
 10
21.11672
 20
8.07497
 30
0.0
 10
21.11672
 20
8.07497
 30
0.0
 10
20.40494
 20
8.07497
 30
0.0
 10
20.40494
 20
8.07497
 30
0.0
 10
20.40494
 20
8.07497
 30
0.0
 10
20.40494
 20
7.67497
 30
0.0
 10
20.40494
 20
7.67497
 30
0.0
 10
20.40494
 20
7.67497
 30
0.0
 10
21.2503
 20
7.67497
 30
0.0
 10
21.2503
 20
7.67497
 30
0.0
 10
21.2503
 20
7.67497
 30
0.0
 10
21.631
 20
6.53497
 30
0.0
 10
21.631
 20
6.53497
 30
0.0
 10
21.631
 20
6.53497
 30
0.0
 10
20.91922
 20
6.53497
 30
0.0
 10
20.91922
 20
6.53497
 30
0.0
 10
20.91922
 20
6.53497
 30
0.0
 10
20.91922
 20
6.13497
 30
0.0
 10
20.91922
 20
6.13497
 30
0.0
 10
20.91922
 20
6.13497
 30
0.0
 10
21.76459
 20
6.13497
 30
0.0
 10
21.76459
 20
6.13497
 30
0.0
 10
21.76459
 20
6.13497
 30
0.0
 10
22.14529
 20
4.99497
 30
0.0
 10
22.14529
 20
4.99497
 30
0.0
 10
22.14529
 20
4.99497
 30
0.0
 10
21.43351
 20
4.99497
 30
0.0
 10
21.43351
 20
4.99497
 30
0.0
 10
21.43351
 20
4.99497
 30
0.0
 10
21.43351
 20
4.59497
 30
0.0
 10
21.43351
 20
4.59497
 30
0.0
 10
21.43351
 20
4.59497
 30
0.0
 10
22.27887
 20
4.59497
 30
0.0
 10
22.27887
 20
4.59497
 30
0.0
 10
22.27887
 20
4.59497
 30
0.0
 10
22.65957
 20
3.45497
 30
0.0
 10
22.65957
 20
3.45497
 30
0.0
 10
22.65957
 20
3.45497
 30
0.0
 10
21.94779
 20
3.45497
 30
0.0
 10
21.94779
 20
3.45497
 30
0.0
 10
21.94779
 20
3.45497
 30
0.0
 10
21.94779
 20
3.05497
 30
0.0
 10
21.94779
 20
3.05497
 30
0.0
 10
21.94779
 20
3.05497
 30
0.0
 10
22.79316
 20
3.05497
 30
0.0
 10
22.79316
 20
3.05497
 30
0.0
 10
22.79316
 20
3.05497
 30
0.0
 10
23.17386
 20
1.91497
 30
0.0
 10
23.17386
 20
1.91497
 30
0.0
 10
23.17386
 20
1.91497
 30
0.0
 10
22.46208
 20
1.91497
 30
0.0
 10
22.46208
 20
1.91497
 30
0.0
 10
22.46208
 20
1.91497
 30
0.0
 10
22.46208
 20
1.51497
 30
0.0
 10
22.46208
 20
1.51497
 30
0.0
 10
22.46208
 20
1.51497
 30
0.0
 10
23.30744
 20
1.51497
 30
0.0
 10
23.30744
 20
1.51497
 30
0.0
 10
23.30744
 20
1.51497
 30
0.0
 10
23.68814
 20
0.37497
 30
0.0
 10
23.68814
 20
0.37497
 30
0.0
 10
23.68814
 20
0.37497
 30
0.0
 10
22.97636
 20
0.37497
 30
0.0
 10
22.97636
 20
0.37497
 30
0.0
 10
22.97636
 20
0.37497
 30
0.0
 10
22.97636
 20
-0.02503
 30
0.0
 10
22.97636
 20
-0.02503
 30
0.0
 10
22.97636
 20
-0.02503
 30
0.0
 10
23.82173
 20
-0.02503
 30
0.0
 10
23.82173
 20
-0.02503
 30
0.0
 10
23.82173
 20
-0.02503
 30
0.0
 10
24.20243
 20
-1.16503
 30
0.0
 10
24.20243
 20
-1.16503
 30
0.0
 10
24.20243
 20
-1.16503
 30
0.0
 10
23.49065
 20
-1.16503
 30
0.0
 10
23.49065
 20
-1.16503
 30
0.0
 10
23.49065
 20
-1.16503
 30
0.0
 10
23.49065
 20
-1.56503
 30
0.0
 10
23.49065
 20
-1.56503
 30
0.0
 10
23.49065
 20
-1.56503
 30
0.0
 10
24.33601
 20
-1.56503
 30
0.0
 10
24.33601
 20
-1.56503
 30
0.0
 10
24.33601
 20
-1.56503
 30
0.0
 10
24.71671
 20
-2.70503
 30
0.0
 10
24.71671
 20
-2.70503
 30
0.0
 10
24.71671
 20
-2.70503
 30
0.0
 10
24.00493
 20
-2.70503
 30
0.0
 10
24.00493
 20
-2.70503
 30
0.0
 10
24.00493
 20
-2.70503
 30
0.0
 10
24.00493
 20
-3.10503
 30
0.0
 10
24.00493
 20
-3.10503
 30
0.0
 10
24.00493
 20
-3.10503
 30
0.0
 10
24.8503
 20
-3.10503
 30
0.0
 10
24.8503
 20
-3.10503
 30
0.0
 10
24.8503
 20
-3.10503
 30
0.0
 10
25.231
 20
-4.24503
 30
0.0
 10
25.231
 20
-4.24503
 30
0.0
 10
25.231
 20
-4.24503
 30
0.0
 10
24.73563
 20
-4.24503
 30
0.0
 10
24.73563
 20
-4.24503
 30
0.0
 10
24.73563
 20
-4.24503
 30
0.0
 10
24.73563
 20
-4.64503
 30
0.0
 10
24.73563
 20
-4.64503
 30
0.0
 10
24.73563
 20
-4.64503
 30
0.0
 10
23.73563
 20
-4.64503
 30
0.0
 10
23.73563
 20
-4.64503
 30
0.0
 10
23.73563
 20
-4.64503
 30
0.0
 10
23.73563
 20
-4.24503
 30
0.0
 10
23.73563
 20
-4.24503
 30
0.0
 10
23.73563
 20
-4.24503
 30
0.0
 10
23.24027
 20
-4.24503
 30
0.0
 10
23.24027
 20
-4.24503
 30
0.0
 10
23.24027
 20
-4.24503
 30
0.0
 10
18.231
 20
10.75497
 30
0.0
 10
18.231
 20
10.75497
 30
0.0
  0
SPLINE
  5
80
330
1F
100
AcDbEntity
  8
Layer 1
 62
   250
370
     9
100
AcDbSpline
210
0.0
220
0.0
230
1.0
 70
    11
 71
     3
 72
    47
 73
    43
 74
     0
 42
0.0000000001
 43
0.0000000001
 40
0.0
 40
0.0
 40
0.0
 40
0.0
 40
0.0714285714285714
 40
0.0714285714285714
 40
0.0714285714285714
 40
0.1428571428571428
 40
0.1428571428571428
 40
0.1428571428571428
 40
0.2142857142857143
 40
0.2142857142857143
 40
0.2142857142857143
 40
0.2857142857142857
 40
0.2857142857142857
 40
0.2857142857142857
 40
0.3571428571428571
 40
0.3571428571428571
 40
0.3571428571428571
 40
0.4285714285714285
 40
0.4285714285714285
 40
0.4285714285714285
 40
0.5
 40
0.5
 40
0.5
 40
0.5714285714285714
 40
0.5714285714285714
 40
0.5714285714285714
 40
0.6428571428571428
 40
0.6428571428571428
 40
0.6428571428571428
 40
0.7142857142857142
 40
0.7142857142857142
 40
0.7142857142857142
 40
0.7857142857142857
 40
0.7857142857142857
 40
0.7857142857142857
 40
0.8571428571428571
 40
0.8571428571428571
 40
0.8571428571428571
 40
0.9285714285714285
 40
0.9285714285714285
 40
0.9285714285714285
 40
1.0
 40
1.0
 40
1.0
 40
1.0
 10
26.68592
 20
12.32907
 30
0.0
 10
26.68592
 20
12.32907
 30
0.0
 10
27.08592
 20
12.32907
 30
0.0
 10
27.08592
 20
12.32907
 30
0.0
 10
27.08592
 20
12.32907
 30
0.0
 10
27.08592
 20
11.32907
 30
0.0
 10
27.08592
 20
11.32907
 30
0.0
 10
27.08592
 20
11.32907
 30
0.0
 10
27.48592
 20
11.32907
 30
0.0
 10
27.48592
 20
11.32907
 30
0.0
 10
27.48592
 20
11.32907
 30
0.0
 10
27.48592
 20
12.32907
 30
0.0
 10
27.48592
 20
12.32907
 30
0.0
 10
27.48592
 20
12.32907
 30
0.0
 10
29.88592
 20
12.32907
 30
0.0
 10
29.88592
 20
12.32907
 30
0.0
 10
29.88592
 20
12.32907
 30
0.0
 10
29.88592
 20
11.32907
 30
0.0
 10
29.88592
 20
11.32907
 30
0.0
 10
29.88592
 20
11.32907
 30
0.0
 10
30.28592
 20
11.32907
 30
0.0
 10
30.28592
 20
11.32907
 30
0.0
 10
30.28592
 20
11.32907
 30
0.0
 10
30.28592
 20
12.32907
 30
0.0
 10
30.28592
 20
12.32907
 30
0.0
 10
30.28592
 20
12.32907
 30
0.0
 10
30.68592
 20
12.32907
 30
0.0
 10
30.68592
 20
12.32907
 30
0.0
 10
30.68592
 20
12.32907
 30
0.0
 10
30.68592
 20
10.02907
 30
0.0
 10
30.68592
 20
10.02907
 30
0.0
 10
30.68592
 20
9.91907
 30
0.0
 10
30.59592
 20
9.82907
 30
0.0
 10
30.48592
 20
9.82907
 30
0.0
 10
30.48592
 20
9.82907
 30
0.0
 10
26.88592
 20
9.82907
 30
0.0
 10
26.88592
 20
9.82907
 30
0.0
 10
26.77592
 20
9.82907
 30
0.0
 10
26.68592
 20
9.91907
 30
0.0
 10
26.68592
 20
10.02907
 30
0.0
 10
26.68592
 20
10.02907
 30
0.0
 10
26.68592
 20
12.32907
 30
0.0
 10
26.68592
 20
12.32907
 30
0.0
  0
SPLINE
  5
81
330
1F
100
AcDbEntity
  8
Layer 1
 62
   250
370
     9
100
AcDbSpline
210
0.0
220
0.0
230
1.0
 70
    11
 71
     3
 72
    47
 73
    43
 74
     0
 42
0.0000000001
 43
0.0000000001
 40
0.0
 40
0.0
 40
0.0
 40
0.0
 40
0.0714285714285714
 40
0.0714285714285714
 40
0.0714285714285714
 40
0.1428571428571428
 40
0.1428571428571428
 40
0.1428571428571428
 40
0.2142857142857143
 40
0.2142857142857143
 40
0.2142857142857143
 40
0.2857142857142857
 40
0.2857142857142857
 40
0.2857142857142857
 40
0.3571428571428571
 40
0.3571428571428571
 40
0.3571428571428571
 40
0.4285714285714285
 40
0.4285714285714285
 40
0.4285714285714285
 40
0.5
 40
0.5
 40
0.5
 40
0.5714285714285714
 40
0.5714285714285714
 40
0.5714285714285714
 40
0.6428571428571428
 40
0.6428571428571428
 40
0.6428571428571428
 40
0.7142857142857142
 40
0.7142857142857142
 40
0.7142857142857142
 40
0.7857142857142857
 40
0.7857142857142857
 40
0.7857142857142857
 40
0.8571428571428571
 40
0.8571428571428571
 40
0.8571428571428571
 40
0.9285714285714285
 40
0.9285714285714285
 40
0.9285714285714285
 40
1.0
 40
1.0
 40
1.0
 40
1.0
 10
26.68592
 20
9.32907
 30
0.0
 10
26.68592
 20
9.32907
 30
0.0
 10
27.08592
 20
9.32907
 30
0.0
 10
27.08592
 20
9.32907
 30
0.0
 10
27.08592
 20
9.32907
 30
0.0
 10
27.08592
 20
8.32907
 30
0.0
 10
27.08592
 20
8.32907
 30
0.0
 10
27.08592
 20
8.32907
 30
0.0
 10
27.48592
 20
8.32907
 30
0.0
 10
27.48592
 20
8.32907
 30
0.0
 10
27.48592
 20
8.32907
 30
0.0
 10
27.48592
 20
9.32907
 30
0.0
 10
27.48592
 20
9.32907
 30
0.0
 10
27.48592
 20
9.32907
 30
0.0
 10
29.88592
 20
9.32907
 30
0.0
 10
29.88592
 20
9.32907
 30
0.0
 10
29.88592
 20
9.32907
 30
0.0
 10
29.88592
 20
8.32907
 30
0.0
 10
29.88592
 20
8.32907
 30
0.0
 10
29.88592
 20
8.32907
 30
0.0
 10
30.28592
 20
8.32907
 30
0.0
 10
30.28592
 20
8.32907
 30
0.0
 10
30.28592
 20
8.32907
 30
0.0
 10
30.28592
 20
9.32907
 30
0.0
 10
30.28592
 20
9.32907
 30
0.0
 10
30.28592
 20
9.32907
 30
0.0
 10
30.68592
 20
9.32907
 30
0.0
 10
30.68592
 20
9.32907
 30
0.0
 10
30.68592
 20
9.32907
 30
0.0
 10
30.68592
 20
7.02907
 30
0.0
 10
30.68592
 20
7.02907
 30
0.0
 10
30.68592
 20
6.91907
 30
0.0
 10
30.59592
 20
6.82907
 30
0.0
 10
30.48592
 20
6.82907
 30
0.0
 10
30.48592
 20
6.82907
 30
0.0
 10
26.88592
 20
6.82907
 30
0.0
 10
26.88592
 20
6.82907
 30
0.0
 10
26.77592
 20
6.82907
 30
0.0
 10
26.68592
 20
6.91907
 30
0.0
 10
26.68592
 20
7.02907
 30
0.0
 10
26.68592
 20
7.02907
 30
0.0
 10
26.68592
 20
9.32907
 30
0.0
 10
26.68592
 20
9.32907
 30
0.0
  0
SPLINE
  5
82
330
1F
100
AcDbEntity
  8
Layer 1
 62
   250
370
     9
100
AcDbSpline
210
0.0
220
0.0
230
1.0
 70
    11
 71
     3
 72
    47
 73
    43
 74
     0
 42
0.0000000001
 43
0.0000000001
 40
0.0
 40
0.0
 40
0.0
 40
0.0
 40
0.0714285714285714
 40
0.0714285714285714
 40
0.0714285714285714
 40
0.1428571428571428
 40
0.1428571428571428
 40
0.1428571428571428
 40
0.2142857142857143
 40
0.2142857142857143
 40
0.2142857142857143
 40
0.2857142857142857
 40
0.2857142857142857
 40
0.2857142857142857
 40
0.3571428571428571
 40
0.3571428571428571
 40
0.3571428571428571
 40
0.4285714285714285
 40
0.4285714285714285
 40
0.4285714285714285
 40
0.5
 40
0.5
 40
0.5
 40
0.5714285714285714
 40
0.5714285714285714
 40
0.5714285714285714
 40
0.6428571428571428
 40
0.6428571428571428
 40
0.6428571428571428
 40
0.7142857142857142
 40
0.7142857142857142
 40
0.7142857142857142
 40
0.7857142857142857
 40
0.7857142857142857
 40
0.7857142857142857
 40
0.8571428571428571
 40
0.8571428571428571
 40
0.8571428571428571
 40
0.9285714285714285
 40
0.9285714285714285
 40
0.9285714285714285
 40
1.0
 40
1.0
 40
1.0
 40
1.0
 10
26.68592
 20
6.32907
 30
0.0
 10
26.68592
 20
6.32907
 30
0.0
 10
27.08592
 20
6.32907
 30
0.0
 10
27.08592
 20
6.32907
 30
0.0
 10
27.08592
 20
6.32907
 30
0.0
 10
27.08592
 20
5.32907
 30
0.0
 10
27.08592
 20
5.32907
 30
0.0
 10
27.08592
 20
5.32907
 30
0.0
 10
27.48592
 20
5.32907
 30
0.0
 10
27.48592
 20
5.32907
 30
0.0
 10
27.48592
 20
5.32907
 30
0.0
 10
27.48592
 20
6.32907
 30
0.0
 10
27.48592
 20
6.32907
 30
0.0
 10
27.48592
 20
6.32907
 30
0.0
 10
29.88592
 20
6.32907
 30
0.0
 10
29.88592
 20
6.32907
 30
0.0
 10
29.88592
 20
6.32907
 30
0.0
 10
29.88592
 20
5.32907
 30
0.0
 10
29.88592
 20
5.32907
 30
0.0
 10
29.88592
 20
5.32907
 30
0.0
 10
30.28592
 20
5.32907
 30
0.0
 10
30.28592
 20
5.32907
 30
0.0
 10
30.28592
 20
5.32907
 30
0.0
 10
30.28592
 20
6.32907
 30
0.0
 10
30.28592
 20
6.32907
 30
0.0
 10
30.28592
 20
6.32907
 30
0.0
 10
30.68592
 20
6.32907
 30
0.0
 10
30.68592
 20
6.32907
 30
0.0
 10
30.68592
 20
6.32907
 30
0.0
 10
30.68592
 20
4.02907
 30
0.0
 10
30.68592
 20
4.02907
 30
0.0
 10
30.68592
 20
3.91907
 30
0.0
 10
30.59592
 20
3.82907
 30
0.0
 10
30.48592
 20
3.82907
 30
0.0
 10
30.48592
 20
3.82907
 30
0.0
 10
26.88592
 20
3.82907
 30
0.0
 10
26.88592
 20
3.82907
 30
0.0
 10
26.77592
 20
3.82907
 30
0.0
 10
26.68592
 20
3.91907
 30
0.0
 10
26.68592
 20
4.02907
 30
0.0
 10
26.68592
 20
4.02907
 30
0.0
 10
26.68592
 20
6.32907
 30
0.0
 10
26.68592
 20
6.32907
 30
0.0
  0
SPLINE
  5
83
330
1F
100
AcDbEntity
  8
Layer 1
 62
   250
370
     9
100
AcDbSpline
210
0.0
220
0.0
230
1.0
 70
    11
 71
     3
 72
    47
 73
    43
 74
     0
 42
0.0000000001
 43
0.0000000001
 40
0.0
 40
0.0
 40
0.0
 40
0.0
 40
0.0714285714285714
 40
0.0714285714285714
 40
0.0714285714285714
 40
0.1428571428571428
 40
0.1428571428571428
 40
0.1428571428571428
 40
0.2142857142857143
 40
0.2142857142857143
 40
0.2142857142857143
 40
0.2857142857142857
 40
0.2857142857142857
 40
0.2857142857142857
 40
0.3571428571428571
 40
0.3571428571428571
 40
0.3571428571428571
 40
0.4285714285714285
 40
0.4285714285714285
 40
0.4285714285714285
 40
0.5
 40
0.5
 40
0.5
 40
0.5714285714285714
 40
0.5714285714285714
 40
0.5714285714285714
 40
0.6428571428571428
 40
0.6428571428571428
 40
0.6428571428571428
 40
0.7142857142857142
 40
0.7142857142857142
 40
0.7142857142857142
 40
0.7857142857142857
 40
0.7857142857142857
 40
0.7857142857142857
 40
0.8571428571428571
 40
0.8571428571428571
 40
0.8571428571428571
 40
0.9285714285714285
 40
0.9285714285714285
 40
0.9285714285714285
 40
1.0
 40
1.0
 40
1.0
 40
1.0
 10
26.68592
 20
3.32907
 30
0.0
 10
26.68592
 20
3.32907
 30
0.0
 10
27.08592
 20
3.32907
 30
0.0
 10
27.08592
 20
3.32907
 30
0.0
 10
27.08592
 20
3.32907
 30
0.0
 10
27.08592
 20
2.32907
 30
0.0
 10
27.08592
 20
2.32907
 30
0.0
 10
27.08592
 20
2.32907
 30
0.0
 10
27.48592
 20
2.32907
 30
0.0
 10
27.48592
 20
2.32907
 30
0.0
 10
27.48592
 20
2.32907
 30
0.0
 10
27.48592
 20
3.32907
 30
0.0
 10
27.48592
 20
3.32907
 30
0.0
 10
27.48592
 20
3.32907
 30
0.0
 10
29.88592
 20
3.32907
 30
0.0
 10
29.88592
 20
3.32907
 30
0.0
 10
29.88592
 20
3.32907
 30
0.0
 10
29.88592
 20
2.32907
 30
0.0
 10
29.88592
 20
2.32907
 30
0.0
 10
29.88592
 20
2.32907
 30
0.0
 10
30.28592
 20
2.32907
 30
0.0
 10
30.28592
 20
2.32907
 30
0.0
 10
30.28592
 20
2.32907
 30
0.0
 10
30.28592
 20
3.32907
 30
0.0
 10
30.28592
 20
3.32907
 30
0.0
 10
30.28592
 20
3.32907
 30
0.0
 10
30.68592
 20
3.32907
 30
0.0
 10
30.68592
 20
3.32907
 30
0.0
 10
30.68592
 20
3.32907
 30
0.0
 10
30.68592
 20
1.02907
 30
0.0
 10
30.68592
 20
1.02907
 30
0.0
 10
30.68592
 20
0.91907
 30
0.0
 10
30.59592
 20
0.82907
 30
0.0
 10
30.48592
 20
0.82907
 30
0.0
 10
30.48592
 20
0.82907
 30
0.0
 10
26.88592
 20
0.82907
 30
0.0
 10
26.88592
 20
0.82907
 30
0.0
 10
26.77592
 20
0.82907
 30
0.0
 10
26.68592
 20
0.91907
 30
0.0
 10
26.68592
 20
1.02907
 30
0.0
 10
26.68592
 20
1.02907
 30
0.0
 10
26.68592
 20
3.32907
 30
0.0
 10
26.68592
 20
3.32907
 30
0.0
  0
SPLINE
  5
84
330
1F
100
AcDbEntity
  8
Layer 1
 62
   250
370
     9
100
AcDbSpline
210
0.0
220
0.0
230
1.0
 70
    11
 71
     3
 72
    47
 73
    43
 74
     0
 42
0.0000000001
 43
0.0000000001
 40
0.0
 40
0.0
 40
0.0
 40
0.0
 40
0.0714285714285714
 40
0.0714285714285714
 40
0.0714285714285714
 40
0.1428571428571428
 40
0.1428571428571428
 40
0.1428571428571428
 40
0.2142857142857143
 40
0.2142857142857143
 40
0.2142857142857143
 40
0.2857142857142857
 40
0.2857142857142857
 40
0.2857142857142857
 40
0.3571428571428571
 40
0.3571428571428571
 40
0.3571428571428571
 40
0.4285714285714285
 40
0.4285714285714285
 40
0.4285714285714285
 40
0.5
 40
0.5
 40
0.5
 40
0.5714285714285714
 40
0.5714285714285714
 40
0.5714285714285714
 40
0.6428571428571428
 40
0.6428571428571428
 40
0.6428571428571428
 40
0.7142857142857142
 40
0.7142857142857142
 40
0.7142857142857142
 40
0.7857142857142857
 40
0.7857142857142857
 40
0.7857142857142857
 40
0.8571428571428571
 40
0.8571428571428571
 40
0.8571428571428571
 40
0.9285714285714285
 40
0.9285714285714285
 40
0.9285714285714285
 40
1.0
 40
1.0
 40
1.0
 40
1.0
 10
26.68592
 20
0.32907
 30
0.0
 10
26.68592
 20
0.32907
 30
0.0
 10
27.08592
 20
0.32907
 30
0.0
 10
27.08592
 20
0.32907
 30
0.0
 10
27.08592
 20
0.32907
 30
0.0
 10
27.08592
 20
-0.67093
 30
0.0
 10
27.08592
 20
-0.67093
 30
0.0
 10
27.08592
 20
-0.67093
 30
0.0
 10
27.48592
 20
-0.67093
 30
0.0
 10
27.48592
 20
-0.67093
 30
0.0
 10
27.48592
 20
-0.67093
 30
0.0
 10
27.48592
 20
0.32907
 30
0.0
 10
27.48592
 20
0.32907
 30
0.0
 10
27.48592
 20
0.32907
 30
0.0
 10
29.88592
 20
0.32907
 30
0.0
 10
29.88592
 20
0.32907
 30
0.0
 10
29.88592
 20
0.32907
 30
0.0
 10
29.88592
 20
-0.67093
 30
0.0
 10
29.88592
 20
-0.67093
 30
0.0
 10
29.88592
 20
-0.67093
 30
0.0
 10
30.28592
 20
-0.67093
 30
0.0
 10
30.28592
 20
-0.67093
 30
0.0
 10
30.28592
 20
-0.67093
 30
0.0
 10
30.28592
 20
0.32907
 30
0.0
 10
30.28592
 20
0.32907
 30
0.0
 10
30.28592
 20
0.32907
 30
0.0
 10
30.68592
 20
0.32907
 30
0.0
 10
30.68592
 20
0.32907
 30
0.0
 10
30.68592
 20
0.32907
 30
0.0
 10
30.68592
 20
-1.97093
 30
0.0
 10
30.68592
 20
-1.97093
 30
0.0
 10
30.68592
 20
-2.08093
 30
0.0
 10
30.59592
 20
-2.17093
 30
0.0
 10
30.48592
 20
-2.17093
 30
0.0
 10
30.48592
 20
-2.17093
 30
0.0
 10
26.88592
 20
-2.17093
 30
0.0
 10
26.88592
 20
-2.17093
 30
0.0
 10
26.77592
 20
-2.17093
 30
0.0
 10
26.68592
 20
-2.08093
 30
0.0
 10
26.68592
 20
-1.97093
 30
0.0
 10
26.68592
 20
-1.97093
 30
0.0
 10
26.68592
 20
0.32907
 30
0.0
 10
26.68592
 20
0.32907
 30
0.0
  0
SPLINE
  5
85
330
1F
100
AcDbEntity
  8
Layer 1
 62
   250
370
     9
100
AcDbSpline
210
0.0
220
0.0
230
1.0
 70
    11
 71
     3
 72
    47
 73
    43
 74
     0
 42
0.0000000001
 43
0.0000000001
 40
0.0
 40
0.0
 40
0.0
 40
0.0
 40
0.0714285714285714
 40
0.0714285714285714
 40
0.0714285714285714
 40
0.1428571428571428
 40
0.1428571428571428
 40
0.1428571428571428
 40
0.2142857142857143
 40
0.2142857142857143
 40
0.2142857142857143
 40
0.2857142857142857
 40
0.2857142857142857
 40
0.2857142857142857
 40
0.3571428571428571
 40
0.3571428571428571
 40
0.3571428571428571
 40
0.4285714285714285
 40
0.4285714285714285
 40
0.4285714285714285
 40
0.5
 40
0.5
 40
0.5
 40
0.5714285714285714
 40
0.5714285714285714
 40
0.5714285714285714
 40
0.6428571428571428
 40
0.6428571428571428
 40
0.6428571428571428
 40
0.7142857142857142
 40
0.7142857142857142
 40
0.7142857142857142
 40
0.7857142857142857
 40
0.7857142857142857
 40
0.7857142857142857
 40
0.8571428571428571
 40
0.8571428571428571
 40
0.8571428571428571
 40
0.9285714285714285
 40
0.9285714285714285
 40
0.9285714285714285
 40
1.0
 40
1.0
 40
1.0
 40
1.0
 10
26.68592
 20
-2.67093
 30
0.0
 10
26.68592
 20
-2.67093
 30
0.0
 10
27.08592
 20
-2.67093
 30
0.0
 10
27.08592
 20
-2.67093
 30
0.0
 10
27.08592
 20
-2.67093
 30
0.0
 10
27.08592
 20
-3.67093
 30
0.0
 10
27.08592
 20
-3.67093
 30
0.0
 10
27.08592
 20
-3.67093
 30
0.0
 10
27.48592
 20
-3.67093
 30
0.0
 10
27.48592
 20
-3.67093
 30
0.0
 10
27.48592
 20
-3.67093
 30
0.0
 10
27.48592
 20
-2.67093
 30
0.0
 10
27.48592
 20
-2.67093
 30
0.0
 10
27.48592
 20
-2.67093
 30
0.0
 10
29.88592
 20
-2.67093
 30
0.0
 10
29.88592
 20
-2.67093
 30
0.0
 10
29.88592
 20
-2.67093
 30
0.0
 10
29.88592
 20
-3.67093
 30
0.0
 10
29.88592
 20
-3.67093
 30
0.0
 10
29.88592
 20
-3.67093
 30
0.0
 10
30.28592
 20
-3.67093
 30
0.0
 10
30.28592
 20
-3.67093
 30
0.0
 10
30.28592
 20
-3.67093
 30
0.0
 10
30.28592
 20
-2.67093
 30
0.0
 10
30.28592
 20
-2.67093
 30
0.0
 10
30.28592
 20
-2.67093
 30
0.0
 10
30.68592
 20
-2.67093
 30
0.0
 10
30.68592
 20
-2.67093
 30
0.0
 10
30.68592
 20
-2.67093
 30
0.0
 10
30.68592
 20
-4.97093
 30
0.0
 10
30.68592
 20
-4.97093
 30
0.0
 10
30.68592
 20
-5.08093
 30
0.0
 10
30.59592
 20
-5.17093
 30
0.0
 10
30.48592
 20
-5.17093
 30
0.0
 10
30.48592
 20
-5.17093
 30
0.0
 10
26.88592
 20
-5.17093
 30
0.0
 10
26.88592
 20
-5.17093
 30
0.0
 10
26.77592
 20
-5.17093
 30
0.0
 10
26.68592
 20
-5.08093
 30
0.0
 10
26.68592
 20
-4.97093
 30
0.0
 10
26.68592
 20
-4.97093
 30
0.0
 10
26.68592
 20
-2.67093
 30
0.0
 10
26.68592
 20
-2.67093
 30
0.0
  0
SPLINE
  5
86
330
1F
100
AcDbEntity
  8
Layer 1
 62
   250
370
     9
100
AcDbSpline
210
0.0
220
0.0
230
1.0
 70
    11
 71
     3
 72
    47
 73
    43
 74
     0
 42
0.0000000001
 43
0.0000000001
 40
0.0
 40
0.0
 40
0.0
 40
0.0
 40
0.0714285714285714
 40
0.0714285714285714
 40
0.0714285714285714
 40
0.1428571428571428
 40
0.1428571428571428
 40
0.1428571428571428
 40
0.2142857142857143
 40
0.2142857142857143
 40
0.2142857142857143
 40
0.2857142857142857
 40
0.2857142857142857
 40
0.2857142857142857
 40
0.3571428571428571
 40
0.3571428571428571
 40
0.3571428571428571
 40
0.4285714285714285
 40
0.4285714285714285
 40
0.4285714285714285
 40
0.5
 40
0.5
 40
0.5
 40
0.5714285714285714
 40
0.5714285714285714
 40
0.5714285714285714
 40
0.6428571428571428
 40
0.6428571428571428
 40
0.6428571428571428
 40
0.7142857142857142
 40
0.7142857142857142
 40
0.7142857142857142
 40
0.7857142857142857
 40
0.7857142857142857
 40
0.7857142857142857
 40
0.8571428571428571
 40
0.8571428571428571
 40
0.8571428571428571
 40
0.9285714285714285
 40
0.9285714285714285
 40
0.9285714285714285
 40
1.0
 40
1.0
 40
1.0
 40
1.0
 10
26.68592
 20
-5.67093
 30
0.0
 10
26.68592
 20
-5.67093
 30
0.0
 10
27.08592
 20
-5.67093
 30
0.0
 10
27.08592
 20
-5.67093
 30
0.0
 10
27.08592
 20
-5.67093
 30
0.0
 10
27.08592
 20
-6.67093
 30
0.0
 10
27.08592
 20
-6.67093
 30
0.0
 10
27.08592
 20
-6.67093
 30
0.0
 10
27.48592
 20
-6.67093
 30
0.0
 10
27.48592
 20
-6.67093
 30
0.0
 10
27.48592
 20
-6.67093
 30
0.0
 10
27.48592
 20
-5.67093
 30
0.0
 10
27.48592
 20
-5.67093
 30
0.0
 10
27.48592
 20
-5.67093
 30
0.0
 10
29.88592
 20
-5.67093
 30
0.0
 10
29.88592
 20
-5.67093
 30
0.0
 10
29.88592
 20
-5.67093
 30
0.0
 10
29.88592
 20
-6.67093
 30
0.0
 10
29.88592
 20
-6.67093
 30
0.0
 10
29.88592
 20
-6.67093
 30
0.0
 10
30.28592
 20
-6.67093
 30
0.0
 10
30.28592
 20
-6.67093
 30
0.0
 10
30.28592
 20
-6.67093
 30
0.0
 10
30.28592
 20
-5.67093
 30
0.0
 10
30.28592
 20
-5.67093
 30
0.0
 10
30.28592
 20
-5.67093
 30
0.0
 10
30.68592
 20
-5.67093
 30
0.0
 10
30.68592
 20
-5.67093
 30
0.0
 10
30.68592
 20
-5.67093
 30
0.0
 10
30.68592
 20
-7.97093
 30
0.0
 10
30.68592
 20
-7.97093
 30
0.0
 10
30.68592
 20
-8.08093
 30
0.0
 10
30.59592
 20
-8.17093
 30
0.0
 10
30.48592
 20
-8.17093
 30
0.0
 10
30.48592
 20
-8.17093
 30
0.0
 10
26.88592
 20
-8.17093
 30
0.0
 10
26.88592
 20
-8.17093
 30
0.0
 10
26.77592
 20
-8.17093
 30
0.0
 10
26.68592
 20
-8.08093
 30
0.0
 10
26.68592
 20
-7.97093
 30
0.0
 10
26.68592
 20
-7.97093
 30
0.0
 10
26.68592
 20
-5.67093
 30
0.0
 10
26.68592
 20
-5.67093
 30
0.0
  0
SPLINE
  5
87
330
1F
100
AcDbEntity
  8
Layer 1
 62
   250
370
     9
100
AcDbSpline
210
0.0
220
0.0
230
1.0
 70
    11
 71
     3
 72
    47
 73
    43
 74
     0
 42
0.0000000001
 43
0.0000000001
 40
0.0
 40
0.0
 40
0.0
 40
0.0
 40
0.0714285714285714
 40
0.0714285714285714
 40
0.0714285714285714
 40
0.1428571428571428
 40
0.1428571428571428
 40
0.1428571428571428
 40
0.2142857142857143
 40
0.2142857142857143
 40
0.2142857142857143
 40
0.2857142857142857
 40
0.2857142857142857
 40
0.2857142857142857
 40
0.3571428571428571
 40
0.3571428571428571
 40
0.3571428571428571
 40
0.4285714285714285
 40
0.4285714285714285
 40
0.4285714285714285
 40
0.5
 40
0.5
 40
0.5
 40
0.5714285714285714
 40
0.5714285714285714
 40
0.5714285714285714
 40
0.6428571428571428
 40
0.6428571428571428
 40
0.6428571428571428
 40
0.7142857142857142
 40
0.7142857142857142
 40
0.7142857142857142
 40
0.7857142857142857
 40
0.7857142857142857
 40
0.7857142857142857
 40
0.8571428571428571
 40
0.8571428571428571
 40
0.8571428571428571
 40
0.9285714285714285
 40
0.9285714285714285
 40
0.9285714285714285
 40
1.0
 40
1.0
 40
1.0
 40
1.0
 10
26.68592
 20
-8.67093
 30
0.0
 10
26.68592
 20
-8.67093
 30
0.0
 10
27.08592
 20
-8.67093
 30
0.0
 10
27.08592
 20
-8.67093
 30
0.0
 10
27.08592
 20
-8.67093
 30
0.0
 10
27.08592
 20
-9.67093
 30
0.0
 10
27.08592
 20
-9.67093
 30
0.0
 10
27.08592
 20
-9.67093
 30
0.0
 10
27.48592
 20
-9.67093
 30
0.0
 10
27.48592
 20
-9.67093
 30
0.0
 10
27.48592
 20
-9.67093
 30
0.0
 10
27.48592
 20
-8.67093
 30
0.0
 10
27.48592
 20
-8.67093
 30
0.0
 10
27.48592
 20
-8.67093
 30
0.0
 10
29.88592
 20
-8.67093
 30
0.0
 10
29.88592
 20
-8.67093
 30
0.0
 10
29.88592
 20
-8.67093
 30
0.0
 10
29.88592
 20
-9.67093
 30
0.0
 10
29.88592
 20
-9.67093
 30
0.0
 10
29.88592
 20
-9.67093
 30
0.0
 10
30.28592
 20
-9.67093
 30
0.0
 10
30.28592
 20
-9.67093
 30
0.0
 10
30.28592
 20
-9.67093
 30
0.0
 10
30.28592
 20
-8.67093
 30
0.0
 10
30.28592
 20
-8.67093
 30
0.0
 10
30.28592
 20
-8.67093
 30
0.0
 10
30.68592
 20
-8.67093
 30
0.0
 10
30.68592
 20
-8.67093
 30
0.0
 10
30.68592
 20
-8.67093
 30
0.0
 10
30.68592
 20
-10.97093
 30
0.0
 10
30.68592
 20
-10.97093
 30
0.0
 10
30.68592
 20
-11.08093
 30
0.0
 10
30.59592
 20
-11.17093
 30
0.0
 10
30.48592
 20
-11.17093
 30
0.0
 10
30.48592
 20
-11.17093
 30
0.0
 10
26.88592
 20
-11.17093
 30
0.0
 10
26.88592
 20
-11.17093
 30
0.0
 10
26.77592
 20
-11.17093
 30
0.0
 10
26.68592
 20
-11.08093
 30
0.0
 10
26.68592
 20
-10.97093
 30
0.0
 10
26.68592
 20
-10.97093
 30
0.0
 10
26.68592
 20
-8.67093
 30
0.0
 10
26.68592
 20
-8.67093
 30
0.0
  0
SPLINE
  5
88
330
1F
100
AcDbEntity
  8
Layer 1
 62
   250
370
     9
100
AcDbSpline
210
0.0
220
0.0
230
1.0
 70
    11
 71
     3
 72
    47
 73
    43
 74
     0
 42
0.0000000001
 43
0.0000000001
 40
0.0
 40
0.0
 40
0.0
 40
0.0
 40
0.0714285714285714
 40
0.0714285714285714
 40
0.0714285714285714
 40
0.1428571428571428
 40
0.1428571428571428
 40
0.1428571428571428
 40
0.2142857142857143
 40
0.2142857142857143
 40
0.2142857142857143
 40
0.2857142857142857
 40
0.2857142857142857
 40
0.2857142857142857
 40
0.3571428571428571
 40
0.3571428571428571
 40
0.3571428571428571
 40
0.4285714285714285
 40
0.4285714285714285
 40
0.4285714285714285
 40
0.5
 40
0.5
 40
0.5
 40
0.5714285714285714
 40
0.5714285714285714
 40
0.5714285714285714
 40
0.6428571428571428
 40
0.6428571428571428
 40
0.6428571428571428
 40
0.7142857142857142
 40
0.7142857142857142
 40
0.7142857142857142
 40
0.7857142857142857
 40
0.7857142857142857
 40
0.7857142857142857
 40
0.8571428571428571
 40
0.8571428571428571
 40
0.8571428571428571
 40
0.9285714285714285
 40
0.9285714285714285
 40
0.9285714285714285
 40
1.0
 40
1.0
 40
1.0
 40
1.0
 10
26.68592
 20
-11.67093
 30
0.0
 10
26.68592
 20
-11.67093
 30
0.0
 10
27.08592
 20
-11.67093
 30
0.0
 10
27.08592
 20
-11.67093
 30
0.0
 10
27.08592
 20
-11.67093
 30
0.0
 10
27.08592
 20
-12.67093
 30
0.0
 10
27.08592
 20
-12.67093
 30
0.0
 10
27.08592
 20
-12.67093
 30
0.0
 10
27.48592
 20
-12.67093
 30
0.0
 10
27.48592
 20
-12.67093
 30
0.0
 10
27.48592
 20
-12.67093
 30
0.0
 10
27.48592
 20
-11.67093
 30
0.0
 10
27.48592
 20
-11.67093
 30
0.0
 10
27.48592
 20
-11.67093
 30
0.0
 10
29.88592
 20
-11.67093
 30
0.0
 10
29.88592
 20
-11.67093
 30
0.0
 10
29.88592
 20
-11.67093
 30
0.0
 10
29.88592
 20
-12.67093
 30
0.0
 10
29.88592
 20
-12.67093
 30
0.0
 10
29.88592
 20
-12.67093
 30
0.0
 10
30.28592
 20
-12.67093
 30
0.0
 10
30.28592
 20
-12.67093
 30
0.0
 10
30.28592
 20
-12.67093
 30
0.0
 10
30.28592
 20
-11.67093
 30
0.0
 10
30.28592
 20
-11.67093
 30
0.0
 10
30.28592
 20
-11.67093
 30
0.0
 10
30.68592
 20
-11.67093
 30
0.0
 10
30.68592
 20
-11.67093
 30
0.0
 10
30.68592
 20
-11.67093
 30
0.0
 10
30.68592
 20
-13.97093
 30
0.0
 10
30.68592
 20
-13.97093
 30
0.0
 10
30.68592
 20
-14.08093
 30
0.0
 10
30.59592
 20
-14.17093
 30
0.0
 10
30.48592
 20
-14.17093
 30
0.0
 10
30.48592
 20
-14.17093
 30
0.0
 10
26.88592
 20
-14.17093
 30
0.0
 10
26.88592
 20
-14.17093
 30
0.0
 10
26.77592
 20
-14.17093
 30
0.0
 10
26.68592
 20
-14.08093
 30
0.0
 10
26.68592
 20
-13.97093
 30
0.0
 10
26.68592
 20
-13.97093
 30
0.0
 10
26.68592
 20
-11.67093
 30
0.0
 10
26.68592
 20
-11.67093
 30
0.0
  0
SPLINE
  5
89
330
1F
100
AcDbEntity
  8
Layer 1
 62
   250
370
     9
100
AcDbSpline
210
0.0
220
0.0
230
1.0
 70
    11
 71
     3
 72
    29
 73
    25
 74
     0
 42
0.0000000001
 43
0.0000000001
 40
0.0
 40
0.0
 40
0.0
 40
0.0
 40
0.125
 40
0.125
 40
0.125
 40
0.25
 40
0.25
 40
0.25
 40
0.375
 40
0.375
 40
0.375
 40
0.5
 40
0.5
 40
0.5
 40
0.625
 40
0.625
 40
0.625
 40
0.75
 40
0.75
 40
0.75
 40
0.875
 40
0.875
 40
0.875
 40
1.0
 40
1.0
 40
1.0
 40
1.0
 10
-24.95812
 20
-2.89166
 30
0.0
 10
-24.95812
 20
-2.89166
 30
0.0
 10
-24.95812
 20
-0.39166
 30
0.0
 10
-24.95812
 20
-0.39166
 30
0.0
 10
-24.95812
 20
-0.11666
 30
0.0
 10
-25.18312
 20
0.10834
 30
0.0
 10
-25.45812
 20
0.10834
 30
0.0
 10
-25.45812
 20
0.10834
 30
0.0
 10
-31.45811
 20
0.10834
 30
0.0
 10
-31.45811
 20
0.10834
 30
0.0
 10
-31.73311
 20
0.10834
 30
0.0
 10
-31.95812
 20
-0.11667
 30
0.0
 10
-31.95812
 20
-0.39166
 30
0.0
 10
-31.95812
 20
-0.39166
 30
0.0
 10
-31.95812
 20
-2.89166
 30
0.0
 10
-31.95812
 20
-2.89166
 30
0.0
 10
-31.95812
 20
-3.16665
 30
0.0
 10
-31.73312
 20
-3.39166
 30
0.0
 10
-31.45811
 20
-3.39166
 30
0.0
 10
-31.45811
 20
-3.39166
 30
0.0
 10
-25.45812
 20
-3.39166
 30
0.0
 10
-25.45812
 20
-3.39166
 30
0.0
 10
-25.18311
 20
-3.39166
 30
0.0
 10
-24.95812
 20
-3.16666
 30
0.0
 10
-24.95812
 20
-2.89166
 30
0.0
  0
SPLINE
  5
8A
330
1F
100
AcDbEntity
  8
Layer 1
 62
   250
370
     9
100
AcDbSpline
210
0.0
220
0.0
230
1.0
 70
    11
 71
     3
 72
    17
 73
    13
 74
     0
 42
0.0000000001
 43
0.0000000001
 40
0.0
 40
0.0
 40
0.0
 40
0.0
 40
0.25
 40
0.25
 40
0.25
 40
0.5
 40
0.5
 40
0.5
 40
0.75
 40
0.75
 40
0.75
 40
1.0
 40
1.0
 40
1.0
 40
1.0
 10
-16.92466
 20
-6.74165
 30
0.0
 10
-16.92466
 20
-6.74165
 30
0.0
 10
-16.92466
 20
-6.34165
 30
0.0
 10
-16.92466
 20
-6.34165
 30
0.0
 10
-16.92466
 20
-6.34165
 30
0.0
 10
-19.92466
 20
-6.34165
 30
0.0
 10
-19.92466
 20
-6.34165
 30
0.0
 10
-19.92466
 20
-6.34165
 30
0.0
 10
-19.92466
 20
-6.74165
 30
0.0
 10
-19.92466
 20
-6.74165
 30
0.0
 10
-19.92466
 20
-6.74165
 30
0.0
 10
-16.92466
 20
-6.74165
 30
0.0
 10
-16.92466
 20
-6.74165
 30
0.0
  0
SPLINE
  5
8B
330
1F
100
AcDbEntity
  8
Layer 1
 62
   250
370
     9
100
AcDbSpline
210
0.0
220
0.0
230
1.0
 70
    11
 71
     3
 72
    29
 73
    25
 74
     0
 42
0.0000000001
 43
0.0000000001
 40
0.0
 40
0.0
 40
0.0
 40
0.0
 40
0.125
 40
0.125
 40
0.125
 40
0.25
 40
0.25
 40
0.25
 40
0.375
 40
0.375
 40
0.375
 40
0.5
 40
0.5
 40
0.5
 40
0.625
 40
0.625
 40
0.625
 40
0.75
 40
0.75
 40
0.75
 40
0.875
 40
0.875
 40
0.875
 40
1.0
 40
1.0
 40
1.0
 40
1.0
 10
-24.95812
 20
1.00834
 30
0.0
 10
-24.95812
 20
1.00834
 30
0.0
 10
-24.95812
 20
3.50834
 30
0.0
 10
-24.95812
 20
3.50834
 30
0.0
 10
-24.95812
 20
3.78334
 30
0.0
 10
-25.18312
 20
4.00834
 30
0.0
 10
-25.45812
 20
4.00834
 30
0.0
 10
-25.45812
 20
4.00834
 30
0.0
 10
-31.45811
 20
4.00834
 30
0.0
 10
-31.45811
 20
4.00834
 30
0.0
 10
-31.73311
 20
4.00834
 30
0.0
 10
-31.95812
 20
3.78333
 30
0.0
 10
-31.95812
 20
3.50834
 30
0.0
 10
-31.95812
 20
3.50834
 30
0.0
 10
-31.95812
 20
1.00834
 30
0.0
 10
-31.95812
 20
1.00834
 30
0.0
 10
-31.95812
 20
0.73335
 30
0.0
 10
-31.73312
 20
0.50834
 30
0.0
 10
-31.45811
 20
0.50834
 30
0.0
 10
-31.45811
 20
0.50834
 30
0.0
 10
-25.45812
 20
0.50834
 30
0.0
 10
-25.45812
 20
0.50834
 30
0.0
 10
-25.18311
 20
0.50834
 30
0.0
 10
-24.95812
 20
0.73334
 30
0.0
 10
-24.95812
 20
1.00834
 30
0.0
  0
SPLINE
  5
8C
330
1F
100
AcDbEntity
  8
Layer 1
 62
   250
370
     9
100
AcDbSpline
210
0.0
220
0.0
230
1.0
 70
    11
 71
     3
 72
    29
 73
    25
 74
     0
 42
0.0000000001
 43
0.0000000001
 40
0.0
 40
0.0
 40
0.0
 40
0.0
 40
0.125
 40
0.125
 40
0.125
 40
0.25
 40
0.25
 40
0.25
 40
0.375
 40
0.375
 40
0.375
 40
0.5
 40
0.5
 40
0.5
 40
0.625
 40
0.625
 40
0.625
 40
0.75
 40
0.75
 40
0.75
 40
0.875
 40
0.875
 40
0.875
 40
1.0
 40
1.0
 40
1.0
 40
1.0
 10
-24.95812
 20
4.90834
 30
0.0
 10
-24.95812
 20
4.90834
 30
0.0
 10
-24.95812
 20
7.40834
 30
0.0
 10
-24.95812
 20
7.40834
 30
0.0
 10
-24.95812
 20
7.68334
 30
0.0
 10
-25.18312
 20
7.90834
 30
0.0
 10
-25.45812
 20
7.90834
 30
0.0
 10
-25.45812
 20
7.90834
 30
0.0
 10
-31.45811
 20
7.90834
 30
0.0
 10
-31.45811
 20
7.90834
 30
0.0
 10
-31.73311
 20
7.90834
 30
0.0
 10
-31.95812
 20
7.68333
 30
0.0
 10
-31.95812
 20
7.40834
 30
0.0
 10
-31.95812
 20
7.40834
 30
0.0
 10
-31.95812
 20
4.90834
 30
0.0
 10
-31.95812
 20
4.90834
 30
0.0
 10
-31.95812
 20
4.63335
 30
0.0
 10
-31.73312
 20
4.40834
 30
0.0
 10
-31.45811
 20
4.40834
 30
0.0
 10
-31.45811
 20
4.40834
 30
0.0
 10
-25.45812
 20
4.40834
 30
0.0
 10
-25.45812
 20
4.40834
 30
0.0
 10
-25.18311
 20
4.40834
 30
0.0
 10
-24.95812
 20
4.63334
 30
0.0
 10
-24.95812
 20
4.90834
 30
0.0
  0
SPLINE
  5
8D
330
1F
100
AcDbEntity
  8
Layer 1
 62
   250
370
     9
100
AcDbSpline
210
0.0
220
0.0
230
1.0
 70
    11
 71
     3
 72
    29
 73
    25
 74
     0
 42
0.0000000001
 43
0.0000000001
 40
0.0
 40
0.0
 40
0.0
 40
0.0
 40
0.125
 40
0.125
 40
0.125
 40
0.25
 40
0.25
 40
0.25
 40
0.375
 40
0.375
 40
0.375
 40
0.5
 40
0.5
 40
0.5
 40
0.625
 40
0.625
 40
0.625
 40
0.75
 40
0.75
 40
0.75
 40
0.875
 40
0.875
 40
0.875
 40
1.0
 40
1.0
 40
1.0
 40
1.0
 10
-7.55812
 20
-2.89166
 30
0.0
 10
-7.55812
 20
-2.89166
 30
0.0
 10
-7.55812
 20
-0.39166
 30
0.0
 10
-7.55812
 20
-0.39166
 30
0.0
 10
-7.55812
 20
-0.11666
 30
0.0
 10
-7.78314
 20
0.10834
 30
0.0
 10
-8.05812
 20
0.10834
 30
0.0
 10
-8.05812
 20
0.10834
 30
0.0
 10
-14.05811
 20
0.10834
 30
0.0
 10
-14.05811
 20
0.10834
 30
0.0
 10
-14.33309
 20
0.10834
 30
0.0
 10
-14.55812
 20
-0.11669
 30
0.0
 10
-14.55812
 20
-0.39166
 30
0.0
 10
-14.55812
 20
-0.39166
 30
0.0
 10
-14.55812
 20
-2.89166
 30
0.0
 10
-14.55812
 20
-2.89166
 30
0.0
 10
-14.55812
 20
-3.16663
 30
0.0
 10
-14.33312
 20
-3.39166
 30
0.0
 10
-14.05811
 20
-3.39166
 30
0.0
 10
-14.05811
 20
-3.39166
 30
0.0
 10
-8.05812
 20
-3.39166
 30
0.0
 10
-8.05812
 20
-3.39166
 30
0.0
 10
-7.78311
 20
-3.39166
 30
0.0
 10
-7.55812
 20
-3.16666
 30
0.0
 10
-7.55812
 20
-2.89166
 30
0.0
  0
SPLINE
  5
8E
330
1F
100
AcDbEntity
  8
Layer 1
 62
   250
370
     9
100
AcDbSpline
210
0.0
220
0.0
230
1.0
 70
    11
 71
     3
 72
    29
 73
    25
 74
     0
 42
0.0000000001
 43
0.0000000001
 40
0.0
 40
0.0
 40
0.0
 40
0.0
 40
0.125
 40
0.125
 40
0.125
 40
0.25
 40
0.25
 40
0.25
 40
0.375
 40
0.375
 40
0.375
 40
0.5
 40
0.5
 40
0.5
 40
0.625
 40
0.625
 40
0.625
 40
0.75
 40
0.75
 40
0.75
 40
0.875
 40
0.875
 40
0.875
 40
1.0
 40
1.0
 40
1.0
 40
1.0
 10
-7.55812
 20
1.00834
 30
0.0
 10
-7.55812
 20
1.00834
 30
0.0
 10
-7.55812
 20
3.50834
 30
0.0
 10
-7.55812
 20
3.50834
 30
0.0
 10
-7.55812
 20
3.78334
 30
0.0
 10
-7.78314
 20
4.00834
 30
0.0
 10
-8.05812
 20
4.00834
 30
0.0
 10
-8.05812
 20
4.00834
 30
0.0
 10
-14.05811
 20
4.00834
 30
0.0
 10
-14.05811
 20
4.00834
 30
0.0
 10
-14.33309
 20
4.00834
 30
0.0
 10
-14.55812
 20
3.78331
 30
0.0
 10
-14.55812
 20
3.50834
 30
0.0
 10
-14.55812
 20
3.50834
 30
0.0
 10
-14.55812
 20
1.00834
 30
0.0
 10
-14.55812
 20
1.00834
 30
0.0
 10
-14.55812
 20
0.73337
 30
0.0
 10
-14.33312
 20
0.50834
 30
0.0
 10
-14.05811
 20
0.50834
 30
0.0
 10
-14.05811
 20
0.50834
 30
0.0
 10
-8.05812
 20
0.50834
 30
0.0
 10
-8.05812
 20
0.50834
 30
0.0
 10
-7.78311
 20
0.50834
 30
0.0
 10
-7.55812
 20
0.73334
 30
0.0
 10
-7.55812
 20
1.00834
 30
0.0
  0
SPLINE
  5
8F
330
1F
100
AcDbEntity
  8
Layer 1
 62
   250
370
     9
100
AcDbSpline
210
0.0
220
0.0
230
1.0
 70
    11
 71
     3
 72
    29
 73
    25
 74
     0
 42
0.0000000001
 43
0.0000000001
 40
0.0
 40
0.0
 40
0.0
 40
0.0
 40
0.125
 40
0.125
 40
0.125
 40
0.25
 40
0.25
 40
0.25
 40
0.375
 40
0.375
 40
0.375
 40
0.5
 40
0.5
 40
0.5
 40
0.625
 40
0.625
 40
0.625
 40
0.75
 40
0.75
 40
0.75
 40
0.875
 40
0.875
 40
0.875
 40
1.0
 40
1.0
 40
1.0
 40
1.0
 10
-7.55812
 20
4.90834
 30
0.0
 10
-7.55812
 20
4.90834
 30
0.0
 10
-7.55812
 20
7.40834
 30
0.0
 10
-7.55812
 20
7.40834
 30
0.0
 10
-7.55812
 20
7.68334
 30
0.0
 10
-7.78314
 20
7.90834
 30
0.0
 10
-8.05812
 20
7.90834
 30
0.0
 10
-8.05812
 20
7.90834
 30
0.0
 10
-14.05811
 20
7.90834
 30
0.0
 10
-14.05811
 20
7.90834
 30
0.0
 10
-14.33309
 20
7.90834
 30
0.0
 10
-14.55812
 20
7.68331
 30
0.0
 10
-14.55812
 20
7.40834
 30
0.0
 10
-14.55812
 20
7.40834
 30
0.0
 10
-14.55812
 20
4.90834
 30
0.0
 10
-14.55812
 20
4.90834
 30
0.0
 10
-14.55812
 20
4.63337
 30
0.0
 10
-14.33312
 20
4.40834
 30
0.0
 10
-14.05811
 20
4.40834
 30
0.0
 10
-14.05811
 20
4.40834
 30
0.0
 10
-8.05812
 20
4.40834
 30
0.0
 10
-8.05812
 20
4.40834
 30
0.0
 10
-7.78311
 20
4.40834
 30
0.0
 10
-7.55812
 20
4.63334
 30
0.0
 10
-7.55812
 20
4.90834
 30
0.0
  0
SPLINE
  5
90
330
1F
100
AcDbEntity
  8
Layer 1
 62
   250
370
     9
100
AcDbSpline
210
0.0
220
0.0
230
1.0
 70
    11
 71
     3
 72
    17
 73
    13
 74
     0
 42
0.0000000001
 43
0.0000000001
 40
0.0
 40
0.0
 40
0.0
 40
0.0
 40
0.25
 40
0.25
 40
0.25
 40
0.5
 40
0.5
 40
0.5
 40
0.75
 40
0.75
 40
0.75
 40
1.0
 40
1.0
 40
1.0
 40
1.0
 10
-18.05812
 20
9.45835
 30
0.0
 10
-18.05812
 20
9.45835
 30
0.0
 10
-16.05812
 20
9.45835
 30
0.0
 10
-16.05812
 20
9.45835
 30
0.0
 10
-16.05812
 20
9.45835
 30
0.0
 10
-16.05812
 20
9.85835
 30
0.0
 10
-16.05812
 20
9.85835
 30
0.0
 10
-16.05812
 20
9.85835
 30
0.0
 10
-18.05812
 20
9.85835
 30
0.0
 10
-18.05812
 20
9.85835
 30
0.0
 10
-18.05812
 20
9.85835
 30
0.0
 10
-18.05812
 20
9.45835
 30
0.0
 10
-18.05812
 20
9.45835
 30
0.0
  0
SPLINE
  5
91
330
1F
100
AcDbEntity
  8
Layer 1
 62
   250
370
     9
100
AcDbSpline
210
0.0
220
0.0
230
1.0
 70
    11
 71
     3
 72
    17
 73
    13
 74
     0
 42
0.0000000001
 43
0.0000000001
 40
0.0
 40
0.0
 40
0.0
 40
0.0
 40
0.25
 40
0.25
 40
0.25
 40
0.5
 40
0.5
 40
0.5
 40
0.75
 40
0.75
 40
0.75
 40
1.0
 40
1.0
 40
1.0
 40
1.0
 10
-21.05812
 20
-7.34165
 30
0.0
 10
-21.05812
 20
-7.34165
 30
0.0
 10
-21.05812
 20
-2.94165
 30
0.0
 10
-21.05812
 20
-2.94165
 30
0.0
 10
-21.05812
 20
-2.94165
 30
0.0
 10
-21.45812
 20
-2.94165
 30
0.0
 10
-21.45812
 20
-2.94165
 30
0.0
 10
-21.45812
 20
-2.94165
 30
0.0
 10
-21.45812
 20
-7.34165
 30
0.0
 10
-21.45812
 20
-7.34165
 30
0.0
 10
-21.45812
 20
-7.34165
 30
0.0
 10
-21.05812
 20
-7.34165
 30
0.0
 10
-21.05812
 20
-7.34165
 30
0.0
  0
SPLINE
  5
92
330
1F
100
AcDbEntity
  8
Layer 1
 62
   250
370
     9
100
AcDbSpline
210
0.0
220
0.0
230
1.0
 70
    11
 71
     3
 72
    17
 73
    13
 74
     0
 42
0.0000000001
 43
0.0000000001
 40
0.0
 40
0.0
 40
0.0
 40
0.0
 40
0.25
 40
0.25
 40
0.25
 40
0.5
 40
0.5
 40
0.5
 40
0.75
 40
0.75
 40
0.75
 40
1.0
 40
1.0
 40
1.0
 40
1.0
 10
-21.05812
 20
1.45835
 30
0.0
 10
-21.05812
 20
1.45835
 30
0.0
 10
-21.05812
 20
5.85835
 30
0.0
 10
-21.05812
 20
5.85835
 30
0.0
 10
-21.05812
 20
5.85835
 30
0.0
 10
-21.45812
 20
5.85835
 30
0.0
 10
-21.45812
 20
5.85835
 30
0.0
 10
-21.45812
 20
5.85835
 30
0.0
 10
-21.45812
 20
1.45835
 30
0.0
 10
-21.45812
 20
1.45835
 30
0.0
 10
-21.45812
 20
1.45835
 30
0.0
 10
-21.05812
 20
1.45835
 30
0.0
 10
-21.05812
 20
1.45835
 30
0.0
  0
SPLINE
  5
93
330
1F
100
AcDbEntity
  8
Layer 1
 62
   250
370
     9
100
AcDbSpline
210
0.0
220
0.0
230
1.0
 70
    11
 71
     3
 72
   143
 73
   139
 74
     0
 42
0.0000000001
 43
0.0000000001
 40
0.0
 40
0.0
 40
0.0
 40
0.0
 40
0.0217391304347826
 40
0.0217391304347826
 40
0.0217391304347826
 40
0.0434782608695652
 40
0.0434782608695652
 40
0.0434782608695652
 40
0.0652173913043478
 40
0.0652173913043478
 40
0.0652173913043478
 40
0.0869565217391304
 40
0.0869565217391304
 40
0.0869565217391304
 40
0.108695652173913
 40
0.108695652173913
 40
0.108695652173913
 40
0.1304347826086956
 40
0.1304347826086956
 40
0.1304347826086956
 40
0.1521739130434783
 40
0.1521739130434783
 40
0.1521739130434783
 40
0.1739130434782609
 40
0.1739130434782609
 40
0.1739130434782609
 40
0.1956521739130435
 40
0.1956521739130435
 40
0.1956521739130435
 40
0.2173913043478261
 40
0.2173913043478261
 40
0.2173913043478261
 40
0.2391304347826087
 40
0.2391304347826087
 40
0.2391304347826087
 40
0.2608695652173913
 40
0.2608695652173913
 40
0.2608695652173913
 40
0.2826086956521739
 40
0.2826086956521739
 40
0.2826086956521739
 40
0.3043478260869565
 40
0.3043478260869565
 40
0.3043478260869565
 40
0.3260869565217391
 40
0.3260869565217391
 40
0.3260869565217391
 40
0.3478260869565217
 40
0.3478260869565217
 40
0.3478260869565217
 40
0.3695652173913043
 40
0.3695652173913043
 40
0.3695652173913043
 40
0.3913043478260869
 40
0.3913043478260869
 40
0.3913043478260869
 40
0.4130434782608696
 40
0.4130434782608696
 40
0.4130434782608696
 40
0.4347826086956522
 40
0.4347826086956522
 40
0.4347826086956522
 40
0.4565217391304348
 40
0.4565217391304348
 40
0.4565217391304348
 40
0.4782608695652174
 40
0.4782608695652174
 40
0.4782608695652174
 40
0.5
 40
0.5
 40
0.5
 40
0.5217391304347826
 40
0.5217391304347826
 40
0.5217391304347826
 40
0.5434782608695652
 40
0.5434782608695652
 40
0.5434782608695652
 40
0.5652173913043478
 40
0.5652173913043478
 40
0.5652173913043478
 40
0.5869565217391304
 40
0.5869565217391304
 40
0.5869565217391304
 40
0.6086956521739131
 40
0.6086956521739131
 40
0.6086956521739131
 40
0.6304347826086957
 40
0.6304347826086957
 40
0.6304347826086957
 40
0.6521739130434783
 40
0.6521739130434783
 40
0.6521739130434783
 40
0.6739130434782609
 40
0.6739130434782609
 40
0.6739130434782609
 40
0.6956521739130435
 40
0.6956521739130435
 40
0.6956521739130435
 40
0.717391304347826
 40
0.717391304347826
 40
0.717391304347826
 40
0.7391304347826086
 40
0.7391304347826086
 40
0.7391304347826086
 40
0.7608695652173912
 40
0.7608695652173912
 40
0.7608695652173912
 40
0.7826086956521738
 40
0.7826086956521738
 40
0.7826086956521738
 40
0.8043478260869565
 40
0.8043478260869565
 40
0.8043478260869565
 40
0.8260869565217391
 40
0.8260869565217391
 40
0.8260869565217391
 40
0.8478260869565217
 40
0.8478260869565217
 40
0.8478260869565217
 40
0.8695652173913043
 40
0.8695652173913043
 40
0.8695652173913043
 40
0.8913043478260869
 40
0.8913043478260869
 40
0.8913043478260869
 40
0.9130434782608695
 40
0.9130434782608695
 40
0.9130434782608695
 40
0.9347826086956521
 40
0.9347826086956521
 40
0.9347826086956521
 40
0.9565217391304348
 40
0.9565217391304348
 40
0.9565217391304348
 40
0.9782608695652174
 40
0.9782608695652174
 40
0.9782608695652174
 40
1.0
 40
1.0
 40
1.0
 40
1.0
 10
-36.45812
 20
-7.74165
 30
0.0
 10
-36.45812
 20
-7.74165
 30
0.0
 10
-36.85812
 20
-7.74165
 30
0.0
 10
-36.85812
 20
-7.74165
 30
0.0
 10
-36.85812
 20
-7.74165
 30
0.0
 10
-36.85812
 20
-3.74165
 30
0.0
 10
-36.85812
 20
-3.74165
 30
0.0
 10
-36.85812
 20
-3.74165
 30
0.0
 10
-36.45812
 20
-3.74165
 30
0.0
 10
-36.45812
 20
-3.74165
 30
0.0
 10
-36.45812
 20
-3.74165
 30
0.0
 10
-36.45812
 20
0.25835
 30
0.0
 10
-36.45812
 20
0.25835
 30
0.0
 10
-36.45812
 20
0.25835
 30
0.0
 10
-36.85812
 20
0.25835
 30
0.0
 10
-36.85812
 20
0.25835
 30
0.0
 10
-36.85812
 20
0.25835
 30
0.0
 10
-36.85812
 20
4.25835
 30
0.0
 10
-36.85812
 20
4.25835
 30
0.0
 10
-36.85812
 20
4.25835
 30
0.0
 10
-36.45812
 20
4.25835
 30
0.0
 10
-36.45812
 20
4.25835
 30
0.0
 10
-36.45812
 20
4.25835
 30
0.0
 10
-36.45812
 20
8.25835
 30
0.0
 10
-36.45812
 20
8.25835
 30
0.0
 10
-36.45812
 20
8.25835
 30
0.0
 10
-36.85812
 20
8.25835
 30
0.0
 10
-36.85812
 20
8.25835
 30
0.0
 10
-36.85812
 20
8.25835
 30
0.0
 10
-36.85812
 20
12.25835
 30
0.0
 10
-36.85812
 20
12.25835
 30
0.0
 10
-36.85812
 20
12.25835
 30
0.0
 10
-36.45812
 20
12.25835
 30
0.0
 10
-36.45812
 20
12.25835
 30
0.0
 10
-36.45812
 20
12.25835
 30
0.0
 10
-36.45812
 20
15.85835
 30
0.0
 10
-36.45812
 20
15.85835
 30
0.0
 10
-36.45812
 20
15.85835
 30
0.0
 10
-31.85812
 20
15.85835
 30
0.0
 10
-31.85812
 20
15.85835
 30
0.0
 10
-31.85812
 20
15.85835
 30
0.0
 10
-31.85812
 20
16.25835
 30
0.0
 10
-31.85812
 20
16.25835
 30
0.0
 10
-31.85812
 20
16.25835
 30
0.0
 10
-27.85812
 20
16.25835
 30
0.0
 10
-27.85812
 20
16.25835
 30
0.0
 10
-27.85812
 20
16.25835
 30
0.0
 10
-27.85812
 20
15.85835
 30
0.0
 10
-27.85812
 20
15.85835
 30
0.0
 10
-27.85812
 20
15.85835
 30
0.0
 10
-23.25812
 20
15.85835
 30
0.0
 10
-23.25812
 20
15.85835
 30
0.0
 10
-23.25812
 20
15.85835
 30
0.0
 10
-23.25812
 20
16.25835
 30
0.0
 10
-23.25812
 20
16.25835
 30
0.0
 10
-23.25812
 20
16.25835
 30
0.0
 10
-19.25812
 20
16.25835
 30
0.0
 10
-19.25812
 20
16.25835
 30
0.0
 10
-19.25812
 20
16.25835
 30
0.0
 10
-19.25812
 20
15.85835
 30
0.0
 10
-19.25812
 20
15.85835
 30
0.0
 10
-19.25812
 20
15.85835
 30
0.0
 10
-14.65812
 20
15.85835
 30
0.0
 10
-14.65812
 20
15.85835
 30
0.0
 10
-14.65812
 20
15.85835
 30
0.0
 10
-14.65812
 20
16.25835
 30
0.0
 10
-14.65812
 20
16.25835
 30
0.0
 10
-14.65812
 20
16.25835
 30
0.0
 10
-10.65812
 20
16.25835
 30
0.0
 10
-10.65812
 20
16.25835
 30
0.0
 10
-10.65812
 20
16.25835
 30
0.0
 10
-10.65812
 20
15.85835
 30
0.0
 10
-10.65812
 20
15.85835
 30
0.0
 10
-10.65812
 20
15.85835
 30
0.0
 10
-6.05812
 20
15.85835
 30
0.0
 10
-6.05812
 20
15.85835
 30
0.0
 10
-6.05812
 20
15.85835
 30
0.0
 10
-6.05812
 20
-6.74165
 30
0.0
 10
-6.05812
 20
-6.74165
 30
0.0
 10
-6.05812
 20
-6.74165
 30
0.0
 10
-6.05812
 20
-10.74165
 30
0.0
 10
-6.05812
 20
-10.74165
 30
0.0
 10
-6.05812
 20
-10.74165
 30
0.0
 10
-6.05812
 20
-11.34165
 30
0.0
 10
-6.05812
 20
-11.34165
 30
0.0
 10
-6.05812
 20
-11.34165
 30
0.0
 10
-7.05812
 20
-11.34165
 30
0.0
 10
-7.05812
 20
-11.34165
 30
0.0
 10
-7.05812
 20
-11.34165
 30
0.0
 10
-10.65812
 20
-11.34165
 30
0.0
 10
-10.65812
 20
-11.34165
 30
0.0
 10
-10.65812
 20
-11.34165
 30
0.0
 10
-10.65812
 20
-11.74165
 30
0.0
 10
-10.65812
 20
-11.74165
 30
0.0
 10
-10.65812
 20
-11.74165
 30
0.0
 10
-14.65812
 20
-11.74165
 30
0.0
 10
-14.65812
 20
-11.74165
 30
0.0
 10
-14.65812
 20
-11.74165
 30
0.0
 10
-14.65812
 20
-11.34165
 30
0.0
 10
-14.65812
 20
-11.34165
 30
0.0
 10
-14.65812
 20
-11.34165
 30
0.0
 10
-16.05812
 20
-11.34165
 30
0.0
 10
-16.05812
 20
-11.34165
 30
0.0
 10
-16.05812
 20
-11.34165
 30
0.0
 10
-19.25812
 20
-11.34165
 30
0.0
 10
-19.25812
 20
-11.34165
 30
0.0
 10
-19.25812
 20
-11.34165
 30
0.0
 10
-19.25812
 20
-11.74165
 30
0.0
 10
-19.25812
 20
-11.74165
 30
0.0
 10
-19.25812
 20
-11.74165
 30
0.0
 10
-21.05812
 20
-11.74165
 30
0.0
 10
-21.05812
 20
-11.74165
 30
0.0
 10
-21.05812
 20
-11.74165
 30
0.0
 10
-21.45812
 20
-11.74165
 30
0.0
 10
-21.45812
 20
-11.74165
 30
0.0
 10
-21.45812
 20
-11.74165
 30
0.0
 10
-23.25812
 20
-11.74165
 30
0.0
 10
-23.25812
 20
-11.74165
 30
0.0
 10
-23.25812
 20
-11.74165
 30
0.0
 10
-23.25812
 20
-11.34165
 30
0.0
 10
-23.25812
 20
-11.34165
 30
0.0
 10
-23.25812
 20
-11.34165
 30
0.0
 10
-27.85812
 20
-11.34165
 30
0.0
 10
-27.85812
 20
-11.34165
 30
0.0
 10
-27.85812
 20
-11.34165
 30
0.0
 10
-27.85812
 20
-11.74165
 30
0.0
 10
-27.85812
 20
-11.74165
 30
0.0
 10
-27.85812
 20
-11.74165
 30
0.0
 10
-31.85812
 20
-11.74165
 30
0.0
 10
-31.85812
 20
-11.74165
 30
0.0
 10
-31.85812
 20
-11.74165
 30
0.0
 10
-31.85812
 20
-11.34165
 30
0.0
 10
-31.85812
 20
-11.34165
 30
0.0
 10
-31.85812
 20
-11.34165
 30
0.0
 10
-36.45812
 20
-11.34165
 30
0.0
 10
-36.45812
 20
-11.34165
 30
0.0
 10
-36.45812
 20
-11.34165
 30
0.0
 10
-36.45812
 20
-7.74165
 30
0.0
 10
-36.45812
 20
-7.74165
 30
0.0
  0
SPLINE
  5
94
330
1F
100
AcDbEntity
  8
Layer 1
 62
   250
370
     9
100
AcDbSpline
210
0.0
220
0.0
230
1.0
 70
    11
 71
     3
 72
    29
 73
    25
 74
     0
 42
0.0000000001
 43
0.0000000001
 40
0.0
 40
0.0
 40
0.0
 40
0.0
 40
0.125
 40
0.125
 40
0.125
 40
0.25
 40
0.25
 40
0.25
 40
0.375
 40
0.375
 40
0.375
 40
0.5
 40
0.5
 40
0.5
 40
0.625
 40
0.625
 40
0.625
 40
0.75
 40
0.75
 40
0.75
 40
0.875
 40
0.875
 40
0.875
 40
1.0
 40
1.0
 40
1.0
 40
1.0
 10
-7.05812
 20
-6.74165
 30
0.0
 10
-7.05812
 20
-6.74165
 30
0.0
 10
-7.05812
 20
-10.74165
 30
0.0
 10
-7.05812
 20
-10.74165
 30
0.0
 10
-7.05812
 20
-10.74165
 30
0.0
 10
-16.05812
 20
-10.74165
 30
0.0
 10
-16.05812
 20
-10.74165
 30
0.0
 10
-16.05812
 20
-10.74165
 30
0.0
 10
-16.05812
 20
-6.74165
 30
0.0
 10
-16.05812
 20
-6.74165
 30
0.0
 10
-16.05812
 20
-6.74165
 30
0.0
 10
-9.72466
 20
-6.74165
 30
0.0
 10
-9.72466
 20
-6.74165
 30
0.0
 10
-9.72466
 20
-6.74165
 30
0.0
 10
-9.72466
 20
-6.34165
 30
0.0
 10
-9.72466
 20
-6.34165
 30
0.0
 10
-9.72466
 20
-6.34165
 30
0.0
 10
-6.72466
 20
-6.34165
 30
0.0
 10
-6.72466
 20
-6.34165
 30
0.0
 10
-6.72466
 20
-6.34165
 30
0.0
 10
-6.72466
 20
-6.74165
 30
0.0
 10
-6.72466
 20
-6.74165
 30
0.0
 10
-6.72466
 20
-6.74165
 30
0.0
 10
-7.05812
 20
-6.74165
 30
0.0
 10
-7.05812
 20
-6.74165
 30
0.0
  0
SPLINE
  5
95
330
1F
100
AcDbEntity
  8
Layer 1
 62
   250
370
     9
100
AcDbSpline
210
0.0
220
0.0
230
1.0
 70
    11
 71
     3
 72
    53
 73
    49
 74
     0
 42
0.0000000001
 43
0.0000000001
 40
0.0
 40
0.0
 40
0.0
 40
0.0
 40
0.0625
 40
0.0625
 40
0.0625
 40
0.125
 40
0.125
 40
0.125
 40
0.1875
 40
0.1875
 40
0.1875
 40
0.25
 40
0.25
 40
0.25
 40
0.3125
 40
0.3125
 40
0.3125
 40
0.375
 40
0.375
 40
0.375
 40
0.4375
 40
0.4375
 40
0.4375
 40
0.5
 40
0.5
 40
0.5
 40
0.5625
 40
0.5625
 40
0.5625
 40
0.625
 40
0.625
 40
0.625
 40
0.6875
 40
0.6875
 40
0.6875
 40
0.75
 40
0.75
 40
0.75
 40
0.8125
 40
0.8125
 40
0.8125
 40
0.875
 40
0.875
 40
0.875
 40
0.9375
 40
0.9375
 40
0.9375
 40
1.0
 40
1.0
 40
1.0
 40
1.0
 10
-61.75812
 20
-66.04693
 30
0.0
 10
-61.75812
 20
-66.04693
 30
0.0
 10
-80.45812
 20
-66.04693
 30
0.0
 10
-80.45812
 20
-66.04693
 30
0.0
 10
-80.45812
 20
-66.04693
 30
0.0
 10
-80.85812
 20
-66.04693
 30
0.0
 10
-80.85812
 20
-66.04693
 30
0.0
 10
-80.85812
 20
-66.04693
 30
0.0
 10
-80.85812
 20
-64.04693
 30
0.0
 10
-80.85812
 20
-64.04693
 30
0.0
 10
-80.85812
 20
-64.04693
 30
0.0
 10
-80.45812
 20
-64.04693
 30
0.0
 10
-80.45812
 20
-64.04693
 30
0.0
 10
-80.45812
 20
-64.04693
 30
0.0
 10
-80.45812
 20
-61.04693
 30
0.0
 10
-80.45812
 20
-61.04693
 30
0.0
 10
-80.45812
 20
-61.04693
 30
0.0
 10
-76.65812
 20
-61.04693
 30
0.0
 10
-76.65812
 20
-61.04693
 30
0.0
 10
-76.65812
 20
-61.04693
 30
0.0
 10
-76.65812
 20
-60.64693
 30
0.0
 10
-76.65812
 20
-60.64693
 30
0.0
 10
-76.65812
 20
-60.64693
 30
0.0
 10
-72.85812
 20
-60.64693
 30
0.0
 10
-72.85812
 20
-60.64693
 30
0.0
 10
-72.85812
 20
-60.64693
 30
0.0
 10
-72.85812
 20
-61.04693
 30
0.0
 10
-72.85812
 20
-61.04693
 30
0.0
 10
-72.85812
 20
-61.04693
 30
0.0
 10
-69.05812
 20
-61.04693
 30
0.0
 10
-69.05812
 20
-61.04693
 30
0.0
 10
-69.05812
 20
-61.04693
 30
0.0
 10
-69.05812
 20
-60.64693
 30
0.0
 10
-69.05812
 20
-60.64693
 30
0.0
 10
-69.05812
 20
-60.64693
 30
0.0
 10
-65.25812
 20
-60.64693
 30
0.0
 10
-65.25812
 20
-60.64693
 30
0.0
 10
-65.25812
 20
-60.64693
 30
0.0
 10
-65.25812
 20
-61.04693
 30
0.0
 10
-65.25812
 20
-61.04693
 30
0.0
 10
-65.25812
 20
-61.04693
 30
0.0
 10
-61.45812
 20
-61.04693
 30
0.0
 10
-61.45812
 20
-61.04693
 30
0.0
 10
-61.45812
 20
-61.04693
 30
0.0
 10
-61.45812
 20
-65.74693
 30
0.0
 10
-61.45812
 20
-65.74693
 30
0.0
 10
-61.45812
 20
-65.91193
 30
0.0
 10
-61.59313
 20
-66.04693
 30
0.0
 10
-61.75812
 20
-66.04693
 30
0.0
  0
SPLINE
  5
96
330
1F
100
AcDbEntity
  8
Layer 1
 62
   250
370
     9
100
AcDbSpline
210
0.0
220
0.0
230
1.0
 70
    11
 71
     3
 72
    53
 73
    49
 74
     0
 42
0.0000000001
 43
0.0000000001
 40
0.0
 40
0.0
 40
0.0
 40
0.0
 40
0.0625
 40
0.0625
 40
0.0625
 40
0.125
 40
0.125
 40
0.125
 40
0.1875
 40
0.1875
 40
0.1875
 40
0.25
 40
0.25
 40
0.25
 40
0.3125
 40
0.3125
 40
0.3125
 40
0.375
 40
0.375
 40
0.375
 40
0.4375
 40
0.4375
 40
0.4375
 40
0.5
 40
0.5
 40
0.5
 40
0.5625
 40
0.5625
 40
0.5625
 40
0.625
 40
0.625
 40
0.625
 40
0.6875
 40
0.6875
 40
0.6875
 40
0.75
 40
0.75
 40
0.75
 40
0.8125
 40
0.8125
 40
0.8125
 40
0.875
 40
0.875
 40
0.875
 40
0.9375
 40
0.9375
 40
0.9375
 40
1.0
 40
1.0
 40
1.0
 40
1.0
 10
-57.95812
 20
-66.04693
 30
0.0
 10
-57.95812
 20
-66.04693
 30
0.0
 10
-39.25812
 20
-66.04693
 30
0.0
 10
-39.25812
 20
-66.04693
 30
0.0
 10
-39.25812
 20
-66.04693
 30
0.0
 10
-38.85812
 20
-66.04693
 30
0.0
 10
-38.85812
 20
-66.04693
 30
0.0
 10
-38.85812
 20
-66.04693
 30
0.0
 10
-38.85812
 20
-64.04693
 30
0.0
 10
-38.85812
 20
-64.04693
 30
0.0
 10
-38.85812
 20
-64.04693
 30
0.0
 10
-39.25812
 20
-64.04693
 30
0.0
 10
-39.25812
 20
-64.04693
 30
0.0
 10
-39.25812
 20
-64.04693
 30
0.0
 10
-39.25812
 20
-61.04693
 30
0.0
 10
-39.25812
 20
-61.04693
 30
0.0
 10
-39.25812
 20
-61.04693
 30
0.0
 10
-43.05812
 20
-61.04693
 30
0.0
 10
-43.05812
 20
-61.04693
 30
0.0
 10
-43.05812
 20
-61.04693
 30
0.0
 10
-43.05812
 20
-60.64693
 30
0.0
 10
-43.05812
 20
-60.64693
 30
0.0
 10
-43.05812
 20
-60.64693
 30
0.0
 10
-46.85812
 20
-60.64693
 30
0.0
 10
-46.85812
 20
-60.64693
 30
0.0
 10
-46.85812
 20
-60.64693
 30
0.0
 10
-46.85812
 20
-61.04693
 30
0.0
 10
-46.85812
 20
-61.04693
 30
0.0
 10
-46.85812
 20
-61.04693
 30
0.0
 10
-50.65812
 20
-61.04693
 30
0.0
 10
-50.65812
 20
-61.04693
 30
0.0
 10
-50.65812
 20
-61.04693
 30
0.0
 10
-50.65812
 20
-60.64693
 30
0.0
 10
-50.65812
 20
-60.64693
 30
0.0
 10
-50.65812
 20
-60.64693
 30
0.0
 10
-54.45812
 20
-60.64693
 30
0.0
 10
-54.45812
 20
-60.64693
 30
0.0
 10
-54.45812
 20
-60.64693
 30
0.0
 10
-54.45812
 20
-61.04693
 30
0.0
 10
-54.45812
 20
-61.04693
 30
0.0
 10
-54.45812
 20
-61.04693
 30
0.0
 10
-58.25812
 20
-61.04693
 30
0.0
 10
-58.25812
 20
-61.04693
 30
0.0
 10
-58.25812
 20
-61.04693
 30
0.0
 10
-58.25812
 20
-65.74693
 30
0.0
 10
-58.25812
 20
-65.74693
 30
0.0
 10
-58.25812
 20
-65.91193
 30
0.0
 10
-58.12311
 20
-66.04693
 30
0.0
 10
-57.95812
 20
-66.04693
 30
0.0
  0
SPLINE
  5
97
330
1F
100
AcDbEntity
  8
Layer 1
 62
   250
370
     9
100
AcDbSpline
210
0.0
220
0.0
230
1.0
 70
    11
 71
     3
 72
   125
 73
   121
 74
     0
 42
0.0000000001
 43
0.0000000001
 40
0.0
 40
0.0
 40
0.0
 40
0.0
 40
0.025
 40
0.025
 40
0.025
 40
0.05
 40
0.05
 40
0.05
 40
0.075
 40
0.075
 40
0.075
 40
0.1
 40
0.1
 40
0.1
 40
0.125
 40
0.125
 40
0.125
 40
0.15
 40
0.15
 40
0.15
 40
0.175
 40
0.175
 40
0.175
 40
0.2
 40
0.2
 40
0.2
 40
0.225
 40
0.225
 40
0.225
 40
0.25
 40
0.25
 40
0.25
 40
0.275
 40
0.275
 40
0.275
 40
0.3
 40
0.3
 40
0.3
 40
0.325
 40
0.325
 40
0.325
 40
0.35
 40
0.35
 40
0.35
 40
0.375
 40
0.375
 40
0.375
 40
0.4
 40
0.4
 40
0.4
 40
0.425
 40
0.425
 40
0.425
 40
0.45
 40
0.45
 40
0.45
 40
0.475
 40
0.475
 40
0.475
 40
0.5
 40
0.5
 40
0.5
 40
0.525
 40
0.525
 40
0.525
 40
0.55
 40
0.55
 40
0.55
 40
0.5750000000000001
 40
0.5750000000000001
 40
0.5750000000000001
 40
0.6000000000000001
 40
0.6000000000000001
 40
0.6000000000000001
 40
0.625
 40
0.625
 40
0.625
 40
0.65
 40
0.65
 40
0.65
 40
0.675
 40
0.675
 40
0.675
 40
0.7000000000000001
 40
0.7000000000000001
 40
0.7000000000000001
 40
0.7250000000000001
 40
0.7250000000000001
 40
0.7250000000000001
 40
0.75
 40
0.75
 40
0.75
 40
0.775
 40
0.775
 40
0.775
 40
0.8
 40
0.8
 40
0.8
 40
0.8250000000000001
 40
0.8250000000000001
 40
0.8250000000000001
 40
0.8500000000000001
 40
0.8500000000000001
 40
0.8500000000000001
 40
0.875
 40
0.875
 40
0.875
 40
0.9
 40
0.9
 40
0.9
 40
0.925
 40
0.925
 40
0.925
 40
0.9500000000000001
 40
0.9500000000000001
 40
0.9500000000000001
 40
0.9750000000000001
 40
0.9750000000000001
 40
0.9750000000000001
 40
1.0
 40
1.0
 40
1.0
 40
1.0
 10
-21.36148
 20
-65.09651
 30
0.0
 10
-21.36148
 20
-65.09651
 30
0.0
 10
0.63852
 20
-65.09651
 30
0.0
 10
0.63852
 20
-65.09651
 30
0.0
 10
0.63852
 20
-65.09651
 30
0.0
 10
0.63852
 20
-66.30896
 30
0.0
 10
0.63852
 20
-66.30896
 30
0.0
 10
0.63852
 20
-66.30896
 30
0.0
 10
3.23852
 20
-66.30896
 30
0.0
 10
3.23852
 20
-66.30896
 30
0.0
 10
3.23852
 20
-66.30896
 30
0.0
 10
3.23852
 20
-67.3493
 30
0.0
 10
3.23852
 20
-67.3493
 30
0.0
 10
3.23852
 20
-67.3493
 30
0.0
 10
3.63852
 20
-67.3493
 30
0.0
 10
3.63852
 20
-67.3493
 30
0.0
 10
3.63852
 20
-67.3493
 30
0.0
 10
3.63852
 20
-70.3493
 30
0.0
 10
3.63852
 20
-70.3493
 30
0.0
 10
3.63852
 20
-70.3493
 30
0.0
 10
3.23852
 20
-70.3493
 30
0.0
 10
3.23852
 20
-70.3493
 30
0.0
 10
3.23852
 20
-70.3493
 30
0.0
 10
3.23852
 20
-71.38963
 30
0.0
 10
3.23852
 20
-71.38963
 30
0.0
 10
3.23852
 20
-71.38963
 30
0.0
 10
0.63852
 20
-71.38963
 30
0.0
 10
0.63852
 20
-71.38963
 30
0.0
 10
0.63852
 20
-71.38963
 30
0.0
 10
-19.36148
 20
-71.38963
 30
0.0
 10
-19.36148
 20
-71.38963
 30
0.0
 10
-19.36148
 20
-71.38963
 30
0.0
 10
-19.36148
 20
-78.3493
 30
0.0
 10
-19.36148
 20
-78.3493
 30
0.0
 10
-19.36148
 20
-78.3493
 30
0.0
 10
-18.96148
 20
-78.3493
 30
0.0
 10
-18.96148
 20
-78.3493
 30
0.0
 10
-18.96148
 20
-78.3493
 30
0.0
 10
-18.96148
 20
-81.3493
 30
0.0
 10
-18.96148
 20
-81.3493
 30
0.0
 10
-18.96148
 20
-81.3493
 30
0.0
 10
-19.36148
 20
-81.3493
 30
0.0
 10
-19.36148
 20
-81.3493
 30
0.0
 10
-19.36148
 20
-81.3493
 30
0.0
 10
-19.36148
 20
-88.5493
 30
0.0
 10
-19.36148
 20
-88.5493
 30
0.0
 10
-19.36148
 20
-88.5493
 30
0.0
 10
-18.96148
 20
-88.5493
 30
0.0
 10
-18.96148
 20
-88.5493
 30
0.0
 10
-18.96148
 20
-88.5493
 30
0.0
 10
-18.96148
 20
-91.5493
 30
0.0
 10
-18.96148
 20
-91.5493
 30
0.0
 10
-18.96148
 20
-91.5493
 30
0.0
 10
-19.36148
 20
-91.5493
 30
0.0
 10
-19.36148
 20
-91.5493
 30
0.0
 10
-19.36148
 20
-91.5493
 30
0.0
 10
-19.36148
 20
-92.68276
 30
0.0
 10
-19.36148
 20
-92.68276
 30
0.0
 10
-19.36148
 20
-92.68276
 30
0.0
 10
-20.66148
 20
-92.68276
 30
0.0
 10
-20.66148
 20
-92.68276
 30
0.0
 10
-20.66148
 20
-92.68276
 30
0.0
 10
-20.66148
 20
-93.08276
 30
0.0
 10
-20.66148
 20
-93.08276
 30
0.0
 10
-20.66148
 20
-93.08276
 30
0.0
 10
-22.66148
 20
-93.08276
 30
0.0
 10
-22.66148
 20
-93.08276
 30
0.0
 10
-22.66148
 20
-93.08276
 30
0.0
 10
-22.66148
 20
-92.68276
 30
0.0
 10
-22.66148
 20
-92.68276
 30
0.0
 10
-22.66148
 20
-92.68276
 30
0.0
 10
-23.96148
 20
-92.68276
 30
0.0
 10
-23.96148
 20
-92.68276
 30
0.0
 10
-23.96148
 20
-92.68276
 30
0.0
 10
-23.96148
 20
-91.5493
 30
0.0
 10
-23.96148
 20
-91.5493
 30
0.0
 10
-23.96148
 20
-91.5493
 30
0.0
 10
-24.36148
 20
-91.5493
 30
0.0
 10
-24.36148
 20
-91.5493
 30
0.0
 10
-24.36148
 20
-91.5493
 30
0.0
 10
-24.36148
 20
-88.5493
 30
0.0
 10
-24.36148
 20
-88.5493
 30
0.0
 10
-24.36148
 20
-88.5493
 30
0.0
 10
-23.96148
 20
-88.5493
 30
0.0
 10
-23.96148
 20
-88.5493
 30
0.0
 10
-23.96148
 20
-88.5493
 30
0.0
 10
-23.96148
 20
-81.3493
 30
0.0
 10
-23.96148
 20
-81.3493
 30
0.0
 10
-23.96148
 20
-81.3493
 30
0.0
 10
-24.36148
 20
-81.3493
 30
0.0
 10
-24.36148
 20
-81.3493
 30
0.0
 10
-24.36148
 20
-81.3493
 30
0.0
 10
-24.36148
 20
-78.3493
 30
0.0
 10
-24.36148
 20
-78.3493
 30
0.0
 10
-24.36148
 20
-78.3493
 30
0.0
 10
-23.96148
 20
-78.3493
 30
0.0
 10
-23.96148
 20
-78.3493
 30
0.0
 10
-23.96148
 20
-78.3493
 30
0.0
 10
-23.96148
 20
-71.38963
 30
0.0
 10
-23.96148
 20
-71.38963
 30
0.0
 10
-23.96148
 20
-71.38963
 30
0.0
 10
-23.96148
 20
-70.3493
 30
0.0
 10
-23.96148
 20
-70.3493
 30
0.0
 10
-23.96148
 20
-70.3493
 30
0.0
 10
-24.36148
 20
-70.3493
 30
0.0
 10
-24.36148
 20
-70.3493
 30
0.0
 10
-24.36148
 20
-70.3493
 30
0.0
 10
-24.36148
 20
-67.3493
 30
0.0
 10
-24.36148
 20
-67.3493
 30
0.0
 10
-24.36148
 20
-67.3493
 30
0.0
 10
-23.96148
 20
-67.3493
 30
0.0
 10
-23.96148
 20
-67.3493
 30
0.0
 10
-23.96148
 20
-67.3493
 30
0.0
 10
-23.96148
 20
-66.30896
 30
0.0
 10
-23.96148
 20
-66.30896
 30
0.0
 10
-23.96148
 20
-66.30896
 30
0.0
 10
-21.36148
 20
-66.30896
 30
0.0
 10
-21.36148
 20
-66.30896
 30
0.0
 10
-21.36148
 20
-66.30896
 30
0.0
 10
-21.36148
 20
-65.09651
 30
0.0
 10
-21.36148
 20
-65.09651
 30
0.0
  0
SPLINE
  5
98
330
1F
100
AcDbEntity
  8
Layer 1
 62
   250
370
     9
100
AcDbSpline
210
0.0
220
0.0
230
1.0
 70
    11
 71
     3
 72
   125
 73
   121
 74
     0
 42
0.0000000001
 43
0.0000000001
 40
0.0
 40
0.0
 40
0.0
 40
0.0
 40
0.025
 40
0.025
 40
0.025
 40
0.05
 40
0.05
 40
0.05
 40
0.075
 40
0.075
 40
0.075
 40
0.1
 40
0.1
 40
0.1
 40
0.125
 40
0.125
 40
0.125
 40
0.15
 40
0.15
 40
0.15
 40
0.175
 40
0.175
 40
0.175
 40
0.2
 40
0.2
 40
0.2
 40
0.225
 40
0.225
 40
0.225
 40
0.25
 40
0.25
 40
0.25
 40
0.275
 40
0.275
 40
0.275
 40
0.3
 40
0.3
 40
0.3
 40
0.325
 40
0.325
 40
0.325
 40
0.35
 40
0.35
 40
0.35
 40
0.375
 40
0.375
 40
0.375
 40
0.4
 40
0.4
 40
0.4
 40
0.425
 40
0.425
 40
0.425
 40
0.45
 40
0.45
 40
0.45
 40
0.475
 40
0.475
 40
0.475
 40
0.5
 40
0.5
 40
0.5
 40
0.525
 40
0.525
 40
0.525
 40
0.55
 40
0.55
 40
0.55
 40
0.5750000000000001
 40
0.5750000000000001
 40
0.5750000000000001
 40
0.6000000000000001
 40
0.6000000000000001
 40
0.6000000000000001
 40
0.625
 40
0.625
 40
0.625
 40
0.65
 40
0.65
 40
0.65
 40
0.675
 40
0.675
 40
0.675
 40
0.7000000000000001
 40
0.7000000000000001
 40
0.7000000000000001
 40
0.7250000000000001
 40
0.7250000000000001
 40
0.7250000000000001
 40
0.75
 40
0.75
 40
0.75
 40
0.775
 40
0.775
 40
0.775
 40
0.8
 40
0.8
 40
0.8
 40
0.8250000000000001
 40
0.8250000000000001
 40
0.8250000000000001
 40
0.8500000000000001
 40
0.8500000000000001
 40
0.8500000000000001
 40
0.875
 40
0.875
 40
0.875
 40
0.9
 40
0.9
 40
0.9
 40
0.925
 40
0.925
 40
0.925
 40
0.9500000000000001
 40
0.9500000000000001
 40
0.9500000000000001
 40
0.9750000000000001
 40
0.9750000000000001
 40
0.9750000000000001
 40
1.0
 40
1.0
 40
1.0
 40
1.0
 10
-87.85812
 20
-11.74165
 30
0.0
 10
-87.85812
 20
-11.74165
 30
0.0
 10
-91.85812
 20
-11.74165
 30
0.0
 10
-91.85812
 20
-11.74165
 30
0.0
 10
-91.85812
 20
-11.74165
 30
0.0
 10
-91.85812
 20
-11.34165
 30
0.0
 10
-91.85812
 20
-11.34165
 30
0.0
 10
-91.85812
 20
-11.34165
 30
0.0
 10
-96.45812
 20
-11.34165
 30
0.0
 10
-96.45812
 20
-11.34165
 30
0.0
 10
-96.45812
 20
-11.34165
 30
0.0
 10
-96.45812
 20
-11.74165
 30
0.0
 10
-96.45812
 20
-11.74165
 30
0.0
 10
-96.45812
 20
-11.74165
 30
0.0
 10
-100.45812
 20
-11.74165
 30
0.0
 10
-100.45812
 20
-11.74165
 30
0.0
 10
-100.45812
 20
-11.74165
 30
0.0
 10
-100.45812
 20
-11.34165
 30
0.0
 10
-100.45812
 20
-11.34165
 30
0.0
 10
-100.45812
 20
-11.34165
 30
0.0
 10
-105.05812
 20
-11.34165
 30
0.0
 10
-105.05812
 20
-11.34165
 30
0.0
 10
-105.05812
 20
-11.34165
 30
0.0
 10
-105.05812
 20
-11.74165
 30
0.0
 10
-105.05812
 20
-11.74165
 30
0.0
 10
-105.05812
 20
-11.74165
 30
0.0
 10
-109.05812
 20
-11.74165
 30
0.0
 10
-109.05812
 20
-11.74165
 30
0.0
 10
-109.05812
 20
-11.74165
 30
0.0
 10
-109.05812
 20
-11.34165
 30
0.0
 10
-109.05812
 20
-11.34165
 30
0.0
 10
-109.05812
 20
-11.34165
 30
0.0
 10
-113.65812
 20
-11.34165
 30
0.0
 10
-113.65812
 20
-11.34165
 30
0.0
 10
-113.65812
 20
-11.34165
 30
0.0
 10
-113.65812
 20
15.85835
 30
0.0
 10
-113.65812
 20
15.85835
 30
0.0
 10
-113.65812
 20
15.85835
 30
0.0
 10
-109.05812
 20
15.85835
 30
0.0
 10
-109.05812
 20
15.85835
 30
0.0
 10
-109.05812
 20
15.85835
 30
0.0
 10
-109.05812
 20
16.25835
 30
0.0
 10
-109.05812
 20
16.25835
 30
0.0
 10
-109.05812
 20
16.25835
 30
0.0
 10
-105.05812
 20
16.25835
 30
0.0
 10
-105.05812
 20
16.25835
 30
0.0
 10
-105.05812
 20
16.25835
 30
0.0
 10
-105.05812
 20
15.85835
 30
0.0
 10
-105.05812
 20
15.85835
 30
0.0
 10
-105.05812
 20
15.85835
 30
0.0
 10
-100.45812
 20
15.85835
 30
0.0
 10
-100.45812
 20
15.85835
 30
0.0
 10
-100.45812
 20
15.85835
 30
0.0
 10
-100.45812
 20
16.25835
 30
0.0
 10
-100.45812
 20
16.25835
 30
0.0
 10
-100.45812
 20
16.25835
 30
0.0
 10
-96.45812
 20
16.25835
 30
0.0
 10
-96.45812
 20
16.25835
 30
0.0
 10
-96.45812
 20
16.25835
 30
0.0
 10
-96.45812
 20
15.85835
 30
0.0
 10
-96.45812
 20
15.85835
 30
0.0
 10
-96.45812
 20
15.85835
 30
0.0
 10
-91.85812
 20
15.85835
 30
0.0
 10
-91.85812
 20
15.85835
 30
0.0
 10
-91.85812
 20
15.85835
 30
0.0
 10
-91.85812
 20
16.25835
 30
0.0
 10
-91.85812
 20
16.25835
 30
0.0
 10
-91.85812
 20
16.25835
 30
0.0
 10
-87.85812
 20
16.25835
 30
0.0
 10
-87.85812
 20
16.25835
 30
0.0
 10
-87.85812
 20
16.25835
 30
0.0
 10
-87.85812
 20
15.85835
 30
0.0
 10
-87.85812
 20
15.85835
 30
0.0
 10
-87.85812
 20
15.85835
 30
0.0
 10
-83.25812
 20
15.85835
 30
0.0
 10
-83.25812
 20
15.85835
 30
0.0
 10
-83.25812
 20
15.85835
 30
0.0
 10
-83.25812
 20
12.25835
 30
0.0
 10
-83.25812
 20
12.25835
 30
0.0
 10
-83.25812
 20
12.25835
 30
0.0
 10
-82.85812
 20
12.25835
 30
0.0
 10
-82.85812
 20
12.25835
 30
0.0
 10
-82.85812
 20
12.25835
 30
0.0
 10
-82.85812
 20
8.25835
 30
0.0
 10
-82.85812
 20
8.25835
 30
0.0
 10
-82.85812
 20
8.25835
 30
0.0
 10
-83.25812
 20
8.25835
 30
0.0
 10
-83.25812
 20
8.25835
 30
0.0
 10
-83.25812
 20
8.25835
 30
0.0
 10
-83.25812
 20
4.25835
 30
0.0
 10
-83.25812
 20
4.25835
 30
0.0
 10
-83.25812
 20
4.25835
 30
0.0
 10
-82.85812
 20
4.25835
 30
0.0
 10
-82.85812
 20
4.25835
 30
0.0
 10
-82.85812
 20
4.25835
 30
0.0
 10
-82.85812
 20
0.25835
 30
0.0
 10
-82.85812
 20
0.25835
 30
0.0
 10
-82.85812
 20
0.25835
 30
0.0
 10
-83.25812
 20
0.25835
 30
0.0
 10
-83.25812
 20
0.25835
 30
0.0
 10
-83.25812
 20
0.25835
 30
0.0
 10
-83.25812
 20
-3.74165
 30
0.0
 10
-83.25812
 20
-3.74165
 30
0.0
 10
-83.25812
 20
-3.74165
 30
0.0
 10
-82.85812
 20
-3.74165
 30
0.0
 10
-82.85812
 20
-3.74165
 30
0.0
 10
-82.85812
 20
-3.74165
 30
0.0
 10
-82.85812
 20
-7.74165
 30
0.0
 10
-82.85812
 20
-7.74165
 30
0.0
 10
-82.85812
 20
-7.74165
 30
0.0
 10
-83.25812
 20
-7.74165
 30
0.0
 10
-83.25812
 20
-7.74165
 30
0.0
 10
-83.25812
 20
-7.74165
 30
0.0
 10
-83.25812
 20
-11.34165
 30
0.0
 10
-83.25812
 20
-11.34165
 30
0.0
 10
-83.25812
 20
-11.34165
 30
0.0
 10
-87.85812
 20
-11.34165
 30
0.0
 10
-87.85812
 20
-11.34165
 30
0.0
 10
-87.85812
 20
-11.34165
 30
0.0
 10
-87.85812
 20
-11.74165
 30
0.0
 10
-87.85812
 20
-11.74165
 30
0.0
  0
SPLINE
  5
99
330
1F
100
AcDbEntity
  8
Layer 1
 62
   250
370
     9
100
AcDbSpline
210
0.0
220
0.0
230
1.0
 70
    11
 71
     3
 72
    29
 73
    25
 74
     0
 42
0.0000000001
 43
0.0000000001
 40
0.0
 40
0.0
 40
0.0
 40
0.0
 40
0.125
 40
0.125
 40
0.125
 40
0.25
 40
0.25
 40
0.25
 40
0.375
 40
0.375
 40
0.375
 40
0.5
 40
0.5
 40
0.5
 40
0.625
 40
0.625
 40
0.625
 40
0.75
 40
0.75
 40
0.75
 40
0.875
 40
0.875
 40
0.875
 40
1.0
 40
1.0
 40
1.0
 40
1.0
 10
-112.15812
 20
-2.89166
 30
0.0
 10
-112.15812
 20
-2.89166
 30
0.0
 10
-112.15812
 20
-0.39166
 30
0.0
 10
-112.15812
 20
-0.39166
 30
0.0
 10
-112.15812
 20
-0.11668
 30
0.0
 10
-111.93311
 20
0.10834
 30
0.0
 10
-111.65812
 20
0.10834
 30
0.0
 10
-111.65812
 20
0.10834
 30
0.0
 10
-105.65813
 20
0.10834
 30
0.0
 10
-105.65813
 20
0.10834
 30
0.0
 10
-105.38314
 20
0.10834
 30
0.0
 10
-105.15812
 20
-0.11666
 30
0.0
 10
-105.15812
 20
-0.39166
 30
0.0
 10
-105.15812
 20
-0.39166
 30
0.0
 10
-105.15812
 20
-2.89166
 30
0.0
 10
-105.15812
 20
-2.89166
 30
0.0
 10
-105.15812
 20
-3.16666
 30
0.0
 10
-105.38312
 20
-3.39166
 30
0.0
 10
-105.65813
 20
-3.39166
 30
0.0
 10
-105.65813
 20
-3.39166
 30
0.0
 10
-111.65812
 20
-3.39166
 30
0.0
 10
-111.65812
 20
-3.39166
 30
0.0
 10
-111.93313
 20
-3.39166
 30
0.0
 10
-112.15812
 20
-3.16664
 30
0.0
 10
-112.15812
 20
-2.89166
 30
0.0
  0
SPLINE
  5
9A
330
1F
100
AcDbEntity
  8
Layer 1
 62
   250
370
     9
100
AcDbSpline
210
0.0
220
0.0
230
1.0
 70
    11
 71
     3
 72
    29
 73
    25
 74
     0
 42
0.0000000001
 43
0.0000000001
 40
0.0
 40
0.0
 40
0.0
 40
0.0
 40
0.125
 40
0.125
 40
0.125
 40
0.25
 40
0.25
 40
0.25
 40
0.375
 40
0.375
 40
0.375
 40
0.5
 40
0.5
 40
0.5
 40
0.625
 40
0.625
 40
0.625
 40
0.75
 40
0.75
 40
0.75
 40
0.875
 40
0.875
 40
0.875
 40
1.0
 40
1.0
 40
1.0
 40
1.0
 10
-112.15812
 20
1.00834
 30
0.0
 10
-112.15812
 20
1.00834
 30
0.0
 10
-112.15812
 20
3.50834
 30
0.0
 10
-112.15812
 20
3.50834
 30
0.0
 10
-112.15812
 20
3.78332
 30
0.0
 10
-111.93311
 20
4.00834
 30
0.0
 10
-111.65812
 20
4.00834
 30
0.0
 10
-111.65812
 20
4.00834
 30
0.0
 10
-105.65813
 20
4.00834
 30
0.0
 10
-105.65813
 20
4.00834
 30
0.0
 10
-105.38314
 20
4.00834
 30
0.0
 10
-105.15812
 20
3.78334
 30
0.0
 10
-105.15812
 20
3.50834
 30
0.0
 10
-105.15812
 20
3.50834
 30
0.0
 10
-105.15812
 20
1.00834
 30
0.0
 10
-105.15812
 20
1.00834
 30
0.0
 10
-105.15812
 20
0.73334
 30
0.0
 10
-105.38312
 20
0.50834
 30
0.0
 10
-105.65813
 20
0.50834
 30
0.0
 10
-105.65813
 20
0.50834
 30
0.0
 10
-111.65812
 20
0.50834
 30
0.0
 10
-111.65812
 20
0.50834
 30
0.0
 10
-111.93313
 20
0.50834
 30
0.0
 10
-112.15812
 20
0.73336
 30
0.0
 10
-112.15812
 20
1.00834
 30
0.0
  0
SPLINE
  5
9B
330
1F
100
AcDbEntity
  8
Layer 1
 62
   250
370
     9
100
AcDbSpline
210
0.0
220
0.0
230
1.0
 70
    11
 71
     3
 72
    29
 73
    25
 74
     0
 42
0.0000000001
 43
0.0000000001
 40
0.0
 40
0.0
 40
0.0
 40
0.0
 40
0.125
 40
0.125
 40
0.125
 40
0.25
 40
0.25
 40
0.25
 40
0.375
 40
0.375
 40
0.375
 40
0.5
 40
0.5
 40
0.5
 40
0.625
 40
0.625
 40
0.625
 40
0.75
 40
0.75
 40
0.75
 40
0.875
 40
0.875
 40
0.875
 40
1.0
 40
1.0
 40
1.0
 40
1.0
 10
-112.15812
 20
4.90834
 30
0.0
 10
-112.15812
 20
4.90834
 30
0.0
 10
-112.15812
 20
7.40834
 30
0.0
 10
-112.15812
 20
7.40834
 30
0.0
 10
-112.15812
 20
7.68332
 30
0.0
 10
-111.93311
 20
7.90834
 30
0.0
 10
-111.65812
 20
7.90834
 30
0.0
 10
-111.65812
 20
7.90834
 30
0.0
 10
-105.65813
 20
7.90834
 30
0.0
 10
-105.65813
 20
7.90834
 30
0.0
 10
-105.38314
 20
7.90834
 30
0.0
 10
-105.15812
 20
7.68334
 30
0.0
 10
-105.15812
 20
7.40834
 30
0.0
 10
-105.15812
 20
7.40834
 30
0.0
 10
-105.15812
 20
4.90834
 30
0.0
 10
-105.15812
 20
4.90834
 30
0.0
 10
-105.15812
 20
4.63334
 30
0.0
 10
-105.38312
 20
4.40834
 30
0.0
 10
-105.65813
 20
4.40834
 30
0.0
 10
-105.65813
 20
4.40834
 30
0.0
 10
-111.65812
 20
4.40834
 30
0.0
 10
-111.65812
 20
4.40834
 30
0.0
 10
-111.93313
 20
4.40834
 30
0.0
 10
-112.15812
 20
4.63336
 30
0.0
 10
-112.15812
 20
4.90834
 30
0.0
  0
SPLINE
  5
9C
330
1F
100
AcDbEntity
  8
Layer 1
 62
   250
370
     9
100
AcDbSpline
210
0.0
220
0.0
230
1.0
 70
    11
 71
     3
 72
    29
 73
    25
 74
     0
 42
0.0000000001
 43
0.0000000001
 40
0.0
 40
0.0
 40
0.0
 40
0.0
 40
0.125
 40
0.125
 40
0.125
 40
0.25
 40
0.25
 40
0.25
 40
0.375
 40
0.375
 40
0.375
 40
0.5
 40
0.5
 40
0.5
 40
0.625
 40
0.625
 40
0.625
 40
0.75
 40
0.75
 40
0.75
 40
0.875
 40
0.875
 40
0.875
 40
1.0
 40
1.0
 40
1.0
 40
1.0
 10
-94.75812
 20
-2.89166
 30
0.0
 10
-94.75812
 20
-2.89166
 30
0.0
 10
-94.75812
 20
-0.39166
 30
0.0
 10
-94.75812
 20
-0.39166
 30
0.0
 10
-94.75812
 20
-0.11667
 30
0.0
 10
-94.53312
 20
0.10834
 30
0.0
 10
-94.25812
 20
0.10834
 30
0.0
 10
-94.25812
 20
0.10834
 30
0.0
 10
-88.25813
 20
0.10834
 30
0.0
 10
-88.25813
 20
0.10834
 30
0.0
 10
-87.98313
 20
0.10834
 30
0.0
 10
-87.75812
 20
-0.11666
 30
0.0
 10
-87.75812
 20
-0.39166
 30
0.0
 10
-87.75812
 20
-0.39166
 30
0.0
 10
-87.75812
 20
-2.89166
 30
0.0
 10
-87.75812
 20
-2.89166
 30
0.0
 10
-87.75812
 20
-3.16666
 30
0.0
 10
-87.98312
 20
-3.39166
 30
0.0
 10
-88.25813
 20
-3.39166
 30
0.0
 10
-88.25813
 20
-3.39166
 30
0.0
 10
-94.25812
 20
-3.39166
 30
0.0
 10
-94.25812
 20
-3.39166
 30
0.0
 10
-94.53313
 20
-3.39166
 30
0.0
 10
-94.75812
 20
-3.16665
 30
0.0
 10
-94.75812
 20
-2.89166
 30
0.0
  0
SPLINE
  5
9D
330
1F
100
AcDbEntity
  8
Layer 1
 62
   250
370
     9
100
AcDbSpline
210
0.0
220
0.0
230
1.0
 70
    11
 71
     3
 72
    29
 73
    25
 74
     0
 42
0.0000000001
 43
0.0000000001
 40
0.0
 40
0.0
 40
0.0
 40
0.0
 40
0.125
 40
0.125
 40
0.125
 40
0.25
 40
0.25
 40
0.25
 40
0.375
 40
0.375
 40
0.375
 40
0.5
 40
0.5
 40
0.5
 40
0.625
 40
0.625
 40
0.625
 40
0.75
 40
0.75
 40
0.75
 40
0.875
 40
0.875
 40
0.875
 40
1.0
 40
1.0
 40
1.0
 40
1.0
 10
-94.75812
 20
1.00834
 30
0.0
 10
-94.75812
 20
1.00834
 30
0.0
 10
-94.75812
 20
3.50834
 30
0.0
 10
-94.75812
 20
3.50834
 30
0.0
 10
-94.75812
 20
3.78333
 30
0.0
 10
-94.53312
 20
4.00834
 30
0.0
 10
-94.25812
 20
4.00834
 30
0.0
 10
-94.25812
 20
4.00834
 30
0.0
 10
-88.25813
 20
4.00834
 30
0.0
 10
-88.25813
 20
4.00834
 30
0.0
 10
-87.98313
 20
4.00834
 30
0.0
 10
-87.75812
 20
3.78334
 30
0.0
 10
-87.75812
 20
3.50834
 30
0.0
 10
-87.75812
 20
3.50834
 30
0.0
 10
-87.75812
 20
1.00834
 30
0.0
 10
-87.75812
 20
1.00834
 30
0.0
 10
-87.75812
 20
0.73334
 30
0.0
 10
-87.98312
 20
0.50834
 30
0.0
 10
-88.25813
 20
0.50834
 30
0.0
 10
-88.25813
 20
0.50834
 30
0.0
 10
-94.25812
 20
0.50834
 30
0.0
 10
-94.25812
 20
0.50834
 30
0.0
 10
-94.53313
 20
0.50834
 30
0.0
 10
-94.75812
 20
0.73335
 30
0.0
 10
-94.75812
 20
1.00834
 30
0.0
  0
SPLINE
  5
9E
330
1F
100
AcDbEntity
  8
Layer 1
 62
   250
370
     9
100
AcDbSpline
210
0.0
220
0.0
230
1.0
 70
    11
 71
     3
 72
    29
 73
    25
 74
     0
 42
0.0000000001
 43
0.0000000001
 40
0.0
 40
0.0
 40
0.0
 40
0.0
 40
0.125
 40
0.125
 40
0.125
 40
0.25
 40
0.25
 40
0.25
 40
0.375
 40
0.375
 40
0.375
 40
0.5
 40
0.5
 40
0.5
 40
0.625
 40
0.625
 40
0.625
 40
0.75
 40
0.75
 40
0.75
 40
0.875
 40
0.875
 40
0.875
 40
1.0
 40
1.0
 40
1.0
 40
1.0
 10
-94.75812
 20
4.90834
 30
0.0
 10
-94.75812
 20
4.90834
 30
0.0
 10
-94.75812
 20
7.40834
 30
0.0
 10
-94.75812
 20
7.40834
 30
0.0
 10
-94.75812
 20
7.68333
 30
0.0
 10
-94.53312
 20
7.90834
 30
0.0
 10
-94.25812
 20
7.90834
 30
0.0
 10
-94.25812
 20
7.90834
 30
0.0
 10
-88.25813
 20
7.90834
 30
0.0
 10
-88.25813
 20
7.90834
 30
0.0
 10
-87.98313
 20
7.90834
 30
0.0
 10
-87.75812
 20
7.68334
 30
0.0
 10
-87.75812
 20
7.40834
 30
0.0
 10
-87.75812
 20
7.40834
 30
0.0
 10
-87.75812
 20
4.90834
 30
0.0
 10
-87.75812
 20
4.90834
 30
0.0
 10
-87.75812
 20
4.63334
 30
0.0
 10
-87.98312
 20
4.40834
 30
0.0
 10
-88.25813
 20
4.40834
 30
0.0
 10
-88.25813
 20
4.40834
 30
0.0
 10
-94.25812
 20
4.40834
 30
0.0
 10
-94.25812
 20
4.40834
 30
0.0
 10
-94.53313
 20
4.40834
 30
0.0
 10
-94.75812
 20
4.63335
 30
0.0
 10
-94.75812
 20
4.90834
 30
0.0
  0
SPLINE
  5
9F
330
1F
100
AcDbEntity
  8
Layer 1
 62
   250
370
     9
100
AcDbSpline
210
0.0
220
0.0
230
1.0
 70
    11
 71
     3
 72
    17
 73
    13
 74
     0
 42
0.0000000001
 43
0.0000000001
 40
0.0
 40
0.0
 40
0.0
 40
0.0
 40
0.25
 40
0.25
 40
0.25
 40
0.5
 40
0.5
 40
0.5
 40
0.75
 40
0.75
 40
0.75
 40
1.0
 40
1.0
 40
1.0
 40
1.0
 10
-98.65812
 20
-7.34165
 30
0.0
 10
-98.65812
 20
-7.34165
 30
0.0
 10
-98.65812
 20
-2.94165
 30
0.0
 10
-98.65812
 20
-2.94165
 30
0.0
 10
-98.65812
 20
-2.94165
 30
0.0
 10
-98.25812
 20
-2.94165
 30
0.0
 10
-98.25812
 20
-2.94165
 30
0.0
 10
-98.25812
 20
-2.94165
 30
0.0
 10
-98.25812
 20
-7.34165
 30
0.0
 10
-98.25812
 20
-7.34165
 30
0.0
 10
-98.25812
 20
-7.34165
 30
0.0
 10
-98.65812
 20
-7.34165
 30
0.0
 10
-98.65812
 20
-7.34165
 30
0.0
  0
SPLINE
  5
A0
330
1F
100
AcDbEntity
  8
Layer 1
 62
   250
370
     9
100
AcDbSpline
210
0.0
220
0.0
230
1.0
 70
    11
 71
     3
 72
    17
 73
    13
 74
     0
 42
0.0000000001
 43
0.0000000001
 40
0.0
 40
0.0
 40
0.0
 40
0.0
 40
0.25
 40
0.25
 40
0.25
 40
0.5
 40
0.5
 40
0.5
 40
0.75
 40
0.75
 40
0.75
 40
1.0
 40
1.0
 40
1.0
 40
1.0
 10
-98.65812
 20
1.45835
 30
0.0
 10
-98.65812
 20
1.45835
 30
0.0
 10
-98.65812
 20
5.85835
 30
0.0
 10
-98.65812
 20
5.85835
 30
0.0
 10
-98.65812
 20
5.85835
 30
0.0
 10
-98.25812
 20
5.85835
 30
0.0
 10
-98.25812
 20
5.85835
 30
0.0
 10
-98.25812
 20
5.85835
 30
0.0
 10
-98.25812
 20
1.45835
 30
0.0
 10
-98.25812
 20
1.45835
 30
0.0
 10
-98.25812
 20
1.45835
 30
0.0
 10
-98.65812
 20
1.45835
 30
0.0
 10
-98.65812
 20
1.45835
 30
0.0
  0
SPLINE
  5
A1
330
1F
100
AcDbEntity
  8
Layer 1
 62
   250
370
     9
100
AcDbSpline
210
0.0
220
0.0
230
1.0
 70
    11
 71
     3
 72
    17
 73
    13
 74
     0
 42
0.0000000001
 43
0.0000000001
 40
0.0
 40
0.0
 40
0.0
 40
0.0
 40
0.25
 40
0.25
 40
0.25
 40
0.5
 40
0.5
 40
0.5
 40
0.75
 40
0.75
 40
0.75
 40
1.0
 40
1.0
 40
1.0
 40
1.0
 10
-101.65812
 20
9.45835
 30
0.0
 10
-101.65812
 20
9.45835
 30
0.0
 10
-103.65812
 20
9.45835
 30
0.0
 10
-103.65812
 20
9.45835
 30
0.0
 10
-103.65812
 20
9.45835
 30
0.0
 10
-103.65812
 20
9.85835
 30
0.0
 10
-103.65812
 20
9.85835
 30
0.0
 10
-103.65812
 20
9.85835
 30
0.0
 10
-101.65812
 20
9.85835
 30
0.0
 10
-101.65812
 20
9.85835
 30
0.0
 10
-101.65812
 20
9.85835
 30
0.0
 10
-101.65812
 20
9.45835
 30
0.0
 10
-101.65812
 20
9.45835
 30
0.0
  0
SPLINE
  5
A2
330
1F
100
AcDbEntity
  8
Layer 1
 62
   250
370
     9
100
AcDbSpline
210
0.0
220
0.0
230
1.0
 70
    11
 71
     3
 72
   161
 73
   157
 74
     0
 42
0.0000000001
 43
0.0000000001
 40
0.0
 40
0.0
 40
0.0
 40
0.0
 40
0.0192307692307692
 40
0.0192307692307692
 40
0.0192307692307692
 40
0.0384615384615385
 40
0.0384615384615385
 40
0.0384615384615385
 40
0.0576923076923077
 40
0.0576923076923077
 40
0.0576923076923077
 40
0.0769230769230769
 40
0.0769230769230769
 40
0.0769230769230769
 40
0.0961538461538462
 40
0.0961538461538462
 40
0.0961538461538462
 40
0.1153846153846154
 40
0.1153846153846154
 40
0.1153846153846154
 40
0.1346153846153846
 40
0.1346153846153846
 40
0.1346153846153846
 40
0.1538461538461539
 40
0.1538461538461539
 40
0.1538461538461539
 40
0.1730769230769231
 40
0.1730769230769231
 40
0.1730769230769231
 40
0.1923076923076923
 40
0.1923076923076923
 40
0.1923076923076923
 40
0.2115384615384616
 40
0.2115384615384616
 40
0.2115384615384616
 40
0.2307692307692308
 40
0.2307692307692308
 40
0.2307692307692308
 40
0.25
 40
0.25
 40
0.25
 40
0.2692307692307693
 40
0.2692307692307693
 40
0.2692307692307693
 40
0.2884615384615385
 40
0.2884615384615385
 40
0.2884615384615385
 40
0.3076923076923077
 40
0.3076923076923077
 40
0.3076923076923077
 40
0.3269230769230769
 40
0.3269230769230769
 40
0.3269230769230769
 40
0.3461538461538461
 40
0.3461538461538461
 40
0.3461538461538461
 40
0.3653846153846154
 40
0.3653846153846154
 40
0.3653846153846154
 40
0.3846153846153846
 40
0.3846153846153846
 40
0.3846153846153846
 40
0.4038461538461539
 40
0.4038461538461539
 40
0.4038461538461539
 40
0.4230769230769231
 40
0.4230769230769231
 40
0.4230769230769231
 40
0.4423076923076923
 40
0.4423076923076923
 40
0.4423076923076923
 40
0.4615384615384616
 40
0.4615384615384616
 40
0.4615384615384616
 40
0.4807692307692308
 40
0.4807692307692308
 40
0.4807692307692308
 40
0.5
 40
0.5
 40
0.5
 40
0.5192307692307693
 40
0.5192307692307693
 40
0.5192307692307693
 40
0.5384615384615385
 40
0.5384615384615385
 40
0.5384615384615385
 40
0.5576923076923077
 40
0.5576923076923077
 40
0.5576923076923077
 40
0.576923076923077
 40
0.576923076923077
 40
0.576923076923077
 40
0.5961538461538461
 40
0.5961538461538461
 40
0.5961538461538461
 40
0.6153846153846154
 40
0.6153846153846154
 40
0.6153846153846154
 40
0.6346153846153847
 40
0.6346153846153847
 40
0.6346153846153847
 40
0.6538461538461539
 40
0.6538461538461539
 40
0.6538461538461539
 40
0.6730769230769231
 40
0.6730769230769231
 40
0.6730769230769231
 40
0.6923076923076923
 40
0.6923076923076923
 40
0.6923076923076923
 40
0.7115384615384616
 40
0.7115384615384616
 40
0.7115384615384616
 40
0.7307692307692308
 40
0.7307692307692308
 40
0.7307692307692308
 40
0.75
 40
0.75
 40
0.75
 40
0.7692307692307693
 40
0.7692307692307693
 40
0.7692307692307693
 40
0.7884615384615385
 40
0.7884615384615385
 40
0.7884615384615385
 40
0.8076923076923077
 40
0.8076923076923077
 40
0.8076923076923077
 40
0.826923076923077
 40
0.826923076923077
 40
0.826923076923077
 40
0.8461538461538463
 40
0.8461538461538463
 40
0.8461538461538463
 40
0.8653846153846154
 40
0.8653846153846154
 40
0.8653846153846154
 40
0.8846153846153847
 40
0.8846153846153847
 40
0.8846153846153847
 40
0.9038461538461539
 40
0.9038461538461539
 40
0.9038461538461539
 40
0.9230769230769231
 40
0.9230769230769231
 40
0.9230769230769231
 40
0.9423076923076924
 40
0.9423076923076924
 40
0.9423076923076924
 40
0.9615384615384616
 40
0.9615384615384616
 40
0.9615384615384616
 40
0.9807692307692308
 40
0.9807692307692308
 40
0.9807692307692308
 40
1.0
 40
1.0
 40
1.0
 40
1.0
 10
14.39185
 20
10.684
 30
0.0
 10
14.39185
 20
10.684
 30
0.0
 10
15.06899
 20
10.684
 30
0.0
 10
15.06899
 20
10.684
 30
0.0
 10
15.06899
 20
10.684
 30
0.0
 10
15.06899
 20
11.084
 30
0.0
 10
15.06899
 20
11.084
 30
0.0
 10
15.06899
 20
11.084
 30
0.0
 10
14.25827
 20
11.084
 30
0.0
 10
14.25827
 20
11.084
 30
0.0
 10
14.25827
 20
11.084
 30
0.0
 10
13.94073
 20
12.03486
 30
0.0
 10
13.94073
 20
12.03486
 30
0.0
 10
13.94073
 20
12.03486
 30
0.0
 10
13.8571
 20
12.224
 30
0.0
 10
14.07686
 20
12.224
 30
0.0
 10
14.59762
 20
12.224
 30
0.0
 10
15.09838
 20
12.224
 30
0.0
 10
15.61915
 20
12.224
 30
0.0
 10
15.88915
 20
12.224
 30
0.0
 10
15.96293
 20
11.94061
 30
0.0
 10
15.96293
 20
11.94061
 30
0.0
 10
15.96293
 20
11.94061
 30
0.0
 10
16.249
 20
11.084
 30
0.0
 10
16.249
 20
11.084
 30
0.0
 10
16.249
 20
11.084
 30
0.0
 10
16.38258
 20
10.684
 30
0.0
 10
16.38258
 20
10.684
 30
0.0
 10
16.38258
 20
10.684
 30
0.0
 10
16.76328
 20
9.544
 30
0.0
 10
16.76328
 20
9.544
 30
0.0
 10
16.76328
 20
9.544
 30
0.0
 10
16.0515
 20
9.544
 30
0.0
 10
16.0515
 20
9.544
 30
0.0
 10
16.0515
 20
9.544
 30
0.0
 10
16.0515
 20
9.144
 30
0.0
 10
16.0515
 20
9.144
 30
0.0
 10
16.0515
 20
9.144
 30
0.0
 10
16.89687
 20
9.144
 30
0.0
 10
16.89687
 20
9.144
 30
0.0
 10
16.89687
 20
9.144
 30
0.0
 10
17.27757
 20
8.004
 30
0.0
 10
17.27757
 20
8.004
 30
0.0
 10
17.27757
 20
8.004
 30
0.0
 10
16.56579
 20
8.004
 30
0.0
 10
16.56579
 20
8.004
 30
0.0
 10
16.56579
 20
8.004
 30
0.0
 10
16.56579
 20
7.604
 30
0.0
 10
16.56579
 20
7.604
 30
0.0
 10
16.56579
 20
7.604
 30
0.0
 10
17.41115
 20
7.604
 30
0.0
 10
17.41115
 20
7.604
 30
0.0
 10
17.41115
 20
7.604
 30
0.0
 10
17.79185
 20
6.464
 30
0.0
 10
17.79185
 20
6.464
 30
0.0
 10
17.79185
 20
6.464
 30
0.0
 10
17.08007
 20
6.464
 30
0.0
 10
17.08007
 20
6.464
 30
0.0
 10
17.08007
 20
6.464
 30
0.0
 10
17.08007
 20
6.064
 30
0.0
 10
17.08007
 20
6.064
 30
0.0
 10
17.08007
 20
6.064
 30
0.0
 10
17.92544
 20
6.064
 30
0.0
 10
17.92544
 20
6.064
 30
0.0
 10
17.92544
 20
6.064
 30
0.0
 10
18.30614
 20
4.924
 30
0.0
 10
18.30614
 20
4.924
 30
0.0
 10
18.30614
 20
4.924
 30
0.0
 10
17.59436
 20
4.924
 30
0.0
 10
17.59436
 20
4.924
 30
0.0
 10
17.59436
 20
4.924
 30
0.0
 10
17.59436
 20
4.524
 30
0.0
 10
17.59436
 20
4.524
 30
0.0
 10
17.59436
 20
4.524
 30
0.0
 10
18.43972
 20
4.524
 30
0.0
 10
18.43972
 20
4.524
 30
0.0
 10
18.43972
 20
4.524
 30
0.0
 10
18.82042
 20
3.384
 30
0.0
 10
18.82042
 20
3.384
 30
0.0
 10
18.82042
 20
3.384
 30
0.0
 10
18.10864
 20
3.384
 30
0.0
 10
18.10864
 20
3.384
 30
0.0
 10
18.10864
 20
3.384
 30
0.0
 10
18.10864
 20
2.984
 30
0.0
 10
18.10864
 20
2.984
 30
0.0
 10
18.10864
 20
2.984
 30
0.0
 10
18.95401
 20
2.984
 30
0.0
 10
18.95401
 20
2.984
 30
0.0
 10
18.95401
 20
2.984
 30
0.0
 10
19.33471
 20
1.844
 30
0.0
 10
19.33471
 20
1.844
 30
0.0
 10
19.33471
 20
1.844
 30
0.0
 10
18.62293
 20
1.844
 30
0.0
 10
18.62293
 20
1.844
 30
0.0
 10
18.62293
 20
1.844
 30
0.0
 10
18.62293
 20
1.444
 30
0.0
 10
18.62293
 20
1.444
 30
0.0
 10
18.62293
 20
1.444
 30
0.0
 10
19.46829
 20
1.444
 30
0.0
 10
19.46829
 20
1.444
 30
0.0
 10
19.46829
 20
1.444
 30
0.0
 10
19.84899
 20
0.304
 30
0.0
 10
19.84899
 20
0.304
 30
0.0
 10
19.84899
 20
0.304
 30
0.0
 10
19.13721
 20
0.304
 30
0.0
 10
19.13721
 20
0.304
 30
0.0
 10
19.13721
 20
0.304
 30
0.0
 10
19.13721
 20
-0.096
 30
0.0
 10
19.13721
 20
-0.096
 30
0.0
 10
19.13721
 20
-0.096
 30
0.0
 10
19.98258
 20
-0.096
 30
0.0
 10
19.98258
 20
-0.096
 30
0.0
 10
19.98258
 20
-0.096
 30
0.0
 10
20.36328
 20
-1.236
 30
0.0
 10
20.36328
 20
-1.236
 30
0.0
 10
20.36328
 20
-1.236
 30
0.0
 10
19.6515
 20
-1.236
 30
0.0
 10
19.6515
 20
-1.236
 30
0.0
 10
19.6515
 20
-1.236
 30
0.0
 10
19.6515
 20
-1.636
 30
0.0
 10
19.6515
 20
-1.636
 30
0.0
 10
19.6515
 20
-1.636
 30
0.0
 10
20.49686
 20
-1.636
 30
0.0
 10
20.49686
 20
-1.636
 30
0.0
 10
20.49686
 20
-1.636
 30
0.0
 10
20.87756
 20
-2.776
 30
0.0
 10
20.87756
 20
-2.776
 30
0.0
 10
20.87756
 20
-2.776
 30
0.0
 10
20.16578
 20
-2.776
 30
0.0
 10
20.16578
 20
-2.776
 30
0.0
 10
20.16578
 20
-2.776
 30
0.0
 10
20.16578
 20
-3.176
 30
0.0
 10
20.16578
 20
-3.176
 30
0.0
 10
20.16578
 20
-3.176
 30
0.0
 10
21.01115
 20
-3.176
 30
0.0
 10
21.01115
 20
-3.176
 30
0.0
 10
21.01115
 20
-3.176
 30
0.0
 10
21.39185
 20
-4.316
 30
0.0
 10
21.39185
 20
-4.316
 30
0.0
 10
21.39185
 20
-4.316
 30
0.0
 10
20.89648
 20
-4.316
 30
0.0
 10
20.89648
 20
-4.316
 30
0.0
 10
20.89648
 20
-4.316
 30
0.0
 10
20.89648
 20
-4.716
 30
0.0
 10
20.89648
 20
-4.716
 30
0.0
 10
20.89648
 20
-4.716
 30
0.0
 10
19.89648
 20
-4.716
 30
0.0
 10
19.89648
 20
-4.716
 30
0.0
 10
19.89648
 20
-4.716
 30
0.0
 10
19.89648
 20
-4.316
 30
0.0
 10
19.89648
 20
-4.316
 30
0.0
 10
19.89648
 20
-4.316
 30
0.0
 10
19.40112
 20
-4.316
 30
0.0
 10
19.40112
 20
-4.316
 30
0.0
 10
19.40112
 20
-4.316
 30
0.0
 10
14.39185
 20
10.684
 30
0.0
 10
14.39185
 20
10.684
 30
0.0
  0
SPLINE
  5
A3
330
1F
100
AcDbEntity
  8
Layer 1
 62
   250
370
     9
100
AcDbSpline
210
0.0
220
0.0
230
1.0
 70
    11
 71
     3
 72
    29
 73
    25
 74
     0
 42
0.0000000001
 43
0.0000000001
 40
0.0
 40
0.0
 40
0.0
 40
0.0
 40
0.125
 40
0.125
 40
0.125
 40
0.25
 40
0.25
 40
0.25
 40
0.375
 40
0.375
 40
0.375
 40
0.5
 40
0.5
 40
0.5
 40
0.625
 40
0.625
 40
0.625
 40
0.75
 40
0.75
 40
0.75
 40
0.875
 40
0.875
 40
0.875
 40
1.0
 40
1.0
 40
1.0
 40
1.0
 10
19.78747
 20
-77.6306
 30
0.0
 10
19.78747
 20
-77.6306
 30
0.0
 10
22.28747
 20
-77.6306
 30
0.0
 10
22.28747
 20
-77.6306
 30
0.0
 10
22.56247
 20
-77.6306
 30
0.0
 10
22.78747
 20
-77.85559
 30
0.0
 10
22.78747
 20
-78.1306
 30
0.0
 10
22.78747
 20
-78.1306
 30
0.0
 10
22.78747
 20
-84.13059
 30
0.0
 10
22.78747
 20
-84.13059
 30
0.0
 10
22.78747
 20
-84.4056
 30
0.0
 10
22.56247
 20
-84.6306
 30
0.0
 10
22.28747
 20
-84.6306
 30
0.0
 10
22.28747
 20
-84.6306
 30
0.0
 10
19.78747
 20
-84.6306
 30
0.0
 10
19.78747
 20
-84.6306
 30
0.0
 10
19.51247
 20
-84.6306
 30
0.0
 10
19.28747
 20
-84.4056
 30
0.0
 10
19.28747
 20
-84.13059
 30
0.0
 10
19.28747
 20
-84.13059
 30
0.0
 10
19.28747
 20
-78.1306
 30
0.0
 10
19.28747
 20
-78.1306
 30
0.0
 10
19.28747
 20
-77.85559
 30
0.0
 10
19.51247
 20
-77.6306
 30
0.0
 10
19.78747
 20
-77.6306
 30
0.0
  0
SPLINE
  5
A4
330
1F
100
AcDbEntity
  8
Layer 1
 62
   250
370
     9
100
AcDbSpline
210
0.0
220
0.0
230
1.0
 70
    11
 71
     3
 72
   119
 73
   115
 74
     0
 42
0.0000000001
 43
0.0000000001
 40
0.0
 40
0.0
 40
0.0
 40
0.0
 40
0.0263157894736842
 40
0.0263157894736842
 40
0.0263157894736842
 40
0.0526315789473684
 40
0.0526315789473684
 40
0.0526315789473684
 40
0.0789473684210526
 40
0.0789473684210526
 40
0.0789473684210526
 40
0.1052631578947368
 40
0.1052631578947368
 40
0.1052631578947368
 40
0.131578947368421
 40
0.131578947368421
 40
0.131578947368421
 40
0.1578947368421053
 40
0.1578947368421053
 40
0.1578947368421053
 40
0.1842105263157895
 40
0.1842105263157895
 40
0.1842105263157895
 40
0.2105263157894737
 40
0.2105263157894737
 40
0.2105263157894737
 40
0.2368421052631579
 40
0.2368421052631579
 40
0.2368421052631579
 40
0.2631578947368421
 40
0.2631578947368421
 40
0.2631578947368421
 40
0.2894736842105263
 40
0.2894736842105263
 40
0.2894736842105263
 40
0.3157894736842105
 40
0.3157894736842105
 40
0.3157894736842105
 40
0.3421052631578947
 40
0.3421052631578947
 40
0.3421052631578947
 40
0.3684210526315789
 40
0.3684210526315789
 40
0.3684210526315789
 40
0.3947368421052632
 40
0.3947368421052632
 40
0.3947368421052632
 40
0.4210526315789473
 40
0.4210526315789473
 40
0.4210526315789473
 40
0.4473684210526315
 40
0.4473684210526315
 40
0.4473684210526315
 40
0.4736842105263158
 40
0.4736842105263158
 40
0.4736842105263158
 40
0.5
 40
0.5
 40
0.5
 40
0.5263157894736842
 40
0.5263157894736842
 40
0.5263157894736842
 40
0.5526315789473684
 40
0.5526315789473684
 40
0.5526315789473684
 40
0.5789473684210527
 40
0.5789473684210527
 40
0.5789473684210527
 40
0.6052631578947368
 40
0.6052631578947368
 40
0.6052631578947368
 40
0.631578947368421
 40
0.631578947368421
 40
0.631578947368421
 40
0.6578947368421052
 40
0.6578947368421052
 40
0.6578947368421052
 40
0.6842105263157894
 40
0.6842105263157894
 40
0.6842105263157894
 40
0.7105263157894737
 40
0.7105263157894737
 40
0.7105263157894737
 40
0.7368421052631579
 40
0.7368421052631579
 40
0.7368421052631579
 40
0.763157894736842
 40
0.763157894736842
 40
0.763157894736842
 40
0.7894736842105263
 40
0.7894736842105263
 40
0.7894736842105263
 40
0.8157894736842105
 40
0.8157894736842105
 40
0.8157894736842105
 40
0.8421052631578947
 40
0.8421052631578947
 40
0.8421052631578947
 40
0.8684210526315789
 40
0.8684210526315789
 40
0.8684210526315789
 40
0.894736842105263
 40
0.894736842105263
 40
0.894736842105263
 40
0.9210526315789473
 40
0.9210526315789473
 40
0.9210526315789473
 40
0.9473684210526315
 40
0.9473684210526315
 40
0.9473684210526315
 40
0.9736842105263157
 40
0.9736842105263157
 40
0.9736842105263157
 40
1.0
 40
1.0
 40
1.0
 40
1.0
 10
7.13748
 20
-76.79714
 30
0.0
 10
7.13748
 20
-76.79714
 30
0.0
 10
6.73748
 20
-76.79714
 30
0.0
 10
6.73748
 20
-76.79714
 30
0.0
 10
6.73748
 20
-76.79714
 30
0.0
 10
6.73748
 20
-69.83747
 30
0.0
 10
6.73748
 20
-69.83747
 30
0.0
 10
6.73748
 20
-69.83747
 30
0.0
 10
7.13748
 20
-69.83747
 30
0.0
 10
7.13748
 20
-69.83747
 30
0.0
 10
7.13748
 20
-69.83747
 30
0.0
 10
7.13748
 20
-64.1217
 30
0.0
 10
7.13748
 20
-64.1217
 30
0.0
 10
7.13748
 20
-64.1217
 30
0.0
 10
27.53748
 20
-75.89965
 30
0.0
 10
27.53748
 20
-75.89965
 30
0.0
 10
27.53748
 20
-75.89965
 30
0.0
 10
27.53748
 20
-76.1306
 30
0.0
 10
27.53748
 20
-76.1306
 30
0.0
 10
27.53748
 20
-76.1306
 30
0.0
 10
27.53748
 20
-76.79714
 30
0.0
 10
27.53748
 20
-76.79714
 30
0.0
 10
27.53748
 20
-76.79714
 30
0.0
 10
27.93748
 20
-76.79714
 30
0.0
 10
27.93748
 20
-76.79714
 30
0.0
 10
27.93748
 20
-76.79714
 30
0.0
 10
27.93748
 20
-79.79714
 30
0.0
 10
27.93748
 20
-79.79714
 30
0.0
 10
27.93748
 20
-79.79714
 30
0.0
 10
27.53748
 20
-79.79714
 30
0.0
 10
27.53748
 20
-79.79714
 30
0.0
 10
27.53748
 20
-79.79714
 30
0.0
 10
27.53748
 20
-86.99714
 30
0.0
 10
27.53748
 20
-86.99714
 30
0.0
 10
27.53748
 20
-86.99714
 30
0.0
 10
27.93748
 20
-86.99714
 30
0.0
 10
27.93748
 20
-86.99714
 30
0.0
 10
27.93748
 20
-86.99714
 30
0.0
 10
27.93748
 20
-89.99714
 30
0.0
 10
27.93748
 20
-89.99714
 30
0.0
 10
27.93748
 20
-89.99714
 30
0.0
 10
27.53748
 20
-89.99714
 30
0.0
 10
27.53748
 20
-89.99714
 30
0.0
 10
27.53748
 20
-89.99714
 30
0.0
 10
27.53748
 20
-91.1306
 30
0.0
 10
27.53748
 20
-91.1306
 30
0.0
 10
27.53748
 20
-91.1306
 30
0.0
 10
26.73748
 20
-91.1306
 30
0.0
 10
26.73748
 20
-91.1306
 30
0.0
 10
26.73748
 20
-91.1306
 30
0.0
 10
26.73748
 20
-91.5306
 30
0.0
 10
26.73748
 20
-91.5306
 30
0.0
 10
26.73748
 20
-91.5306
 30
0.0
 10
23.73748
 20
-91.5306
 30
0.0
 10
23.73748
 20
-91.5306
 30
0.0
 10
23.73748
 20
-91.5306
 30
0.0
 10
23.73748
 20
-91.1306
 30
0.0
 10
23.73748
 20
-91.1306
 30
0.0
 10
23.73748
 20
-91.1306
 30
0.0
 10
14.98747
 20
-91.1306
 30
0.0
 10
14.98747
 20
-91.1306
 30
0.0
 10
14.98747
 20
-91.1306
 30
0.0
 10
14.98747
 20
-78.1306
 30
0.0
 10
14.98747
 20
-78.1306
 30
0.0
 10
14.98747
 20
-77.85569
 30
0.0
 10
14.76247
 20
-77.6306
 30
0.0
 10
14.48747
 20
-77.6306
 30
0.0
 10
14.48747
 20
-77.6306
 30
0.0
 10
11.98747
 20
-77.6306
 30
0.0
 10
11.98747
 20
-77.6306
 30
0.0
 10
11.71247
 20
-77.6306
 30
0.0
 10
11.48747
 20
-77.85559
 30
0.0
 10
11.48747
 20
-78.1306
 30
0.0
 10
11.48747
 20
-78.1306
 30
0.0
 10
11.48747
 20
-91.1306
 30
0.0
 10
11.48747
 20
-91.1306
 30
0.0
 10
11.48747
 20
-91.1306
 30
0.0
 10
10.93748
 20
-91.1306
 30
0.0
 10
10.93748
 20
-91.1306
 30
0.0
 10
10.93748
 20
-91.1306
 30
0.0
 10
10.93748
 20
-91.5306
 30
0.0
 10
10.93748
 20
-91.5306
 30
0.0
 10
10.93748
 20
-91.5306
 30
0.0
 10
7.93748
 20
-91.5306
 30
0.0
 10
7.93748
 20
-91.5306
 30
0.0
 10
7.93748
 20
-91.5306
 30
0.0
 10
7.93748
 20
-91.1306
 30
0.0
 10
7.93748
 20
-91.1306
 30
0.0
 10
7.93748
 20
-91.1306
 30
0.0
 10
7.13748
 20
-91.1306
 30
0.0
 10
7.13748
 20
-91.1306
 30
0.0
 10
7.13748
 20
-91.1306
 30
0.0
 10
6.73748
 20
-91.1306
 30
0.0
 10
6.73748
 20
-91.1306
 30
0.0
 10
6.73748
 20
-91.1306
 30
0.0
 10
6.73748
 20
-89.99714
 30
0.0
 10
6.73748
 20
-89.99714
 30
0.0
 10
6.73748
 20
-89.99714
 30
0.0
 10
7.13748
 20
-89.99714
 30
0.0
 10
7.13748
 20
-89.99714
 30
0.0
 10
7.13748
 20
-89.99714
 30
0.0
 10
7.13748
 20
-86.99714
 30
0.0
 10
7.13748
 20
-86.99714
 30
0.0
 10
7.13748
 20
-86.99714
 30
0.0
 10
6.73748
 20
-86.99714
 30
0.0
 10
6.73748
 20
-86.99714
 30
0.0
 10
6.73748
 20
-86.99714
 30
0.0
 10
6.73748
 20
-79.79714
 30
0.0
 10
6.73748
 20
-79.79714
 30
0.0
 10
6.73748
 20
-79.79714
 30
0.0
 10
7.13748
 20
-79.79714
 30
0.0
 10
7.13748
 20
-79.79714
 30
0.0
 10
7.13748
 20
-79.79714
 30
0.0
 10
7.13748
 20
-76.79714
 30
0.0
 10
7.13748
 20
-76.79714
 30
0.0
  0
SPLINE
  5
A5
330
1F
100
AcDbEntity
  8
Layer 1
 62
   250
370
     9
100
AcDbSpline
210
0.0
220
0.0
230
1.0
 70
    11
 71
     3
 72
    14
 73
    10
 74
     0
 42
0.0000000001
 43
0.0000000001
 40
0.0
 40
0.0
 40
0.0
 40
0.0
 40
0.3333333333333333
 40
0.3333333333333333
 40
0.3333333333333333
 40
0.6666666666666666
 40
0.6666666666666666
 40
0.6666666666666666
 40
1.0
 40
1.0
 40
1.0
 40
1.0
 10
27.93748
 20
-76.13059
 30
0.0
 10
27.93748
 20
-76.13059
 30
0.0
 10
27.9375
 20
-76.1306
 30
0.0
 10
27.9375
 20
-76.1306
 30
0.0
 10
27.9375
 20
-76.1306
 30
0.0
 10
27.93748
 20
-76.1306
 30
0.0
 10
27.93748
 20
-76.1306
 30
0.0
 10
27.93748
 20
-76.1306
 30
0.0
 10
27.93748
 20
-76.13059
 30
0.0
 10
27.93748
 20
-76.13059
 30
0.0
  0
SPLINE
  5
A6
330
1F
100
AcDbEntity
  8
Layer 1
 62
   250
370
     9
100
AcDbSpline
210
0.0
220
0.0
230
1.0
 70
    11
 71
     3
 72
    29
 73
    25
 74
     0
 42
0.0000000001
 43
0.0000000001
 40
0.0
 40
0.0
 40
0.0
 40
0.0
 40
0.125
 40
0.125
 40
0.125
 40
0.25
 40
0.25
 40
0.25
 40
0.375
 40
0.375
 40
0.375
 40
0.5
 40
0.5
 40
0.5
 40
0.625
 40
0.625
 40
0.625
 40
0.75
 40
0.75
 40
0.75
 40
0.875
 40
0.875
 40
0.875
 40
1.0
 40
1.0
 40
1.0
 40
1.0
 10
15.88747
 20
-77.6306
 30
0.0
 10
15.88747
 20
-77.6306
 30
0.0
 10
18.38747
 20
-77.6306
 30
0.0
 10
18.38747
 20
-77.6306
 30
0.0
 10
18.66247
 20
-77.6306
 30
0.0
 10
18.88747
 20
-77.85559
 30
0.0
 10
18.88747
 20
-78.1306
 30
0.0
 10
18.88747
 20
-78.1306
 30
0.0
 10
18.88747
 20
-84.13059
 30
0.0
 10
18.88747
 20
-84.13059
 30
0.0
 10
18.88747
 20
-84.4056
 30
0.0
 10
18.66247
 20
-84.6306
 30
0.0
 10
18.38747
 20
-84.6306
 30
0.0
 10
18.38747
 20
-84.6306
 30
0.0
 10
15.88747
 20
-84.6306
 30
0.0
 10
15.88747
 20
-84.6306
 30
0.0
 10
15.61247
 20
-84.6306
 30
0.0
 10
15.38747
 20
-84.4056
 30
0.0
 10
15.38747
 20
-84.13059
 30
0.0
 10
15.38747
 20
-84.13059
 30
0.0
 10
15.38747
 20
-78.1306
 30
0.0
 10
15.38747
 20
-78.1306
 30
0.0
 10
15.38747
 20
-77.85559
 30
0.0
 10
15.61247
 20
-77.6306
 30
0.0
 10
15.88747
 20
-77.6306
 30
0.0
  0
SPLINE
  5
A7
330
1F
100
AcDbEntity
  8
Layer 1
 62
   250
370
     9
100
AcDbSpline
210
0.0
220
0.0
230
1.0
 70
    11
 71
     3
 72
    29
 73
    25
 74
     0
 42
0.0000000001
 43
0.0000000001
 40
0.0
 40
0.0
 40
0.0
 40
0.0
 40
0.125
 40
0.125
 40
0.125
 40
0.25
 40
0.25
 40
0.25
 40
0.375
 40
0.375
 40
0.375
 40
0.5
 40
0.5
 40
0.5
 40
0.625
 40
0.625
 40
0.625
 40
0.75
 40
0.75
 40
0.75
 40
0.875
 40
0.875
 40
0.875
 40
1.0
 40
1.0
 40
1.0
 40
1.0
 10
-30.7597
 20
-44.16808
 30
0.0
 10
-30.7597
 20
-44.16808
 30
0.0
 10
-20.45971
 20
-44.16808
 30
0.0
 10
-20.45971
 20
-44.16808
 30
0.0
 10
-19.79971
 20
-44.16808
 30
0.0
 10
-19.25971
 20
-44.70808
 30
0.0
 10
-19.25971
 20
-45.36808
 30
0.0
 10
-19.25971
 20
-45.36808
 30
0.0
 10
-19.25971
 20
-51.36807
 30
0.0
 10
-19.25971
 20
-51.36807
 30
0.0
 10
-19.25971
 20
-52.02807
 30
0.0
 10
-19.79971
 20
-52.56807
 30
0.0
 10
-20.45971
 20
-52.56807
 30
0.0
 10
-20.45971
 20
-52.56807
 30
0.0
 10
-30.7597
 20
-52.56807
 30
0.0
 10
-30.7597
 20
-52.56807
 30
0.0
 10
-31.4197
 20
-52.56807
 30
0.0
 10
-31.9597
 20
-52.02807
 30
0.0
 10
-31.9597
 20
-51.36807
 30
0.0
 10
-31.9597
 20
-51.36807
 30
0.0
 10
-31.9597
 20
-45.36808
 30
0.0
 10
-31.9597
 20
-45.36808
 30
0.0
 10
-31.9597
 20
-44.70808
 30
0.0
 10
-31.4197
 20
-44.16808
 30
0.0
 10
-30.7597
 20
-44.16808
 30
0.0
  0
SPLINE
  5
A8
330
1F
100
AcDbEntity
  8
Layer 1
 62
   250
370
     9
100
AcDbSpline
210
0.0
220
0.0
230
1.0
 70
    11
 71
     3
 72
    29
 73
    25
 74
     0
 42
0.0000000001
 43
0.0000000001
 40
0.0
 40
0.0
 40
0.0
 40
0.0
 40
0.125
 40
0.125
 40
0.125
 40
0.25
 40
0.25
 40
0.25
 40
0.375
 40
0.375
 40
0.375
 40
0.5
 40
0.5
 40
0.5
 40
0.625
 40
0.625
 40
0.625
 40
0.75
 40
0.75
 40
0.75
 40
0.875
 40
0.875
 40
0.875
 40
1.0
 40
1.0
 40
1.0
 40
1.0
 10
-30.7597
 20
-44.66808
 30
0.0
 10
-30.7597
 20
-44.66808
 30
0.0
 10
-20.45971
 20
-44.66808
 30
0.0
 10
-20.45971
 20
-44.66808
 30
0.0
 10
-20.07471
 20
-44.66808
 30
0.0
 10
-19.75971
 20
-44.98308
 30
0.0
 10
-19.75971
 20
-45.36808
 30
0.0
 10
-19.75971
 20
-45.36808
 30
0.0
 10
-19.75971
 20
-51.36807
 30
0.0
 10
-19.75971
 20
-51.36807
 30
0.0
 10
-19.75971
 20
-51.75307
 30
0.0
 10
-20.07471
 20
-52.06807
 30
0.0
 10
-20.45971
 20
-52.06807
 30
0.0
 10
-20.45971
 20
-52.06807
 30
0.0
 10
-30.7597
 20
-52.06807
 30
0.0
 10
-30.7597
 20
-52.06807
 30
0.0
 10
-31.1447
 20
-52.06807
 30
0.0
 10
-31.4597
 20
-51.75307
 30
0.0
 10
-31.4597
 20
-51.36807
 30
0.0
 10
-31.4597
 20
-51.36807
 30
0.0
 10
-31.4597
 20
-45.36808
 30
0.0
 10
-31.4597
 20
-45.36808
 30
0.0
 10
-31.4597
 20
-44.98308
 30
0.0
 10
-31.1447
 20
-44.66808
 30
0.0
 10
-30.7597
 20
-44.66808
 30
0.0
  0
SPLINE
  5
A9
330
1F
100
AcDbEntity
  8
Layer 1
 62
   250
370
     9
100
AcDbSpline
210
0.0
220
0.0
230
1.0
 70
    11
 71
     3
 72
    77
 73
    73
 74
     0
 42
0.0000000001
 43
0.0000000001
 40
0.0
 40
0.0
 40
0.0
 40
0.0
 40
0.0416666666666667
 40
0.0416666666666667
 40
0.0416666666666667
 40
0.0833333333333333
 40
0.0833333333333333
 40
0.0833333333333333
 40
0.125
 40
0.125
 40
0.125
 40
0.1666666666666667
 40
0.1666666666666667
 40
0.1666666666666667
 40
0.2083333333333333
 40
0.2083333333333333
 40
0.2083333333333333
 40
0.25
 40
0.25
 40
0.25
 40
0.2916666666666666
 40
0.2916666666666666
 40
0.2916666666666666
 40
0.3333333333333333
 40
0.3333333333333333
 40
0.3333333333333333
 40
0.375
 40
0.375
 40
0.375
 40
0.4166666666666666
 40
0.4166666666666666
 40
0.4166666666666666
 40
0.4583333333333333
 40
0.4583333333333333
 40
0.4583333333333333
 40
0.5
 40
0.5
 40
0.5
 40
0.5416666666666666
 40
0.5416666666666666
 40
0.5416666666666666
 40
0.5833333333333333
 40
0.5833333333333333
 40
0.5833333333333333
 40
0.625
 40
0.625
 40
0.625
 40
0.6666666666666666
 40
0.6666666666666666
 40
0.6666666666666666
 40
0.7083333333333333
 40
0.7083333333333333
 40
0.7083333333333333
 40
0.75
 40
0.75
 40
0.75
 40
0.7916666666666666
 40
0.7916666666666666
 40
0.7916666666666666
 40
0.8333333333333333
 40
0.8333333333333333
 40
0.8333333333333333
 40
0.875
 40
0.875
 40
0.875
 40
0.9166666666666666
 40
0.9166666666666666
 40
0.9166666666666666
 40
0.9583333333333333
 40
0.9583333333333333
 40
0.9583333333333333
 40
1.0
 40
1.0
 40
1.0
 40
1.0
 10
-11.0282
 20
-51.07014
 30
0.0
 10
-11.0282
 20
-51.07014
 30
0.0
 10
-10.6282
 20
-51.07014
 30
0.0
 10
-10.6282
 20
-51.07014
 30
0.0
 10
-10.6282
 20
-51.07014
 30
0.0
 10
-4.02817
 20
-51.07014
 30
0.0
 10
-4.02817
 20
-51.07014
 30
0.0
 10
-3.64318
 20
-51.07014
 30
0.0
 10
-3.32817
 20
-50.75513
 30
0.0
 10
-3.32817
 20
-50.37014
 30
0.0
 10
-3.32817
 20
-50.37014
 30
0.0
 10
-3.32817
 20
-44.37015
 30
0.0
 10
-3.32817
 20
-44.37015
 30
0.0
 10
-3.32817
 20
-43.98515
 30
0.0
 10
-3.64317
 20
-43.67015
 30
0.0
 10
-4.02817
 20
-43.67015
 30
0.0
 10
-4.02817
 20
-43.67015
 30
0.0
 10
-14.32816
 20
-43.67015
 30
0.0
 10
-14.32816
 20
-43.67015
 30
0.0
 10
-14.71315
 20
-43.67015
 30
0.0
 10
-15.02816
 20
-43.98516
 30
0.0
 10
-15.02816
 20
-44.37015
 30
0.0
 10
-15.02816
 20
-44.37015
 30
0.0
 10
-15.02816
 20
-46.96843
 30
0.0
 10
-15.02816
 20
-46.96843
 30
0.0
 10
-15.02816
 20
-46.96843
 30
0.0
 10
-15.02816
 20
-47.36843
 30
0.0
 10
-15.02816
 20
-47.36843
 30
0.0
 10
-15.02816
 20
-47.36843
 30
0.0
 10
-15.02816
 20
-57.37015
 30
0.0
 10
-15.02816
 20
-57.37015
 30
0.0
 10
-15.02816
 20
-57.37015
 30
0.0
 10
-15.52816
 20
-57.37015
 30
0.0
 10
-15.52816
 20
-57.37015
 30
0.0
 10
-15.52816
 20
-57.37015
 30
0.0
 10
-15.52816
 20
-47.36843
 30
0.0
 10
-15.52816
 20
-47.36843
 30
0.0
 10
-15.52816
 20
-47.36843
 30
0.0
 10
-15.52816
 20
-46.96843
 30
0.0
 10
-15.52816
 20
-46.96843
 30
0.0
 10
-15.52816
 20
-46.96843
 30
0.0
 10
-15.52816
 20
-44.37015
 30
0.0
 10
-15.52816
 20
-44.37015
 30
0.0
 10
-15.52816
 20
-43.71015
 30
0.0
 10
-14.98816
 20
-43.17015
 30
0.0
 10
-14.32816
 20
-43.17015
 30
0.0
 10
-14.32816
 20
-43.17015
 30
0.0
 10
-4.02817
 20
-43.17015
 30
0.0
 10
-4.02817
 20
-43.17015
 30
0.0
 10
-3.36817
 20
-43.17015
 30
0.0
 10
-2.82817
 20
-43.71015
 30
0.0
 10
-2.82817
 20
-44.37015
 30
0.0
 10
-2.82817
 20
-44.37015
 30
0.0
 10
-2.82817
 20
-50.37014
 30
0.0
 10
-2.82817
 20
-50.37014
 30
0.0
 10
-2.82817
 20
-51.03012
 30
0.0
 10
-3.36819
 20
-51.57014
 30
0.0
 10
-4.02817
 20
-51.57014
 30
0.0
 10
-4.02817
 20
-51.57014
 30
0.0
 10
-10.6282
 20
-51.57014
 30
0.0
 10
-10.6282
 20
-51.57014
 30
0.0
 10
-10.6282
 20
-51.57014
 30
0.0
 10
-10.6282
 20
-57.37015
 30
0.0
 10
-10.6282
 20
-57.37015
 30
0.0
 10
-10.6282
 20
-57.37015
 30
0.0
 10
-11.1282
 20
-57.37015
 30
0.0
 10
-11.1282
 20
-57.37015
 30
0.0
 10
-11.1282
 20
-57.37015
 30
0.0
 10
-11.1282
 20
-51.07014
 30
0.0
 10
-11.1282
 20
-51.07014
 30
0.0
 10
-11.1282
 20
-51.07014
 30
0.0
 10
-11.0282
 20
-51.07014
 30
0.0
 10
-11.0282
 20
-51.07014
 30
0.0
  0
SPLINE
  5
AA
330
1F
100
AcDbEntity
  8
Layer 1
 62
   250
370
     9
100
AcDbSpline
210
0.0
220
0.0
230
1.0
 70
    11
 71
     3
 72
   128
 73
   124
 74
     0
 42
0.0000000001
 43
0.0000000001
 40
0.0
 40
0.0
 40
0.0
 40
0.0
 40
0.024390243902439
 40
0.024390243902439
 40
0.024390243902439
 40
0.0487804878048781
 40
0.0487804878048781
 40
0.0487804878048781
 40
0.0731707317073171
 40
0.0731707317073171
 40
0.0731707317073171
 40
0.0975609756097561
 40
0.0975609756097561
 40
0.0975609756097561
 40
0.1219512195121951
 40
0.1219512195121951
 40
0.1219512195121951
 40
0.1463414634146342
 40
0.1463414634146342
 40
0.1463414634146342
 40
0.1707317073170732
 40
0.1707317073170732
 40
0.1707317073170732
 40
0.1951219512195122
 40
0.1951219512195122
 40
0.1951219512195122
 40
0.2195121951219512
 40
0.2195121951219512
 40
0.2195121951219512
 40
0.2439024390243902
 40
0.2439024390243902
 40
0.2439024390243902
 40
0.2682926829268293
 40
0.2682926829268293
 40
0.2682926829268293
 40
0.2926829268292683
 40
0.2926829268292683
 40
0.2926829268292683
 40
0.3170731707317073
 40
0.3170731707317073
 40
0.3170731707317073
 40
0.3414634146341464
 40
0.3414634146341464
 40
0.3414634146341464
 40
0.3658536585365854
 40
0.3658536585365854
 40
0.3658536585365854
 40
0.3902439024390244
 40
0.3902439024390244
 40
0.3902439024390244
 40
0.4146341463414634
 40
0.4146341463414634
 40
0.4146341463414634
 40
0.4390243902439024
 40
0.4390243902439024
 40
0.4390243902439024
 40
0.4634146341463415
 40
0.4634146341463415
 40
0.4634146341463415
 40
0.4878048780487805
 40
0.4878048780487805
 40
0.4878048780487805
 40
0.5121951219512195
 40
0.5121951219512195
 40
0.5121951219512195
 40
0.5365853658536586
 40
0.5365853658536586
 40
0.5365853658536586
 40
0.5609756097560976
 40
0.5609756097560976
 40
0.5609756097560976
 40
0.5853658536585367
 40
0.5853658536585367
 40
0.5853658536585367
 40
0.6097560975609756
 40
0.6097560975609756
 40
0.6097560975609756
 40
0.6341463414634146
 40
0.6341463414634146
 40
0.6341463414634146
 40
0.6585365853658537
 40
0.6585365853658537
 40
0.6585365853658537
 40
0.6829268292682927
 40
0.6829268292682927
 40
0.6829268292682927
 40
0.7073170731707318
 40
0.7073170731707318
 40
0.7073170731707318
 40
0.7317073170731707
 40
0.7317073170731707
 40
0.7317073170731707
 40
0.7560975609756098
 40
0.7560975609756098
 40
0.7560975609756098
 40
0.7804878048780488
 40
0.7804878048780488
 40
0.7804878048780488
 40
0.8048780487804879
 40
0.8048780487804879
 40
0.8048780487804879
 40
0.8292682926829269
 40
0.8292682926829269
 40
0.8292682926829269
 40
0.8536585365853658
 40
0.8536585365853658
 40
0.8536585365853658
 40
0.8780487804878049
 40
0.8780487804878049
 40
0.8780487804878049
 40
0.9024390243902439
 40
0.9024390243902439
 40
0.9024390243902439
 40
0.926829268292683
 40
0.926829268292683
 40
0.926829268292683
 40
0.951219512195122
 40
0.951219512195122
 40
0.951219512195122
 40
0.975609756097561
 40
0.975609756097561
 40
0.975609756097561
 40
1.0
 40
1.0
 40
1.0
 40
1.0
 10
-39.25812
 20
-67.64693
 30
0.0
 10
-39.25812
 20
-67.64693
 30
0.0
 10
-39.25812
 20
-72.04693
 30
0.0
 10
-39.25812
 20
-72.04693
 30
0.0
 10
-39.25812
 20
-72.04693
 30
0.0
 10
-38.85812
 20
-72.04693
 30
0.0
 10
-38.85812
 20
-72.04693
 30
0.0
 10
-38.85812
 20
-72.04693
 30
0.0
 10
-38.85812
 20
-76.44693
 30
0.0
 10
-38.85812
 20
-76.44693
 30
0.0
 10
-38.85812
 20
-76.44693
 30
0.0
 10
-39.25812
 20
-76.44693
 30
0.0
 10
-39.25812
 20
-76.44693
 30
0.0
 10
-39.25812
 20
-76.44693
 30
0.0
 10
-39.25812
 20
-80.84693
 30
0.0
 10
-39.25812
 20
-80.84693
 30
0.0
 10
-39.25812
 20
-80.84693
 30
0.0
 10
-38.85812
 20
-80.84693
 30
0.0
 10
-38.85812
 20
-80.84693
 30
0.0
 10
-38.85812
 20
-80.84693
 30
0.0
 10
-38.85812
 20
-85.24693
 30
0.0
 10
-38.85812
 20
-85.24693
 30
0.0
 10
-38.85812
 20
-85.24693
 30
0.0
 10
-39.25812
 20
-85.24693
 30
0.0
 10
-39.25812
 20
-85.24693
 30
0.0
 10
-39.25812
 20
-85.24693
 30
0.0
 10
-39.25812
 20
-89.24693
 30
0.0
 10
-39.25812
 20
-89.24693
 30
0.0
 10
-39.25812
 20
-89.24693
 30
0.0
 10
-44.85812
 20
-89.24693
 30
0.0
 10
-44.85812
 20
-89.24693
 30
0.0
 10
-44.85812
 20
-89.24693
 30
0.0
 10
-44.85812
 20
-89.64693
 30
0.0
 10
-44.85812
 20
-89.64693
 30
0.0
 10
-44.85812
 20
-89.64693
 30
0.0
 10
-50.85812
 20
-89.64693
 30
0.0
 10
-50.85812
 20
-89.64693
 30
0.0
 10
-50.85812
 20
-89.64693
 30
0.0
 10
-50.85812
 20
-89.24693
 30
0.0
 10
-50.85812
 20
-89.24693
 30
0.0
 10
-50.85812
 20
-89.24693
 30
0.0
 10
-56.85812
 20
-89.24693
 30
0.0
 10
-56.85812
 20
-89.24693
 30
0.0
 10
-56.85812
 20
-89.24693
 30
0.0
 10
-56.85812
 20
-89.64693
 30
0.0
 10
-56.85812
 20
-89.64693
 30
0.0
 10
-56.85812
 20
-89.64693
 30
0.0
 10
-62.85812
 20
-89.64693
 30
0.0
 10
-62.85812
 20
-89.64693
 30
0.0
 10
-62.85812
 20
-89.64693
 30
0.0
 10
-62.85812
 20
-89.24693
 30
0.0
 10
-62.85812
 20
-89.24693
 30
0.0
 10
-62.85812
 20
-89.24693
 30
0.0
 10
-68.85812
 20
-89.24693
 30
0.0
 10
-68.85812
 20
-89.24693
 30
0.0
 10
-68.85812
 20
-89.24693
 30
0.0
 10
-68.85812
 20
-89.64693
 30
0.0
 10
-68.85812
 20
-89.64693
 30
0.0
 10
-68.85812
 20
-89.64693
 30
0.0
 10
-74.85812
 20
-89.64693
 30
0.0
 10
-74.85812
 20
-89.64693
 30
0.0
 10
-74.85812
 20
-89.64693
 30
0.0
 10
-74.85812
 20
-89.24693
 30
0.0
 10
-74.85812
 20
-89.24693
 30
0.0
 10
-74.85812
 20
-89.24693
 30
0.0
 10
-80.45812
 20
-89.24693
 30
0.0
 10
-80.45812
 20
-89.24693
 30
0.0
 10
-80.45812
 20
-89.24693
 30
0.0
 10
-80.45812
 20
-89.24693
 30
0.0
 10
-80.45812
 20
-89.24693
 30
0.0
 10
-80.45812
 20
-89.24693
 30
0.0
 10
-80.45812
 20
-85.24693
 30
0.0
 10
-80.45812
 20
-85.24693
 30
0.0
 10
-80.45812
 20
-85.24693
 30
0.0
 10
-80.85812
 20
-85.24693
 30
0.0
 10
-80.85812
 20
-85.24693
 30
0.0
 10
-80.85812
 20
-85.24693
 30
0.0
 10
-80.85812
 20
-80.84693
 30
0.0
 10
-80.85812
 20
-80.84693
 30
0.0
 10
-80.85812
 20
-80.84693
 30
0.0
 10
-80.45812
 20
-80.84693
 30
0.0
 10
-80.45812
 20
-80.84693
 30
0.0
 10
-80.45812
 20
-80.84693
 30
0.0
 10
-80.45812
 20
-76.44693
 30
0.0
 10
-80.45812
 20
-76.44693
 30
0.0
 10
-80.45812
 20
-76.44693
 30
0.0
 10
-80.85812
 20
-76.44693
 30
0.0
 10
-80.85812
 20
-76.44693
 30
0.0
 10
-80.85812
 20
-76.44693
 30
0.0
 10
-80.85812
 20
-72.04693
 30
0.0
 10
-80.85812
 20
-72.04693
 30
0.0
 10
-80.85812
 20
-72.04693
 30
0.0
 10
-80.45812
 20
-72.04693
 30
0.0
 10
-80.45812
 20
-72.04693
 30
0.0
 10
-80.45812
 20
-72.04693
 30
0.0
 10
-80.45812
 20
-67.64693
 30
0.0
 10
-80.45812
 20
-67.64693
 30
0.0
 10
-80.45812
 20
-67.64693
 30
0.0
 10
-61.45812
 20
-67.64693
 30
0.0
 10
-61.45812
 20
-67.64693
 30
0.0
 10
-61.45812
 20
-67.64693
 30
0.0
 10
-61.45812
 20
-68.36979
 30
0.0
 10
-61.45812
 20
-68.36979
 30
0.0
 10
-61.45812
 20
-68.36979
 30
0.0
 10
-61.05812
 20
-68.36979
 30
0.0
 10
-61.05812
 20
-68.36979
 30
0.0
 10
-61.05812
 20
-68.36979
 30
0.0
 10
-61.05812
 20
-67.64693
 30
0.0
 10
-61.05812
 20
-67.64693
 30
0.0
 10
-61.05812
 20
-67.64693
 30
0.0
 10
-58.65812
 20
-67.64693
 30
0.0
 10
-58.65812
 20
-67.64693
 30
0.0
 10
-58.65812
 20
-67.64693
 30
0.0
 10
-58.65812
 20
-68.36979
 30
0.0
 10
-58.65812
 20
-68.36979
 30
0.0
 10
-58.65812
 20
-68.36979
 30
0.0
 10
-58.25812
 20
-68.36979
 30
0.0
 10
-58.25812
 20
-68.36979
 30
0.0
 10
-58.25812
 20
-68.36979
 30
0.0
 10
-58.25812
 20
-67.64693
 30
0.0
 10
-58.25812
 20
-67.64693
 30
0.0
 10
-58.25812
 20
-67.64693
 30
0.0
 10
-39.25812
 20
-67.64693
 30
0.0
 10
-39.25812
 20
-67.64693
 30
0.0
  0
SPLINE
  5
AB
330
1F
100
AcDbEntity
  8
Layer 1
 62
   250
370
     9
100
AcDbSpline
210
0.0
220
0.0
230
1.0
 70
    11
 71
     3
 72
    17
 73
    13
 74
     0
 42
0.0000000001
 43
0.0000000001
 40
0.0
 40
0.0
 40
0.0
 40
0.0
 40
0.25
 40
0.25
 40
0.25
 40
0.5
 40
0.5
 40
0.5
 40
0.75
 40
0.75
 40
0.75
 40
1.0
 40
1.0
 40
1.0
 40
1.0
 10
-69.05812
 20
-68.44693
 30
0.0
 10
-69.05812
 20
-68.44693
 30
0.0
 10
-69.05812
 20
-68.04693
 30
0.0
 10
-69.05812
 20
-68.04693
 30
0.0
 10
-69.05812
 20
-68.04693
 30
0.0
 10
-65.25812
 20
-68.04693
 30
0.0
 10
-65.25812
 20
-68.04693
 30
0.0
 10
-65.25812
 20
-68.04693
 30
0.0
 10
-65.25812
 20
-68.44693
 30
0.0
 10
-65.25812
 20
-68.44693
 30
0.0
 10
-65.25812
 20
-68.44693
 30
0.0
 10
-69.05812
 20
-68.44693
 30
0.0
 10
-69.05812
 20
-68.44693
 30
0.0
  0
SPLINE
  5
AC
330
1F
100
AcDbEntity
  8
Layer 1
 62
   250
370
     9
100
AcDbSpline
210
0.0
220
0.0
230
1.0
 70
    11
 71
     3
 72
    17
 73
    13
 74
     0
 42
0.0000000001
 43
0.0000000001
 40
0.0
 40
0.0
 40
0.0
 40
0.0
 40
0.25
 40
0.25
 40
0.25
 40
0.5
 40
0.5
 40
0.5
 40
0.75
 40
0.75
 40
0.75
 40
1.0
 40
1.0
 40
1.0
 40
1.0
 10
-76.65812
 20
-68.44693
 30
0.0
 10
-76.65812
 20
-68.44693
 30
0.0
 10
-76.65812
 20
-68.04693
 30
0.0
 10
-76.65812
 20
-68.04693
 30
0.0
 10
-76.65812
 20
-68.04693
 30
0.0
 10
-72.85812
 20
-68.04693
 30
0.0
 10
-72.85812
 20
-68.04693
 30
0.0
 10
-72.85812
 20
-68.04693
 30
0.0
 10
-72.85812
 20
-68.44693
 30
0.0
 10
-72.85812
 20
-68.44693
 30
0.0
 10
-72.85812
 20
-68.44693
 30
0.0
 10
-76.65812
 20
-68.44693
 30
0.0
 10
-76.65812
 20
-68.44693
 30
0.0
  0
SPLINE
  5
AD
330
1F
100
AcDbEntity
  8
Layer 1
 62
   250
370
     9
100
AcDbSpline
210
0.0
220
0.0
230
1.0
 70
    11
 71
     3
 72
    17
 73
    13
 74
     0
 42
0.0000000001
 43
0.0000000001
 40
0.0
 40
0.0
 40
0.0
 40
0.0
 40
0.25
 40
0.25
 40
0.25
 40
0.5
 40
0.5
 40
0.5
 40
0.75
 40
0.75
 40
0.75
 40
1.0
 40
1.0
 40
1.0
 40
1.0
 10
-50.65812
 20
-68.44693
 30
0.0
 10
-50.65812
 20
-68.44693
 30
0.0
 10
-50.65812
 20
-68.04693
 30
0.0
 10
-50.65812
 20
-68.04693
 30
0.0
 10
-50.65812
 20
-68.04693
 30
0.0
 10
-54.45812
 20
-68.04693
 30
0.0
 10
-54.45812
 20
-68.04693
 30
0.0
 10
-54.45812
 20
-68.04693
 30
0.0
 10
-54.45812
 20
-68.44693
 30
0.0
 10
-54.45812
 20
-68.44693
 30
0.0
 10
-54.45812
 20
-68.44693
 30
0.0
 10
-50.65812
 20
-68.44693
 30
0.0
 10
-50.65812
 20
-68.44693
 30
0.0
  0
SPLINE
  5
AE
330
1F
100
AcDbEntity
  8
Layer 1
 62
   250
370
     9
100
AcDbSpline
210
0.0
220
0.0
230
1.0
 70
    11
 71
     3
 72
    17
 73
    13
 74
     0
 42
0.0000000001
 43
0.0000000001
 40
0.0
 40
0.0
 40
0.0
 40
0.0
 40
0.25
 40
0.25
 40
0.25
 40
0.5
 40
0.5
 40
0.5
 40
0.75
 40
0.75
 40
0.75
 40
1.0
 40
1.0
 40
1.0
 40
1.0
 10
-43.05812
 20
-68.44693
 30
0.0
 10
-43.05812
 20
-68.44693
 30
0.0
 10
-43.05812
 20
-68.04693
 30
0.0
 10
-43.05812
 20
-68.04693
 30
0.0
 10
-43.05812
 20
-68.04693
 30
0.0
 10
-46.85812
 20
-68.04693
 30
0.0
 10
-46.85812
 20
-68.04693
 30
0.0
 10
-46.85812
 20
-68.04693
 30
0.0
 10
-46.85812
 20
-68.44693
 30
0.0
 10
-46.85812
 20
-68.44693
 30
0.0
 10
-46.85812
 20
-68.44693
 30
0.0
 10
-43.05812
 20
-68.44693
 30
0.0
 10
-43.05812
 20
-68.44693
 30
0.0
  0
SPLINE
  5
AF
330
1F
100
AcDbEntity
  8
Layer 1
 62
   250
370
     9
100
AcDbSpline
210
0.0
220
0.0
230
1.0
 70
    11
 71
     3
 72
    17
 73
    13
 74
     0
 42
0.0000000001
 43
0.0000000001
 40
0.0
 40
0.0
 40
0.0
 40
0.0
 40
0.25
 40
0.25
 40
0.25
 40
0.5
 40
0.5
 40
0.5
 40
0.75
 40
0.75
 40
0.75
 40
1.0
 40
1.0
 40
1.0
 40
1.0
 10
-60.05812
 20
-87.94693
 30
0.0
 10
-60.05812
 20
-87.94693
 30
0.0
 10
-60.05812
 20
-85.94693
 30
0.0
 10
-60.05812
 20
-85.94693
 30
0.0
 10
-60.05812
 20
-85.94693
 30
0.0
 10
-59.65812
 20
-85.94693
 30
0.0
 10
-59.65812
 20
-85.94693
 30
0.0
 10
-59.65812
 20
-85.94693
 30
0.0
 10
-59.65812
 20
-87.94693
 30
0.0
 10
-59.65812
 20
-87.94693
 30
0.0
 10
-59.65812
 20
-87.94693
 30
0.0
 10
-60.05812
 20
-87.94693
 30
0.0
 10
-60.05812
 20
-87.94693
 30
0.0
  0
SPLINE
  5
B0
330
1F
100
AcDbEntity
  8
Layer 1
 62
   250
370
     9
100
AcDbSpline
210
0.0
220
0.0
230
1.0
 70
    11
 71
     3
 72
    17
 73
    13
 74
     0
 42
0.0000000001
 43
0.0000000001
 40
0.0
 40
0.0
 40
0.0
 40
0.0
 40
0.25
 40
0.25
 40
0.25
 40
0.5
 40
0.5
 40
0.5
 40
0.75
 40
0.75
 40
0.75
 40
1.0
 40
1.0
 40
1.0
 40
1.0
 10
-43.05812
 20
-84.64693
 30
0.0
 10
-43.05812
 20
-84.64693
 30
0.0
 10
-43.05812
 20
-84.24693
 30
0.0
 10
-43.05812
 20
-84.24693
 30
0.0
 10
-43.05812
 20
-84.24693
 30
0.0
 10
-40.05812
 20
-84.24693
 30
0.0
 10
-40.05812
 20
-84.24693
 30
0.0
 10
-40.05812
 20
-84.24693
 30
0.0
 10
-40.05812
 20
-84.64693
 30
0.0
 10
-40.05812
 20
-84.64693
 30
0.0
 10
-40.05812
 20
-84.64693
 30
0.0
 10
-43.05812
 20
-84.64693
 30
0.0
 10
-43.05812
 20
-84.64693
 30
0.0
  0
SPLINE
  5
B1
330
1F
100
AcDbEntity
  8
Layer 1
 62
   250
370
     9
100
AcDbSpline
210
0.0
220
0.0
230
1.0
 70
    11
 71
     3
 72
    17
 73
    13
 74
     0
 42
0.0000000001
 43
0.0000000001
 40
0.0
 40
0.0
 40
0.0
 40
0.0
 40
0.25
 40
0.25
 40
0.25
 40
0.5
 40
0.5
 40
0.5
 40
0.75
 40
0.75
 40
0.75
 40
1.0
 40
1.0
 40
1.0
 40
1.0
 10
-58.85812
 20
-84.64693
 30
0.0
 10
-58.85812
 20
-84.64693
 30
0.0
 10
-58.85812
 20
-84.24693
 30
0.0
 10
-58.85812
 20
-84.24693
 30
0.0
 10
-58.85812
 20
-84.24693
 30
0.0
 10
-55.85812
 20
-84.24693
 30
0.0
 10
-55.85812
 20
-84.24693
 30
0.0
 10
-55.85812
 20
-84.24693
 30
0.0
 10
-55.85812
 20
-84.64693
 30
0.0
 10
-55.85812
 20
-84.64693
 30
0.0
 10
-55.85812
 20
-84.64693
 30
0.0
 10
-58.85812
 20
-84.64693
 30
0.0
 10
-58.85812
 20
-84.64693
 30
0.0
  0
SPLINE
  5
B2
330
1F
100
AcDbEntity
  8
Layer 1
 62
   250
370
     9
100
AcDbSpline
210
0.0
220
0.0
230
1.0
 70
    11
 71
     3
 72
    17
 73
    13
 74
     0
 42
0.0000000001
 43
0.0000000001
 40
0.0
 40
0.0
 40
0.0
 40
0.0
 40
0.25
 40
0.25
 40
0.25
 40
0.5
 40
0.5
 40
0.5
 40
0.75
 40
0.75
 40
0.75
 40
1.0
 40
1.0
 40
1.0
 40
1.0
 10
-41.33312
 20
-76.44693
 30
0.0
 10
-41.33312
 20
-76.44693
 30
0.0
 10
-41.33312
 20
-75.84693
 30
0.0
 10
-41.33312
 20
-75.84693
 30
0.0
 10
-41.33312
 20
-75.84693
 30
0.0
 10
-40.93312
 20
-75.84693
 30
0.0
 10
-40.93312
 20
-75.84693
 30
0.0
 10
-40.93312
 20
-75.84693
 30
0.0
 10
-40.93312
 20
-76.44693
 30
0.0
 10
-40.93312
 20
-76.44693
 30
0.0
 10
-40.93312
 20
-76.44693
 30
0.0
 10
-41.33312
 20
-76.44693
 30
0.0
 10
-41.33312
 20
-76.44693
 30
0.0
  0
SPLINE
  5
B3
330
1F
100
AcDbEntity
  8
Layer 1
 62
   250
370
     9
100
AcDbSpline
210
0.0
220
0.0
230
1.0
 70
    11
 71
     3
 72
    17
 73
    13
 74
     0
 42
0.0000000001
 43
0.0000000001
 40
0.0
 40
0.0
 40
0.0
 40
0.0
 40
0.25
 40
0.25
 40
0.25
 40
0.5
 40
0.5
 40
0.5
 40
0.75
 40
0.75
 40
0.75
 40
1.0
 40
1.0
 40
1.0
 40
1.0
 10
-57.58312
 20
-76.44693
 30
0.0
 10
-57.58312
 20
-76.44693
 30
0.0
 10
-57.58312
 20
-75.84693
 30
0.0
 10
-57.58312
 20
-75.84693
 30
0.0
 10
-57.58312
 20
-75.84693
 30
0.0
 10
-57.18312
 20
-75.84693
 30
0.0
 10
-57.18312
 20
-75.84693
 30
0.0
 10
-57.18312
 20
-75.84693
 30
0.0
 10
-57.18312
 20
-76.44693
 30
0.0
 10
-57.18312
 20
-76.44693
 30
0.0
 10
-57.18312
 20
-76.44693
 30
0.0
 10
-57.58312
 20
-76.44693
 30
0.0
 10
-57.58312
 20
-76.44693
 30
0.0
  0
SPLINE
  5
B4
330
1F
100
AcDbEntity
  8
Layer 1
 62
   250
370
     9
100
AcDbSpline
210
0.0
220
0.0
230
1.0
 70
    11
 71
     3
 72
    17
 73
    13
 74
     0
 42
0.0000000001
 43
0.0000000001
 40
0.0
 40
0.0
 40
0.0
 40
0.0
 40
0.25
 40
0.25
 40
0.25
 40
0.5
 40
0.5
 40
0.5
 40
0.75
 40
0.75
 40
0.75
 40
1.0
 40
1.0
 40
1.0
 40
1.0
 10
-62.53312
 20
-76.44693
 30
0.0
 10
-62.53312
 20
-76.44693
 30
0.0
 10
-62.53312
 20
-75.84693
 30
0.0
 10
-62.53312
 20
-75.84693
 30
0.0
 10
-62.53312
 20
-75.84693
 30
0.0
 10
-62.13312
 20
-75.84693
 30
0.0
 10
-62.13312
 20
-75.84693
 30
0.0
 10
-62.13312
 20
-75.84693
 30
0.0
 10
-62.13312
 20
-76.44693
 30
0.0
 10
-62.13312
 20
-76.44693
 30
0.0
 10
-62.13312
 20
-76.44693
 30
0.0
 10
-62.53312
 20
-76.44693
 30
0.0
 10
-62.53312
 20
-76.44693
 30
0.0
  0
SPLINE
  5
B5
330
1F
100
AcDbEntity
  8
Layer 1
 62
   250
370
     9
100
AcDbSpline
210
0.0
220
0.0
230
1.0
 70
    11
 71
     3
 72
    17
 73
    13
 74
     0
 42
0.0000000001
 43
0.0000000001
 40
0.0
 40
0.0
 40
0.0
 40
0.0
 40
0.25
 40
0.25
 40
0.25
 40
0.5
 40
0.5
 40
0.5
 40
0.75
 40
0.75
 40
0.75
 40
1.0
 40
1.0
 40
1.0
 40
1.0
 10
-78.78312
 20
-76.44693
 30
0.0
 10
-78.78312
 20
-76.44693
 30
0.0
 10
-78.78312
 20
-75.84693
 30
0.0
 10
-78.78312
 20
-75.84693
 30
0.0
 10
-78.78312
 20
-75.84693
 30
0.0
 10
-78.38312
 20
-75.84693
 30
0.0
 10
-78.38312
 20
-75.84693
 30
0.0
 10
-78.38312
 20
-75.84693
 30
0.0
 10
-78.38312
 20
-76.44693
 30
0.0
 10
-78.38312
 20
-76.44693
 30
0.0
 10
-78.38312
 20
-76.44693
 30
0.0
 10
-78.78312
 20
-76.44693
 30
0.0
 10
-78.78312
 20
-76.44693
 30
0.0
  0
SPLINE
  5
B6
330
1F
100
AcDbEntity
  8
Layer 1
 62
   250
370
     9
100
AcDbSpline
210
0.0
220
0.0
230
1.0
 70
    11
 71
     3
 72
    29
 73
    25
 74
     0
 42
0.0000000001
 43
0.0000000001
 40
0.0
 40
0.0
 40
0.0
 40
0.0
 40
0.125
 40
0.125
 40
0.125
 40
0.25
 40
0.25
 40
0.25
 40
0.375
 40
0.375
 40
0.375
 40
0.5
 40
0.5
 40
0.5
 40
0.625
 40
0.625
 40
0.625
 40
0.75
 40
0.75
 40
0.75
 40
0.875
 40
0.875
 40
0.875
 40
1.0
 40
1.0
 40
1.0
 40
1.0
 10
-75.60813
 20
-29.34693
 30
0.0
 10
-75.60813
 20
-29.34693
 30
0.0
 10
-73.10813
 20
-29.34693
 30
0.0
 10
-73.10813
 20
-29.34693
 30
0.0
 10
-72.83313
 20
-29.34693
 30
0.0
 10
-72.60813
 20
-29.57192
 30
0.0
 10
-72.60813
 20
-29.84693
 30
0.0
 10
-72.60813
 20
-29.84693
 30
0.0
 10
-72.60813
 20
-35.84692
 30
0.0
 10
-72.60813
 20
-35.84692
 30
0.0
 10
-72.60813
 20
-36.12193
 30
0.0
 10
-72.83313
 20
-36.34693
 30
0.0
 10
-73.10813
 20
-36.34693
 30
0.0
 10
-73.10813
 20
-36.34693
 30
0.0
 10
-75.60813
 20
-36.34693
 30
0.0
 10
-75.60813
 20
-36.34693
 30
0.0
 10
-75.88313
 20
-36.34693
 30
0.0
 10
-76.10813
 20
-36.12193
 30
0.0
 10
-76.10813
 20
-35.84692
 30
0.0
 10
-76.10813
 20
-35.84692
 30
0.0
 10
-76.10813
 20
-29.84693
 30
0.0
 10
-76.10813
 20
-29.84693
 30
0.0
 10
-76.10813
 20
-29.57192
 30
0.0
 10
-75.88313
 20
-29.34693
 30
0.0
 10
-75.60813
 20
-29.34693
 30
0.0
  0
SPLINE
  5
B7
330
1F
100
AcDbEntity
  8
Layer 1
 62
   250
370
     9
100
AcDbSpline
210
0.0
220
0.0
230
1.0
 70
    11
 71
     3
 72
    29
 73
    25
 74
     0
 42
0.0000000001
 43
0.0000000001
 40
0.0
 40
0.0
 40
0.0
 40
0.0
 40
0.125
 40
0.125
 40
0.125
 40
0.25
 40
0.25
 40
0.25
 40
0.375
 40
0.375
 40
0.375
 40
0.5
 40
0.5
 40
0.5
 40
0.625
 40
0.625
 40
0.625
 40
0.75
 40
0.75
 40
0.75
 40
0.875
 40
0.875
 40
0.875
 40
1.0
 40
1.0
 40
1.0
 40
1.0
 10
-71.70813
 20
-29.34693
 30
0.0
 10
-71.70813
 20
-29.34693
 30
0.0
 10
-69.20813
 20
-29.34693
 30
0.0
 10
-69.20813
 20
-29.34693
 30
0.0
 10
-68.93313
 20
-29.34693
 30
0.0
 10
-68.70813
 20
-29.57192
 30
0.0
 10
-68.70813
 20
-29.84693
 30
0.0
 10
-68.70813
 20
-29.84693
 30
0.0
 10
-68.70813
 20
-35.84692
 30
0.0
 10
-68.70813
 20
-35.84692
 30
0.0
 10
-68.70813
 20
-36.12193
 30
0.0
 10
-68.93313
 20
-36.34693
 30
0.0
 10
-69.20813
 20
-36.34693
 30
0.0
 10
-69.20813
 20
-36.34693
 30
0.0
 10
-71.70813
 20
-36.34693
 30
0.0
 10
-71.70813
 20
-36.34693
 30
0.0
 10
-71.98313
 20
-36.34693
 30
0.0
 10
-72.20813
 20
-36.12193
 30
0.0
 10
-72.20813
 20
-35.84692
 30
0.0
 10
-72.20813
 20
-35.84692
 30
0.0
 10
-72.20813
 20
-29.84693
 30
0.0
 10
-72.20813
 20
-29.84693
 30
0.0
 10
-72.20813
 20
-29.57192
 30
0.0
 10
-71.98313
 20
-29.34693
 30
0.0
 10
-71.70813
 20
-29.34693
 30
0.0
  0
SPLINE
  5
B8
330
1F
100
AcDbEntity
  8
Layer 1
 62
   250
370
     9
100
AcDbSpline
210
0.0
220
0.0
230
1.0
 70
    11
 71
     3
 72
    29
 73
    25
 74
     0
 42
0.0000000001
 43
0.0000000001
 40
0.0
 40
0.0
 40
0.0
 40
0.0
 40
0.125
 40
0.125
 40
0.125
 40
0.25
 40
0.25
 40
0.25
 40
0.375
 40
0.375
 40
0.375
 40
0.5
 40
0.5
 40
0.5
 40
0.625
 40
0.625
 40
0.625
 40
0.75
 40
0.75
 40
0.75
 40
0.875
 40
0.875
 40
0.875
 40
1.0
 40
1.0
 40
1.0
 40
1.0
 10
-67.80813
 20
-29.34693
 30
0.0
 10
-67.80813
 20
-29.34693
 30
0.0
 10
-65.30813
 20
-29.34693
 30
0.0
 10
-65.30813
 20
-29.34693
 30
0.0
 10
-65.03313
 20
-29.34693
 30
0.0
 10
-64.80813
 20
-29.57192
 30
0.0
 10
-64.80813
 20
-29.84693
 30
0.0
 10
-64.80813
 20
-29.84693
 30
0.0
 10
-64.80813
 20
-35.84692
 30
0.0
 10
-64.80813
 20
-35.84692
 30
0.0
 10
-64.80813
 20
-36.12193
 30
0.0
 10
-65.03313
 20
-36.34693
 30
0.0
 10
-65.30813
 20
-36.34693
 30
0.0
 10
-65.30813
 20
-36.34693
 30
0.0
 10
-67.80813
 20
-36.34693
 30
0.0
 10
-67.80813
 20
-36.34693
 30
0.0
 10
-68.08313
 20
-36.34693
 30
0.0
 10
-68.30813
 20
-36.12193
 30
0.0
 10
-68.30813
 20
-35.84692
 30
0.0
 10
-68.30813
 20
-35.84692
 30
0.0
 10
-68.30813
 20
-29.84693
 30
0.0
 10
-68.30813
 20
-29.84693
 30
0.0
 10
-68.30813
 20
-29.57192
 30
0.0
 10
-68.08313
 20
-29.34693
 30
0.0
 10
-67.80813
 20
-29.34693
 30
0.0
  0
SPLINE
  5
B9
330
1F
100
AcDbEntity
  8
Layer 1
 62
   250
370
     9
100
AcDbSpline
210
0.0
220
0.0
230
1.0
 70
    11
 71
     3
 72
    17
 73
    13
 74
     0
 42
0.0000000001
 43
0.0000000001
 40
0.0
 40
0.0
 40
0.0
 40
0.0
 40
0.25
 40
0.25
 40
0.25
 40
0.5
 40
0.5
 40
0.5
 40
0.75
 40
0.75
 40
0.75
 40
1.0
 40
1.0
 40
1.0
 40
1.0
 10
-59.70813
 20
-15.23182
 30
0.0
 10
-59.56464
 20
-15.31466
 30
0.0
 10
-59.51548
 20
-15.49814
 30
0.0
 10
-59.59832
 20
-15.64163
 30
0.0
 10
-59.68117
 20
-15.78512
 30
0.0
 10
-59.86464
 20
-15.83428
 30
0.0
 10
-60.00813
 20
-15.75144
 30
0.0
 10
-60.15162
 20
-15.6686
 30
0.0
 10
-60.20078
 20
-15.48512
 30
0.0
 10
-60.11794
 20
-15.34163
 30
0.0
 10
-60.03509
 20
-15.19814
 30
0.0
 10
-59.85162
 20
-15.14898
 30
0.0
 10
-59.70813
 20
-15.23182
 30
0.0
  0
SPLINE
  5
BA
330
1F
100
AcDbEntity
  8
Layer 1
 62
   250
370
     9
100
AcDbSpline
210
0.0
220
0.0
230
1.0
 70
    11
 71
     3
 72
    17
 73
    13
 74
     0
 42
0.0000000001
 43
0.0000000001
 40
0.0
 40
0.0
 40
0.0
 40
0.0
 40
0.25
 40
0.25
 40
0.25
 40
0.5
 40
0.5
 40
0.5
 40
0.75
 40
0.75
 40
0.75
 40
1.0
 40
1.0
 40
1.0
 40
1.0
 10
-60.05814
 20
-17.51347
 30
0.0
 10
-60.05814
 20
-17.51347
 30
0.0
 10
-59.65814
 20
-17.51347
 30
0.0
 10
-59.65814
 20
-17.51347
 30
0.0
 10
-59.65814
 20
-17.51347
 30
0.0
 10
-59.65814
 20
-20.51347
 30
0.0
 10
-59.65814
 20
-20.51347
 30
0.0
 10
-59.65814
 20
-20.51347
 30
0.0
 10
-60.05814
 20
-20.51347
 30
0.0
 10
-60.05814
 20
-20.51347
 30
0.0
 10
-60.05814
 20
-20.51347
 30
0.0
 10
-60.05814
 20
-17.51347
 30
0.0
 10
-60.05814
 20
-17.51347
 30
0.0
  0
SPLINE
  5
BB
330
1F
100
AcDbEntity
  8
Layer 1
 62
   250
370
     9
100
AcDbSpline
210
0.0
220
0.0
230
1.0
 70
    11
 71
     3
 72
    17
 73
    13
 74
     0
 42
0.0000000001
 43
0.0000000001
 40
0.0
 40
0.0
 40
0.0
 40
0.0
 40
0.25
 40
0.25
 40
0.25
 40
0.5
 40
0.5
 40
0.5
 40
0.75
 40
0.75
 40
0.75
 40
1.0
 40
1.0
 40
1.0
 40
1.0
 10
-60.05814
 20
-28.51347
 30
0.0
 10
-60.05814
 20
-28.51347
 30
0.0
 10
-59.65814
 20
-28.51347
 30
0.0
 10
-59.65814
 20
-28.51347
 30
0.0
 10
-59.65814
 20
-28.51347
 30
0.0
 10
-59.65814
 20
-31.51347
 30
0.0
 10
-59.65814
 20
-31.51347
 30
0.0
 10
-59.65814
 20
-31.51347
 30
0.0
 10
-60.05814
 20
-31.51347
 30
0.0
 10
-60.05814
 20
-31.51347
 30
0.0
 10
-60.05814
 20
-31.51347
 30
0.0
 10
-60.05814
 20
-28.51347
 30
0.0
 10
-60.05814
 20
-28.51347
 30
0.0
  0
SPLINE
  5
BC
330
1F
100
AcDbEntity
  8
Layer 1
 62
   250
370
     9
100
AcDbSpline
210
0.0
220
0.0
230
1.0
 70
    11
 71
     3
 72
    17
 73
    13
 74
     0
 42
0.0000000001
 43
0.0000000001
 40
0.0
 40
0.0
 40
0.0
 40
0.0
 40
0.25
 40
0.25
 40
0.25
 40
0.5
 40
0.5
 40
0.5
 40
0.75
 40
0.75
 40
0.75
 40
1.0
 40
1.0
 40
1.0
 40
1.0
 10
-60.05814
 20
-38.71347
 30
0.0
 10
-60.05814
 20
-38.71347
 30
0.0
 10
-59.65814
 20
-38.71347
 30
0.0
 10
-59.65814
 20
-38.71347
 30
0.0
 10
-59.65814
 20
-38.71347
 30
0.0
 10
-59.65814
 20
-41.71347
 30
0.0
 10
-59.65814
 20
-41.71347
 30
0.0
 10
-59.65814
 20
-41.71347
 30
0.0
 10
-60.05814
 20
-41.71347
 30
0.0
 10
-60.05814
 20
-41.71347
 30
0.0
 10
-60.05814
 20
-41.71347
 30
0.0
 10
-60.05814
 20
-38.71347
 30
0.0
 10
-60.05814
 20
-38.71347
 30
0.0
  0
SPLINE
  5
BD
330
1F
100
AcDbEntity
  8
Layer 1
 62
   250
370
     9
100
AcDbSpline
210
0.0
220
0.0
230
1.0
 70
    11
 71
     3
 72
    17
 73
    13
 74
     0
 42
0.0000000001
 43
0.0000000001
 40
0.0
 40
0.0
 40
0.0
 40
0.0
 40
0.25
 40
0.25
 40
0.25
 40
0.5
 40
0.5
 40
0.5
 40
0.75
 40
0.75
 40
0.75
 40
1.0
 40
1.0
 40
1.0
 40
1.0
 10
-58.65812
 20
-17.57008
 30
0.0
 10
-58.65812
 20
-17.57008
 30
0.0
 10
-39.85812
 20
-28.42427
 30
0.0
 10
-39.85812
 20
-28.42427
 30
0.0
 10
-39.85812
 20
-28.42427
 30
0.0
 10
-39.85812
 20
-37.84693
 30
0.0
 10
-39.85812
 20
-37.84693
 30
0.0
 10
-39.85812
 20
-37.84693
 30
0.0
 10
-58.65812
 20
-37.84693
 30
0.0
 10
-58.65812
 20
-37.84693
 30
0.0
 10
-58.65812
 20
-37.84693
 30
0.0
 10
-58.65812
 20
-17.57008
 30
0.0
 10
-58.65812
 20
-17.57008
 30
0.0
  0
SPLINE
  5
BE
330
1F
100
AcDbEntity
  8
Layer 1
 62
   250
370
     9
100
AcDbSpline
210
0.0
220
0.0
230
1.0
 70
    11
 71
     3
 72
    17
 73
    13
 74
     0
 42
0.0000000001
 43
0.0000000001
 40
0.0
 40
0.0
 40
0.0
 40
0.0
 40
0.25
 40
0.25
 40
0.25
 40
0.5
 40
0.5
 40
0.5
 40
0.75
 40
0.75
 40
0.75
 40
1.0
 40
1.0
 40
1.0
 40
1.0
 10
-74.85812
 20
-42.84693
 30
0.0
 10
-74.85812
 20
-42.84693
 30
0.0
 10
-68.85812
 20
-42.84693
 30
0.0
 10
-68.85812
 20
-42.84693
 30
0.0
 10
-68.85812
 20
-42.84693
 30
0.0
 10
-68.85812
 20
-43.24693
 30
0.0
 10
-68.85812
 20
-43.24693
 30
0.0
 10
-68.85812
 20
-43.24693
 30
0.0
 10
-74.85812
 20
-43.24693
 30
0.0
 10
-74.85812
 20
-43.24693
 30
0.0
 10
-74.85812
 20
-43.24693
 30
0.0
 10
-74.85812
 20
-42.84693
 30
0.0
 10
-74.85812
 20
-42.84693
 30
0.0
  0
SPLINE
  5
BF
330
1F
100
AcDbEntity
  8
Layer 1
 62
   250
370
     9
100
AcDbSpline
210
0.0
220
0.0
230
1.0
 70
    11
 71
     3
 72
    17
 73
    13
 74
     0
 42
0.0000000001
 43
0.0000000001
 40
0.0
 40
0.0
 40
0.0
 40
0.0
 40
0.25
 40
0.25
 40
0.25
 40
0.5
 40
0.5
 40
0.5
 40
0.75
 40
0.75
 40
0.75
 40
1.0
 40
1.0
 40
1.0
 40
1.0
 10
-56.85812
 20
-42.84693
 30
0.0
 10
-56.85812
 20
-42.84693
 30
0.0
 10
-62.85812
 20
-42.84693
 30
0.0
 10
-62.85812
 20
-42.84693
 30
0.0
 10
-62.85812
 20
-42.84693
 30
0.0
 10
-62.85812
 20
-43.24693
 30
0.0
 10
-62.85812
 20
-43.24693
 30
0.0
 10
-62.85812
 20
-43.24693
 30
0.0
 10
-56.85812
 20
-43.24693
 30
0.0
 10
-56.85812
 20
-43.24693
 30
0.0
 10
-56.85812
 20
-43.24693
 30
0.0
 10
-56.85812
 20
-42.84693
 30
0.0
 10
-56.85812
 20
-42.84693
 30
0.0
  0
SPLINE
  5
C0
330
1F
100
AcDbEntity
  8
Layer 1
 62
   250
370
     9
100
AcDbSpline
210
0.0
220
0.0
230
1.0
 70
    11
 71
     3
 72
    17
 73
    13
 74
     0
 42
0.0000000001
 43
0.0000000001
 40
0.0
 40
0.0
 40
0.0
 40
0.0
 40
0.25
 40
0.25
 40
0.25
 40
0.5
 40
0.5
 40
0.5
 40
0.75
 40
0.75
 40
0.75
 40
1.0
 40
1.0
 40
1.0
 40
1.0
 10
-50.85812
 20
-42.84693
 30
0.0
 10
-50.85812
 20
-42.84693
 30
0.0
 10
-44.85812
 20
-42.84693
 30
0.0
 10
-44.85812
 20
-42.84693
 30
0.0
 10
-44.85812
 20
-42.84693
 30
0.0
 10
-44.85812
 20
-43.24693
 30
0.0
 10
-44.85812
 20
-43.24693
 30
0.0
 10
-44.85812
 20
-43.24693
 30
0.0
 10
-50.85812
 20
-43.24693
 30
0.0
 10
-50.85812
 20
-43.24693
 30
0.0
 10
-50.85812
 20
-43.24693
 30
0.0
 10
-50.85812
 20
-42.84693
 30
0.0
 10
-50.85812
 20
-42.84693
 30
0.0
  0
SPLINE
  5
C1
330
1F
100
AcDbEntity
  8
Layer 1
 62
   250
370
     9
100
AcDbSpline
210
0.0
220
0.0
230
1.0
 70
    11
 71
     3
 72
   170
 73
   166
 74
     0
 42
0.0000000001
 43
0.0000000001
 40
0.0
 40
0.0
 40
0.0
 40
0.0
 40
0.0181818181818182
 40
0.0181818181818182
 40
0.0181818181818182
 40
0.0363636363636364
 40
0.0363636363636364
 40
0.0363636363636364
 40
0.0545454545454545
 40
0.0545454545454545
 40
0.0545454545454545
 40
0.0727272727272727
 40
0.0727272727272727
 40
0.0727272727272727
 40
0.0909090909090909
 40
0.0909090909090909
 40
0.0909090909090909
 40
0.1090909090909091
 40
0.1090909090909091
 40
0.1090909090909091
 40
0.1272727272727273
 40
0.1272727272727273
 40
0.1272727272727273
 40
0.1454545454545454
 40
0.1454545454545454
 40
0.1454545454545454
 40
0.1636363636363636
 40
0.1636363636363636
 40
0.1636363636363636
 40
0.1818181818181818
 40
0.1818181818181818
 40
0.1818181818181818
 40
0.2
 40
0.2
 40
0.2
 40
0.2181818181818182
 40
0.2181818181818182
 40
0.2181818181818182
 40
0.2363636363636364
 40
0.2363636363636364
 40
0.2363636363636364
 40
0.2545454545454545
 40
0.2545454545454545
 40
0.2545454545454545
 40
0.2727272727272727
 40
0.2727272727272727
 40
0.2727272727272727
 40
0.2909090909090909
 40
0.2909090909090909
 40
0.2909090909090909
 40
0.3090909090909091
 40
0.3090909090909091
 40
0.3090909090909091
 40
0.3272727272727273
 40
0.3272727272727273
 40
0.3272727272727273
 40
0.3454545454545455
 40
0.3454545454545455
 40
0.3454545454545455
 40
0.3636363636363636
 40
0.3636363636363636
 40
0.3636363636363636
 40
0.3818181818181818
 40
0.3818181818181818
 40
0.3818181818181818
 40
0.4
 40
0.4
 40
0.4
 40
0.4181818181818182
 40
0.4181818181818182
 40
0.4181818181818182
 40
0.4363636363636363
 40
0.4363636363636363
 40
0.4363636363636363
 40
0.4545454545454545
 40
0.4545454545454545
 40
0.4545454545454545
 40
0.4727272727272727
 40
0.4727272727272727
 40
0.4727272727272727
 40
0.4909090909090909
 40
0.4909090909090909
 40
0.4909090909090909
 40
0.509090909090909
 40
0.509090909090909
 40
0.509090909090909
 40
0.5272727272727272
 40
0.5272727272727272
 40
0.5272727272727272
 40
0.5454545454545454
 40
0.5454545454545454
 40
0.5454545454545454
 40
0.5636363636363636
 40
0.5636363636363636
 40
0.5636363636363636
 40
0.5818181818181818
 40
0.5818181818181818
 40
0.5818181818181818
 40
0.6
 40
0.6
 40
0.6
 40
0.6181818181818182
 40
0.6181818181818182
 40
0.6181818181818182
 40
0.6363636363636364
 40
0.6363636363636364
 40
0.6363636363636364
 40
0.6545454545454545
 40
0.6545454545454545
 40
0.6545454545454545
 40
0.6727272727272727
 40
0.6727272727272727
 40
0.6727272727272727
 40
0.6909090909090909
 40
0.6909090909090909
 40
0.6909090909090909
 40
0.7090909090909091
 40
0.7090909090909091
 40
0.7090909090909091
 40
0.7272727272727273
 40
0.7272727272727273
 40
0.7272727272727273
 40
0.7454545454545454
 40
0.7454545454545454
 40
0.7454545454545454
 40
0.7636363636363636
 40
0.7636363636363636
 40
0.7636363636363636
 40
0.7818181818181817
 40
0.7818181818181817
 40
0.7818181818181817
 40
0.7999999999999999
 40
0.7999999999999999
 40
0.7999999999999999
 40
0.8181818181818181
 40
0.8181818181818181
 40
0.8181818181818181
 40
0.8363636363636363
 40
0.8363636363636363
 40
0.8363636363636363
 40
0.8545454545454545
 40
0.8545454545454545
 40
0.8545454545454545
 40
0.8727272727272727
 40
0.8727272727272727
 40
0.8727272727272727
 40
0.8909090909090909
 40
0.8909090909090909
 40
0.8909090909090909
 40
0.9090909090909091
 40
0.9090909090909091
 40
0.9090909090909091
 40
0.9272727272727272
 40
0.9272727272727272
 40
0.9272727272727272
 40
0.9454545454545454
 40
0.9454545454545454
 40
0.9454545454545454
 40
0.9636363636363636
 40
0.9636363636363636
 40
0.9636363636363636
 40
0.9818181818181818
 40
0.9818181818181818
 40
0.9818181818181818
 40
1.0
 40
1.0
 40
1.0
 40
1.0
 10
-59.33209
 20
-16.02627
 30
0.0
 10
-59.33209
 20
-16.02627
 30
0.0
 10
-38.85812
 20
-27.84693
 30
0.0
 10
-38.85812
 20
-27.84693
 30
0.0
 10
-38.85812
 20
-27.84693
 30
0.0
 10
-38.85812
 20
-32.44693
 30
0.0
 10
-38.85812
 20
-32.44693
 30
0.0
 10
-38.85812
 20
-32.44693
 30
0.0
 10
-39.25812
 20
-32.44693
 30
0.0
 10
-39.25812
 20
-32.44693
 30
0.0
 10
-39.25812
 20
-32.44693
 30
0.0
 10
-39.25812
 20
-36.44693
 30
0.0
 10
-39.25812
 20
-36.44693
 30
0.0
 10
-39.25812
 20
-36.44693
 30
0.0
 10
-38.85812
 20
-36.44693
 30
0.0
 10
-38.85812
 20
-36.44693
 30
0.0
 10
-38.85812
 20
-36.44693
 30
0.0
 10
-38.85812
 20
-37.84693
 30
0.0
 10
-38.85812
 20
-37.84693
 30
0.0
 10
-38.85812
 20
-37.84693
 30
0.0
 10
-38.85812
 20
-41.04693
 30
0.0
 10
-38.85812
 20
-41.04693
 30
0.0
 10
-38.85812
 20
-41.04693
 30
0.0
 10
-39.25812
 20
-41.04693
 30
0.0
 10
-39.25812
 20
-41.04693
 30
0.0
 10
-39.25812
 20
-41.04693
 30
0.0
 10
-39.25812
 20
-45.04693
 30
0.0
 10
-39.25812
 20
-45.04693
 30
0.0
 10
-39.25812
 20
-45.04693
 30
0.0
 10
-38.85812
 20
-45.04693
 30
0.0
 10
-38.85812
 20
-45.04693
 30
0.0
 10
-38.85812
 20
-45.04693
 30
0.0
 10
-38.85812
 20
-49.64693
 30
0.0
 10
-38.85812
 20
-49.64693
 30
0.0
 10
-38.85812
 20
-49.64693
 30
0.0
 10
-39.25812
 20
-49.64693
 30
0.0
 10
-39.25812
 20
-49.64693
 30
0.0
 10
-39.25812
 20
-49.64693
 30
0.0
 10
-39.25812
 20
-53.64693
 30
0.0
 10
-39.25812
 20
-53.64693
 30
0.0
 10
-39.25812
 20
-53.64693
 30
0.0
 10
-38.85812
 20
-53.64693
 30
0.0
 10
-38.85812
 20
-53.64693
 30
0.0
 10
-38.85812
 20
-53.64693
 30
0.0
 10
-38.85812
 20
-58.24693
 30
0.0
 10
-38.85812
 20
-58.24693
 30
0.0
 10
-38.85812
 20
-58.24693
 30
0.0
 10
-39.65812
 20
-58.24693
 30
0.0
 10
-39.65812
 20
-58.24693
 30
0.0
 10
-39.65812
 20
-58.24693
 30
0.0
 10
-39.65812
 20
-58.64693
 30
0.0
 10
-39.65812
 20
-58.64693
 30
0.0
 10
-39.65812
 20
-58.64693
 30
0.0
 10
-41.15812
 20
-58.64693
 30
0.0
 10
-41.15812
 20
-58.64693
 30
0.0
 10
-41.15812
 20
-58.64693
 30
0.0
 10
-41.15812
 20
-58.24693
 30
0.0
 10
-41.15812
 20
-58.24693
 30
0.0
 10
-41.15812
 20
-58.24693
 30
0.0
 10
-41.75812
 20
-58.24693
 30
0.0
 10
-41.75812
 20
-58.24693
 30
0.0
 10
-41.75812
 20
-58.24693
 30
0.0
 10
-41.75812
 20
-44.04693
 30
0.0
 10
-41.75812
 20
-44.04693
 30
0.0
 10
-41.75812
 20
-44.04693
 30
0.0
 10
-56.75812
 20
-44.04693
 30
0.0
 10
-56.75812
 20
-44.04693
 30
0.0
 10
-56.75812
 20
-44.04693
 30
0.0
 10
-56.75812
 20
-58.24693
 30
0.0
 10
-56.75812
 20
-58.24693
 30
0.0
 10
-56.75812
 20
-58.24693
 30
0.0
 10
-58.35812
 20
-58.24693
 30
0.0
 10
-58.35812
 20
-58.24693
 30
0.0
 10
-58.35812
 20
-58.24693
 30
0.0
 10
-58.35812
 20
-58.64693
 30
0.0
 10
-58.35812
 20
-58.64693
 30
0.0
 10
-58.35812
 20
-58.64693
 30
0.0
 10
-61.35812
 20
-58.64693
 30
0.0
 10
-61.35812
 20
-58.64693
 30
0.0
 10
-61.35812
 20
-58.64693
 30
0.0
 10
-61.35812
 20
-58.24693
 30
0.0
 10
-61.35812
 20
-58.24693
 30
0.0
 10
-61.35812
 20
-58.24693
 30
0.0
 10
-62.95812
 20
-58.24693
 30
0.0
 10
-62.95812
 20
-58.24693
 30
0.0
 10
-62.95812
 20
-58.24693
 30
0.0
 10
-62.95812
 20
-44.04693
 30
0.0
 10
-62.95812
 20
-44.04693
 30
0.0
 10
-62.95812
 20
-44.04693
 30
0.0
 10
-77.95812
 20
-44.04693
 30
0.0
 10
-77.95812
 20
-44.04693
 30
0.0
 10
-77.95812
 20
-44.04693
 30
0.0
 10
-77.95812
 20
-58.24693
 30
0.0
 10
-77.95812
 20
-58.24693
 30
0.0
 10
-77.95812
 20
-58.24693
 30
0.0
 10
-78.55812
 20
-58.24693
 30
0.0
 10
-78.55812
 20
-58.24693
 30
0.0
 10
-78.55812
 20
-58.24693
 30
0.0
 10
-78.55812
 20
-58.64693
 30
0.0
 10
-78.55812
 20
-58.64693
 30
0.0
 10
-78.55812
 20
-58.64693
 30
0.0
 10
-80.05812
 20
-58.64693
 30
0.0
 10
-80.05812
 20
-58.64693
 30
0.0
 10
-80.05812
 20
-58.64693
 30
0.0
 10
-80.05812
 20
-58.24693
 30
0.0
 10
-80.05812
 20
-58.24693
 30
0.0
 10
-80.05812
 20
-58.24693
 30
0.0
 10
-80.85812
 20
-58.24693
 30
0.0
 10
-80.85812
 20
-58.24693
 30
0.0
 10
-80.85812
 20
-58.24693
 30
0.0
 10
-80.85812
 20
-53.64693
 30
0.0
 10
-80.85812
 20
-53.64693
 30
0.0
 10
-80.85812
 20
-53.64693
 30
0.0
 10
-80.45812
 20
-53.64693
 30
0.0
 10
-80.45812
 20
-53.64693
 30
0.0
 10
-80.45812
 20
-53.64693
 30
0.0
 10
-80.45812
 20
-49.64693
 30
0.0
 10
-80.45812
 20
-49.64693
 30
0.0
 10
-80.45812
 20
-49.64693
 30
0.0
 10
-80.85812
 20
-49.64693
 30
0.0
 10
-80.85812
 20
-49.64693
 30
0.0
 10
-80.85812
 20
-49.64693
 30
0.0
 10
-80.85812
 20
-46.71882
 30
0.0
 10
-80.85812
 20
-46.71882
 30
0.0
 10
-80.85812
 20
-46.71882
 30
0.0
 10
-80.85812
 20
-45.04693
 30
0.0
 10
-80.85812
 20
-45.04693
 30
0.0
 10
-80.85812
 20
-45.04693
 30
0.0
 10
-80.45812
 20
-45.04693
 30
0.0
 10
-80.45812
 20
-45.04693
 30
0.0
 10
-80.45812
 20
-45.04693
 30
0.0
 10
-80.45812
 20
-41.04693
 30
0.0
 10
-80.45812
 20
-41.04693
 30
0.0
 10
-80.45812
 20
-41.04693
 30
0.0
 10
-80.85812
 20
-41.04693
 30
0.0
 10
-80.85812
 20
-41.04693
 30
0.0
 10
-80.85812
 20
-41.04693
 30
0.0
 10
-80.85812
 20
-36.44693
 30
0.0
 10
-80.85812
 20
-36.44693
 30
0.0
 10
-80.85812
 20
-36.44693
 30
0.0
 10
-80.45812
 20
-36.44693
 30
0.0
 10
-80.45812
 20
-36.44693
 30
0.0
 10
-80.45812
 20
-36.44693
 30
0.0
 10
-80.45812
 20
-32.44693
 30
0.0
 10
-80.45812
 20
-32.44693
 30
0.0
 10
-80.45812
 20
-32.44693
 30
0.0
 10
-80.85812
 20
-32.44693
 30
0.0
 10
-80.85812
 20
-32.44693
 30
0.0
 10
-80.85812
 20
-32.44693
 30
0.0
 10
-80.85812
 20
-27.84693
 30
0.0
 10
-80.85812
 20
-27.84693
 30
0.0
 10
-80.85812
 20
-27.84693
 30
0.0
 10
-60.38416
 20
-16.02628
 30
0.0
 10
-60.38416
 20
-16.02628
 30
0.0
 10
-60.62215
 20
-15.79245
 30
0.0
 10
-60.68209
 20
-15.41905
 30
0.0
 10
-60.50752
 20
-15.1167
 30
0.0
 10
-60.30045
 20
-14.75806
 30
0.0
 10
-59.84185
 20
-14.63518
 30
0.0
 10
-59.4832
 20
-14.84224
 30
0.0
 10
-59.12456
 20
-15.0493
 30
0.0
 10
-59.00167
 20
-15.50791
 30
0.0
 10
-59.20874
 20
-15.86656
 30
0.0
 10
-59.24337
 20
-15.92654
 30
0.0
 10
-59.28503
 20
-15.97992
 30
0.0
 10
-59.33209
 20
-16.02627
 30
0.0
  0
SPLINE
  5
C2
330
1F
100
AcDbEntity
  8
Layer 1
 62
   250
370
     9
100
AcDbSpline
210
0.0
220
0.0
230
1.0
 70
    11
 71
     3
 72
    17
 73
    13
 74
     0
 42
0.0000000001
 43
0.0000000001
 40
0.0
 40
0.0
 40
0.0
 40
0.0
 40
0.25
 40
0.25
 40
0.25
 40
0.5
 40
0.5
 40
0.5
 40
0.75
 40
0.75
 40
0.75
 40
1.0
 40
1.0
 40
1.0
 40
1.0
 10
-78.78312
 20
-45.04693
 30
0.0
 10
-78.78312
 20
-45.04693
 30
0.0
 10
-78.38312
 20
-45.04693
 30
0.0
 10
-78.38312
 20
-45.04693
 30
0.0
 10
-78.38312
 20
-45.04693
 30
0.0
 10
-78.38312
 20
-46.04693
 30
0.0
 10
-78.38312
 20
-46.04693
 30
0.0
 10
-78.38312
 20
-46.04693
 30
0.0
 10
-78.78312
 20
-46.04693
 30
0.0
 10
-78.78312
 20
-46.04693
 30
0.0
 10
-78.78312
 20
-46.04693
 30
0.0
 10
-78.78312
 20
-45.04693
 30
0.0
 10
-78.78312
 20
-45.04693
 30
0.0
  0
SPLINE
  5
C3
330
1F
100
AcDbEntity
  8
Layer 1
 62
   250
370
     9
100
AcDbSpline
210
0.0
220
0.0
230
1.0
 70
    11
 71
     3
 72
    17
 73
    13
 74
     0
 42
0.0000000001
 43
0.0000000001
 40
0.0
 40
0.0
 40
0.0
 40
0.0
 40
0.25
 40
0.25
 40
0.25
 40
0.5
 40
0.5
 40
0.5
 40
0.75
 40
0.75
 40
0.75
 40
1.0
 40
1.0
 40
1.0
 40
1.0
 10
-62.13312
 20
-45.04693
 30
0.0
 10
-62.13312
 20
-45.04693
 30
0.0
 10
-62.53312
 20
-45.04693
 30
0.0
 10
-62.53312
 20
-45.04693
 30
0.0
 10
-62.53312
 20
-45.04693
 30
0.0
 10
-62.53312
 20
-46.04693
 30
0.0
 10
-62.53312
 20
-46.04693
 30
0.0
 10
-62.53312
 20
-46.04693
 30
0.0
 10
-62.13312
 20
-46.04693
 30
0.0
 10
-62.13312
 20
-46.04693
 30
0.0
 10
-62.13312
 20
-46.04693
 30
0.0
 10
-62.13312
 20
-45.04693
 30
0.0
 10
-62.13312
 20
-45.04693
 30
0.0
  0
SPLINE
  5
C4
330
1F
100
AcDbEntity
  8
Layer 1
 62
   250
370
     9
100
AcDbSpline
210
0.0
220
0.0
230
1.0
 70
    11
 71
     3
 72
    17
 73
    13
 74
     0
 42
0.0000000001
 43
0.0000000001
 40
0.0
 40
0.0
 40
0.0
 40
0.0
 40
0.25
 40
0.25
 40
0.25
 40
0.5
 40
0.5
 40
0.5
 40
0.75
 40
0.75
 40
0.75
 40
1.0
 40
1.0
 40
1.0
 40
1.0
 10
-57.58312
 20
-45.04693
 30
0.0
 10
-57.58312
 20
-45.04693
 30
0.0
 10
-57.18312
 20
-45.04693
 30
0.0
 10
-57.18312
 20
-45.04693
 30
0.0
 10
-57.18312
 20
-45.04693
 30
0.0
 10
-57.18312
 20
-46.04693
 30
0.0
 10
-57.18312
 20
-46.04693
 30
0.0
 10
-57.18312
 20
-46.04693
 30
0.0
 10
-57.58312
 20
-46.04693
 30
0.0
 10
-57.58312
 20
-46.04693
 30
0.0
 10
-57.58312
 20
-46.04693
 30
0.0
 10
-57.58312
 20
-45.04693
 30
0.0
 10
-57.58312
 20
-45.04693
 30
0.0
  0
SPLINE
  5
C5
330
1F
100
AcDbEntity
  8
Layer 1
 62
   250
370
     9
100
AcDbSpline
210
0.0
220
0.0
230
1.0
 70
    11
 71
     3
 72
    17
 73
    13
 74
     0
 42
0.0000000001
 43
0.0000000001
 40
0.0
 40
0.0
 40
0.0
 40
0.0
 40
0.25
 40
0.25
 40
0.25
 40
0.5
 40
0.5
 40
0.5
 40
0.75
 40
0.75
 40
0.75
 40
1.0
 40
1.0
 40
1.0
 40
1.0
 10
-40.93312
 20
-45.04693
 30
0.0
 10
-40.93312
 20
-45.04693
 30
0.0
 10
-41.33312
 20
-45.04693
 30
0.0
 10
-41.33312
 20
-45.04693
 30
0.0
 10
-41.33312
 20
-45.04693
 30
0.0
 10
-41.33312
 20
-46.04693
 30
0.0
 10
-41.33312
 20
-46.04693
 30
0.0
 10
-41.33312
 20
-46.04693
 30
0.0
 10
-40.93312
 20
-46.04693
 30
0.0
 10
-40.93312
 20
-46.04693
 30
0.0
 10
-40.93312
 20
-46.04693
 30
0.0
 10
-40.93312
 20
-45.04693
 30
0.0
 10
-40.93312
 20
-45.04693
 30
0.0
  0
SPLINE
  5
C6
330
1F
100
AcDbEntity
  8
Layer 1
 62
   250
370
     9
100
AcDbSpline
210
0.0
220
0.0
230
1.0
 70
    11
 71
     3
 72
    53
 73
    49
 74
     0
 42
0.0000000001
 43
0.0000000001
 40
0.0
 40
0.0
 40
0.0
 40
0.0
 40
0.0625
 40
0.0625
 40
0.0625
 40
0.125
 40
0.125
 40
0.125
 40
0.1875
 40
0.1875
 40
0.1875
 40
0.25
 40
0.25
 40
0.25
 40
0.3125
 40
0.3125
 40
0.3125
 40
0.375
 40
0.375
 40
0.375
 40
0.4375
 40
0.4375
 40
0.4375
 40
0.5
 40
0.5
 40
0.5
 40
0.5625
 40
0.5625
 40
0.5625
 40
0.625
 40
0.625
 40
0.625
 40
0.6875
 40
0.6875
 40
0.6875
 40
0.75
 40
0.75
 40
0.75
 40
0.8125
 40
0.8125
 40
0.8125
 40
0.875
 40
0.875
 40
0.875
 40
0.9375
 40
0.9375
 40
0.9375
 40
1.0
 40
1.0
 40
1.0
 40
1.0
 10
-113.42479
 20
-46.3151
 30
0.0
 10
-113.42479
 20
-46.3151
 30
0.0
 10
-113.42479
 20
-59.6651
 30
0.0
 10
-113.42479
 20
-59.6651
 30
0.0
 10
-113.42479
 20
-59.6651
 30
0.0
 10
-128.37479
 20
-59.6651
 30
0.0
 10
-128.37479
 20
-59.6651
 30
0.0
 10
-128.37479
 20
-59.6651
 30
0.0
 10
-128.37479
 20
-46.3151
 30
0.0
 10
-128.37479
 20
-46.3151
 30
0.0
 10
-128.37479
 20
-46.3151
 30
0.0
 10
-128.87479
 20
-46.3151
 30
0.0
 10
-128.87479
 20
-46.3151
 30
0.0
 10
-128.87479
 20
-46.3151
 30
0.0
 10
-129.67479
 20
-46.3151
 30
0.0
 10
-129.67479
 20
-46.3151
 30
0.0
 10
-129.67479
 20
-46.3151
 30
0.0
 10
-129.67479
 20
-45.8651
 30
0.0
 10
-129.67479
 20
-45.8651
 30
0.0
 10
-129.67479
 20
-45.8651
 30
0.0
 10
-129.67479
 20
-45.3151
 30
0.0
 10
-129.67479
 20
-45.3151
 30
0.0
 10
-129.67479
 20
-45.3151
 30
0.0
 10
-128.87479
 20
-45.3151
 30
0.0
 10
-128.87479
 20
-45.3151
 30
0.0
 10
-128.87479
 20
-45.3151
 30
0.0
 10
-128.37479
 20
-45.3151
 30
0.0
 10
-128.37479
 20
-45.3151
 30
0.0
 10
-128.37479
 20
-45.3151
 30
0.0
 10
-113.42479
 20
-45.3151
 30
0.0
 10
-113.42479
 20
-45.3151
 30
0.0
 10
-113.42479
 20
-45.3151
 30
0.0
 10
-112.92479
 20
-45.3151
 30
0.0
 10
-112.92479
 20
-45.3151
 30
0.0
 10
-112.92479
 20
-45.3151
 30
0.0
 10
-112.12479
 20
-45.3151
 30
0.0
 10
-112.12479
 20
-45.3151
 30
0.0
 10
-112.12479
 20
-45.3151
 30
0.0
 10
-112.12479
 20
-45.8651
 30
0.0
 10
-112.12479
 20
-45.8651
 30
0.0
 10
-112.12479
 20
-45.8651
 30
0.0
 10
-112.12479
 20
-46.3151
 30
0.0
 10
-112.12479
 20
-46.3151
 30
0.0
 10
-112.12479
 20
-46.3151
 30
0.0
 10
-112.92479
 20
-46.3151
 30
0.0
 10
-112.92479
 20
-46.3151
 30
0.0
 10
-112.92479
 20
-46.3151
 30
0.0
 10
-113.42479
 20
-46.3151
 30
0.0
 10
-113.42479
 20
-46.3151
 30
0.0
  0
SPLINE
  5
C7
330
1F
100
AcDbEntity
  8
Layer 1
 62
   250
370
     9
100
AcDbSpline
210
0.0
220
0.0
230
1.0
 70
    11
 71
     3
 72
    17
 73
    13
 74
     0
 42
0.0000000001
 43
0.0000000001
 40
0.0
 40
0.0
 40
0.0
 40
0.0
 40
0.25
 40
0.25
 40
0.25
 40
0.5
 40
0.5
 40
0.5
 40
0.75
 40
0.75
 40
0.75
 40
1.0
 40
1.0
 40
1.0
 40
1.0
 10
-122.69979
 20
-58.4651
 30
0.0
 10
-122.69979
 20
-58.4651
 30
0.0
 10
-122.09979
 20
-58.4651
 30
0.0
 10
-122.09979
 20
-58.4651
 30
0.0
 10
-122.09979
 20
-58.4651
 30
0.0
 10
-122.09979
 20
-58.8651
 30
0.0
 10
-122.09979
 20
-58.8651
 30
0.0
 10
-122.09979
 20
-58.8651
 30
0.0
 10
-122.69979
 20
-58.8651
 30
0.0
 10
-122.69979
 20
-58.8651
 30
0.0
 10
-122.69979
 20
-58.8651
 30
0.0
 10
-122.69979
 20
-58.4651
 30
0.0
 10
-122.69979
 20
-58.4651
 30
0.0
  0
SPLINE
  5
C8
330
1F
100
AcDbEntity
  8
Layer 1
 62
   250
370
     9
100
AcDbSpline
210
0.0
220
0.0
230
1.0
 70
    11
 71
     3
 72
    17
 73
    13
 74
     0
 42
0.0000000001
 43
0.0000000001
 40
0.0
 40
0.0
 40
0.0
 40
0.0
 40
0.25
 40
0.25
 40
0.25
 40
0.5
 40
0.5
 40
0.5
 40
0.75
 40
0.75
 40
0.75
 40
1.0
 40
1.0
 40
1.0
 40
1.0
 10
-119.69979
 20
-58.4651
 30
0.0
 10
-119.69979
 20
-58.4651
 30
0.0
 10
-119.09979
 20
-58.4651
 30
0.0
 10
-119.09979
 20
-58.4651
 30
0.0
 10
-119.09979
 20
-58.4651
 30
0.0
 10
-119.09979
 20
-58.8651
 30
0.0
 10
-119.09979
 20
-58.8651
 30
0.0
 10
-119.09979
 20
-58.8651
 30
0.0
 10
-119.69979
 20
-58.8651
 30
0.0
 10
-119.69979
 20
-58.8651
 30
0.0
 10
-119.69979
 20
-58.8651
 30
0.0
 10
-119.69979
 20
-58.4651
 30
0.0
 10
-119.69979
 20
-58.4651
 30
0.0
  0
SPLINE
  5
C9
330
1F
100
AcDbEntity
  8
Layer 1
 62
   250
370
     9
100
AcDbSpline
210
0.0
220
0.0
230
1.0
 70
    11
 71
     3
 72
    59
 73
    55
 74
     0
 42
0.0000000001
 43
0.0000000001
 40
0.0
 40
0.0
 40
0.0
 40
0.0
 40
0.0555555555555556
 40
0.0555555555555556
 40
0.0555555555555556
 40
0.1111111111111111
 40
0.1111111111111111
 40
0.1111111111111111
 40
0.1666666666666667
 40
0.1666666666666667
 40
0.1666666666666667
 40
0.2222222222222222
 40
0.2222222222222222
 40
0.2222222222222222
 40
0.2777777777777778
 40
0.2777777777777778
 40
0.2777777777777778
 40
0.3333333333333333
 40
0.3333333333333333
 40
0.3333333333333333
 40
0.3888888888888888
 40
0.3888888888888888
 40
0.3888888888888888
 40
0.4444444444444444
 40
0.4444444444444444
 40
0.4444444444444444
 40
0.5
 40
0.5
 40
0.5
 40
0.5555555555555556
 40
0.5555555555555556
 40
0.5555555555555556
 40
0.611111111111111
 40
0.611111111111111
 40
0.611111111111111
 40
0.6666666666666666
 40
0.6666666666666666
 40
0.6666666666666666
 40
0.7222222222222222
 40
0.7222222222222222
 40
0.7222222222222222
 40
0.7777777777777777
 40
0.7777777777777777
 40
0.7777777777777777
 40
0.8333333333333333
 40
0.8333333333333333
 40
0.8333333333333333
 40
0.8888888888888888
 40
0.8888888888888888
 40
0.8888888888888888
 40
0.9444444444444444
 40
0.9444444444444444
 40
0.9444444444444444
 40
1.0
 40
1.0
 40
1.0
 40
1.0
 10
-125.62055
 20
-70.1587
 30
0.0
 10
-125.62055
 20
-70.1587
 30
0.0
 10
-125.92055
 20
-70.1587
 30
0.0
 10
-125.92055
 20
-70.1587
 30
0.0
 10
-125.92055
 20
-70.1587
 30
0.0
 10
-125.92055
 20
-69.7587
 30
0.0
 10
-125.92055
 20
-69.7587
 30
0.0
 10
-125.92055
 20
-69.7587
 30
0.0
 10
-126.52055
 20
-69.7587
 30
0.0
 10
-126.52055
 20
-69.7587
 30
0.0
 10
-126.52055
 20
-69.7587
 30
0.0
 10
-126.52055
 20
-70.1587
 30
0.0
 10
-126.52055
 20
-70.1587
 30
0.0
 10
-126.52055
 20
-70.1587
 30
0.0
 10
-126.82055
 20
-70.1587
 30
0.0
 10
-126.82055
 20
-70.1587
 30
0.0
 10
-126.82055
 20
-70.1587
 30
0.0
 10
-126.82055
 20
-72.7087
 30
0.0
 10
-126.82055
 20
-72.7087
 30
0.0
 10
-126.82055
 20
-73.12116
 30
0.0
 10
-126.48305
 20
-73.4587
 30
0.0
 10
-126.07056
 20
-73.4587
 30
0.0
 10
-126.07056
 20
-73.4587
 30
0.0
 10
-125.62055
 20
-73.4587
 30
0.0
 10
-125.62055
 20
-73.4587
 30
0.0
 10
-125.62055
 20
-73.4587
 30
0.0
 10
-113.62055
 20
-73.4587
 30
0.0
 10
-113.62055
 20
-73.4587
 30
0.0
 10
-113.62055
 20
-73.4587
 30
0.0
 10
-113.12055
 20
-73.4587
 30
0.0
 10
-113.12055
 20
-73.4587
 30
0.0
 10
-113.12055
 20
-73.4587
 30
0.0
 10
-113.12055
 20
-72.9587
 30
0.0
 10
-113.12055
 20
-72.9587
 30
0.0
 10
-113.12055
 20
-72.9587
 30
0.0
 10
-112.72055
 20
-72.9587
 30
0.0
 10
-112.72055
 20
-72.9587
 30
0.0
 10
-112.72055
 20
-72.9587
 30
0.0
 10
-112.72055
 20
-71.9587
 30
0.0
 10
-112.72055
 20
-71.9587
 30
0.0
 10
-112.72055
 20
-71.9587
 30
0.0
 10
-113.12055
 20
-71.9587
 30
0.0
 10
-113.12055
 20
-71.9587
 30
0.0
 10
-113.12055
 20
-71.9587
 30
0.0
 10
-113.62055
 20
-71.9587
 30
0.0
 10
-113.62055
 20
-71.9587
 30
0.0
 10
-113.62055
 20
-71.9587
 30
0.0
 10
-113.62055
 20
-71.4587
 30
0.0
 10
-113.62055
 20
-71.4587
 30
0.0
 10
-113.62055
 20
-71.4587
 30
0.0
 10
-125.62055
 20
-71.5587
 30
0.0
 10
-125.62055
 20
-71.5587
 30
0.0
 10
-125.62055
 20
-71.5587
 30
0.0
 10
-125.62055
 20
-70.1587
 30
0.0
 10
-125.62055
 20
-70.1587
 30
0.0
  0
SPLINE
  5
CA
330
1F
100
AcDbEntity
  8
Layer 1
 62
   250
370
     9
100
AcDbSpline
210
0.0
220
0.0
230
1.0
 70
    11
 71
     3
 72
    62
 73
    58
 74
     0
 42
0.0000000001
 43
0.0000000001
 40
0.0
 40
0.0
 40
0.0
 40
0.0
 40
0.0526315789473684
 40
0.0526315789473684
 40
0.0526315789473684
 40
0.1052631578947368
 40
0.1052631578947368
 40
0.1052631578947368
 40
0.1578947368421053
 40
0.1578947368421053
 40
0.1578947368421053
 40
0.2105263157894737
 40
0.2105263157894737
 40
0.2105263157894737
 40
0.2631578947368421
 40
0.2631578947368421
 40
0.2631578947368421
 40
0.3157894736842105
 40
0.3157894736842105
 40
0.3157894736842105
 40
0.3684210526315789
 40
0.3684210526315789
 40
0.3684210526315789
 40
0.4210526315789473
 40
0.4210526315789473
 40
0.4210526315789473
 40
0.4736842105263158
 40
0.4736842105263158
 40
0.4736842105263158
 40
0.5263157894736842
 40
0.5263157894736842
 40
0.5263157894736842
 40
0.5789473684210527
 40
0.5789473684210527
 40
0.5789473684210527
 40
0.631578947368421
 40
0.631578947368421
 40
0.631578947368421
 40
0.6842105263157894
 40
0.6842105263157894
 40
0.6842105263157894
 40
0.7368421052631579
 40
0.7368421052631579
 40
0.7368421052631579
 40
0.7894736842105263
 40
0.7894736842105263
 40
0.7894736842105263
 40
0.8421052631578947
 40
0.8421052631578947
 40
0.8421052631578947
 40
0.894736842105263
 40
0.894736842105263
 40
0.894736842105263
 40
0.9473684210526315
 40
0.9473684210526315
 40
0.9473684210526315
 40
1.0
 40
1.0
 40
1.0
 40
1.0
 10
-121.89979
 20
-62.6651
 30
0.0
 10
-121.89979
 20
-62.6651
 30
0.0
 10
-119.89979
 20
-62.6651
 30
0.0
 10
-119.89979
 20
-62.6651
 30
0.0
 10
-119.89979
 20
-62.6651
 30
0.0
 10
-119.89979
 20
-62.2651
 30
0.0
 10
-119.89979
 20
-62.2651
 30
0.0
 10
-119.89979
 20
-62.2651
 30
0.0
 10
-119.69979
 20
-62.2651
 30
0.0
 10
-119.69979
 20
-62.2651
 30
0.0
 10
-119.69979
 20
-62.2651
 30
0.0
 10
-119.69979
 20
-61.8651
 30
0.0
 10
-119.69979
 20
-61.8651
 30
0.0
 10
-119.69979
 20
-61.8651
 30
0.0
 10
-119.09979
 20
-61.8651
 30
0.0
 10
-119.09979
 20
-61.8651
 30
0.0
 10
-119.09979
 20
-61.8651
 30
0.0
 10
-119.09979
 20
-62.2651
 30
0.0
 10
-119.09979
 20
-62.2651
 30
0.0
 10
-119.09979
 20
-62.2651
 30
0.0
 10
-118.89979
 20
-62.2651
 30
0.0
 10
-118.89979
 20
-62.2651
 30
0.0
 10
-118.89979
 20
-62.2651
 30
0.0
 10
-118.89979
 20
-62.6651
 30
0.0
 10
-118.89979
 20
-62.6651
 30
0.0
 10
-118.89979
 20
-62.8851
 30
0.0
 10
-119.07979
 20
-63.0651
 30
0.0
 10
-119.29981
 20
-63.0651
 30
0.0
 10
-119.29981
 20
-63.0651
 30
0.0
 10
-122.49975
 20
-63.0651
 30
0.0
 10
-122.49975
 20
-63.0651
 30
0.0
 10
-122.71976
 20
-63.0651
 30
0.0
 10
-122.89977
 20
-62.8851
 30
0.0
 10
-122.89977
 20
-62.6651
 30
0.0
 10
-122.89977
 20
-62.6651
 30
0.0
 10
-122.89979
 20
-62.6651
 30
0.0
 10
-122.89979
 20
-62.6651
 30
0.0
 10
-122.89979
 20
-62.6651
 30
0.0
 10
-122.89979
 20
-62.2651
 30
0.0
 10
-122.89979
 20
-62.2651
 30
0.0
 10
-122.89979
 20
-62.2651
 30
0.0
 10
-122.69979
 20
-62.2651
 30
0.0
 10
-122.69979
 20
-62.2651
 30
0.0
 10
-122.69979
 20
-62.2651
 30
0.0
 10
-122.69979
 20
-61.8651
 30
0.0
 10
-122.69979
 20
-61.8651
 30
0.0
 10
-122.69979
 20
-61.8651
 30
0.0
 10
-122.09979
 20
-61.8651
 30
0.0
 10
-122.09979
 20
-61.8651
 30
0.0
 10
-122.09979
 20
-61.8651
 30
0.0
 10
-122.09979
 20
-62.2651
 30
0.0
 10
-122.09979
 20
-62.2651
 30
0.0
 10
-122.09979
 20
-62.2651
 30
0.0
 10
-121.89979
 20
-62.2651
 30
0.0
 10
-121.89979
 20
-62.2651
 30
0.0
 10
-121.89979
 20
-62.2651
 30
0.0
 10
-121.89979
 20
-62.6651
 30
0.0
 10
-121.89979
 20
-62.6651
 30
0.0
  0
SPLINE
  5
CB
330
1F
100
AcDbEntity
  8
Layer 1
 62
   250
370
     9
100
AcDbSpline
210
0.0
220
0.0
230
1.0
 70
    11
 71
     3
 72
    62
 73
    58
 74
     0
 42
0.0000000001
 43
0.0000000001
 40
0.0
 40
0.0
 40
0.0
 40
0.0
 40
0.0526315789473684
 40
0.0526315789473684
 40
0.0526315789473684
 40
0.1052631578947368
 40
0.1052631578947368
 40
0.1052631578947368
 40
0.1578947368421053
 40
0.1578947368421053
 40
0.1578947368421053
 40
0.2105263157894737
 40
0.2105263157894737
 40
0.2105263157894737
 40
0.2631578947368421
 40
0.2631578947368421
 40
0.2631578947368421
 40
0.3157894736842105
 40
0.3157894736842105
 40
0.3157894736842105
 40
0.3684210526315789
 40
0.3684210526315789
 40
0.3684210526315789
 40
0.4210526315789473
 40
0.4210526315789473
 40
0.4210526315789473
 40
0.4736842105263158
 40
0.4736842105263158
 40
0.4736842105263158
 40
0.5263157894736842
 40
0.5263157894736842
 40
0.5263157894736842
 40
0.5789473684210527
 40
0.5789473684210527
 40
0.5789473684210527
 40
0.631578947368421
 40
0.631578947368421
 40
0.631578947368421
 40
0.6842105263157894
 40
0.6842105263157894
 40
0.6842105263157894
 40
0.7368421052631579
 40
0.7368421052631579
 40
0.7368421052631579
 40
0.7894736842105263
 40
0.7894736842105263
 40
0.7894736842105263
 40
0.8421052631578947
 40
0.8421052631578947
 40
0.8421052631578947
 40
0.894736842105263
 40
0.894736842105263
 40
0.894736842105263
 40
0.9473684210526315
 40
0.9473684210526315
 40
0.9473684210526315
 40
1.0
 40
1.0
 40
1.0
 40
1.0
 10
-101.34979
 20
-62.6651
 30
0.0
 10
-101.34979
 20
-62.6651
 30
0.0
 10
-99.34979
 20
-62.6651
 30
0.0
 10
-99.34979
 20
-62.6651
 30
0.0
 10
-99.34979
 20
-62.6651
 30
0.0
 10
-99.34979
 20
-62.2651
 30
0.0
 10
-99.34979
 20
-62.2651
 30
0.0
 10
-99.34979
 20
-62.2651
 30
0.0
 10
-99.14979
 20
-62.2651
 30
0.0
 10
-99.14979
 20
-62.2651
 30
0.0
 10
-99.14979
 20
-62.2651
 30
0.0
 10
-99.14979
 20
-61.8651
 30
0.0
 10
-99.14979
 20
-61.8651
 30
0.0
 10
-99.14979
 20
-61.8651
 30
0.0
 10
-98.54979
 20
-61.8651
 30
0.0
 10
-98.54979
 20
-61.8651
 30
0.0
 10
-98.54979
 20
-61.8651
 30
0.0
 10
-98.54979
 20
-62.2651
 30
0.0
 10
-98.54979
 20
-62.2651
 30
0.0
 10
-98.54979
 20
-62.2651
 30
0.0
 10
-98.34979
 20
-62.2651
 30
0.0
 10
-98.34979
 20
-62.2651
 30
0.0
 10
-98.34979
 20
-62.2651
 30
0.0
 10
-98.34979
 20
-62.6651
 30
0.0
 10
-98.34979
 20
-62.6651
 30
0.0
 10
-98.34979
 20
-62.8851
 30
0.0
 10
-98.52979
 20
-63.0651
 30
0.0
 10
-98.74981
 20
-63.0651
 30
0.0
 10
-98.74981
 20
-63.0651
 30
0.0
 10
-101.94975
 20
-63.0651
 30
0.0
 10
-101.94975
 20
-63.0651
 30
0.0
 10
-102.16976
 20
-63.0651
 30
0.0
 10
-102.34977
 20
-62.8851
 30
0.0
 10
-102.34977
 20
-62.6651
 30
0.0
 10
-102.34977
 20
-62.6651
 30
0.0
 10
-102.34979
 20
-62.6651
 30
0.0
 10
-102.34979
 20
-62.6651
 30
0.0
 10
-102.34979
 20
-62.6651
 30
0.0
 10
-102.34979
 20
-62.2651
 30
0.0
 10
-102.34979
 20
-62.2651
 30
0.0
 10
-102.34979
 20
-62.2651
 30
0.0
 10
-102.14979
 20
-62.2651
 30
0.0
 10
-102.14979
 20
-62.2651
 30
0.0
 10
-102.14979
 20
-62.2651
 30
0.0
 10
-102.14979
 20
-61.8651
 30
0.0
 10
-102.14979
 20
-61.8651
 30
0.0
 10
-102.14979
 20
-61.8651
 30
0.0
 10
-101.54979
 20
-61.8651
 30
0.0
 10
-101.54979
 20
-61.8651
 30
0.0
 10
-101.54979
 20
-61.8651
 30
0.0
 10
-101.54979
 20
-62.2651
 30
0.0
 10
-101.54979
 20
-62.2651
 30
0.0
 10
-101.54979
 20
-62.2651
 30
0.0
 10
-101.34979
 20
-62.2651
 30
0.0
 10
-101.34979
 20
-62.2651
 30
0.0
 10
-101.34979
 20
-62.2651
 30
0.0
 10
-101.34979
 20
-62.6651
 30
0.0
 10
-101.34979
 20
-62.6651
 30
0.0
  0
SPLINE
  5
CC
330
1F
100
AcDbEntity
  8
Layer 1
 62
   250
370
     9
100
AcDbSpline
210
0.0
220
0.0
230
1.0
 70
    11
 71
     3
 72
    53
 73
    49
 74
     0
 42
0.0000000001
 43
0.0000000001
 40
0.0
 40
0.0
 40
0.0
 40
0.0
 40
0.0625
 40
0.0625
 40
0.0625
 40
0.125
 40
0.125
 40
0.125
 40
0.1875
 40
0.1875
 40
0.1875
 40
0.25
 40
0.25
 40
0.25
 40
0.3125
 40
0.3125
 40
0.3125
 40
0.375
 40
0.375
 40
0.375
 40
0.4375
 40
0.4375
 40
0.4375
 40
0.5
 40
0.5
 40
0.5
 40
0.5625
 40
0.5625
 40
0.5625
 40
0.625
 40
0.625
 40
0.625
 40
0.6875
 40
0.6875
 40
0.6875
 40
0.75
 40
0.75
 40
0.75
 40
0.8125
 40
0.8125
 40
0.8125
 40
0.875
 40
0.875
 40
0.875
 40
0.9375
 40
0.9375
 40
0.9375
 40
1.0
 40
1.0
 40
1.0
 40
1.0
 10
-92.87479
 20
-46.3151
 30
0.0
 10
-92.87479
 20
-46.3151
 30
0.0
 10
-92.87479
 20
-59.6651
 30
0.0
 10
-92.87479
 20
-59.6651
 30
0.0
 10
-92.87479
 20
-59.6651
 30
0.0
 10
-107.82479
 20
-59.6651
 30
0.0
 10
-107.82479
 20
-59.6651
 30
0.0
 10
-107.82479
 20
-59.6651
 30
0.0
 10
-107.82479
 20
-46.3151
 30
0.0
 10
-107.82479
 20
-46.3151
 30
0.0
 10
-107.82479
 20
-46.3151
 30
0.0
 10
-108.32479
 20
-46.3151
 30
0.0
 10
-108.32479
 20
-46.3151
 30
0.0
 10
-108.32479
 20
-46.3151
 30
0.0
 10
-109.12479
 20
-46.3151
 30
0.0
 10
-109.12479
 20
-46.3151
 30
0.0
 10
-109.12479
 20
-46.3151
 30
0.0
 10
-109.12479
 20
-45.8651
 30
0.0
 10
-109.12479
 20
-45.8651
 30
0.0
 10
-109.12479
 20
-45.8651
 30
0.0
 10
-109.12479
 20
-45.3151
 30
0.0
 10
-109.12479
 20
-45.3151
 30
0.0
 10
-109.12479
 20
-45.3151
 30
0.0
 10
-108.32479
 20
-45.3151
 30
0.0
 10
-108.32479
 20
-45.3151
 30
0.0
 10
-108.32479
 20
-45.3151
 30
0.0
 10
-107.82479
 20
-45.3151
 30
0.0
 10
-107.82479
 20
-45.3151
 30
0.0
 10
-107.82479
 20
-45.3151
 30
0.0
 10
-92.87479
 20
-45.3151
 30
0.0
 10
-92.87479
 20
-45.3151
 30
0.0
 10
-92.87479
 20
-45.3151
 30
0.0
 10
-92.37479
 20
-45.3151
 30
0.0
 10
-92.37479
 20
-45.3151
 30
0.0
 10
-92.37479
 20
-45.3151
 30
0.0
 10
-91.57479
 20
-45.3151
 30
0.0
 10
-91.57479
 20
-45.3151
 30
0.0
 10
-91.57479
 20
-45.3151
 30
0.0
 10
-91.57479
 20
-45.8651
 30
0.0
 10
-91.57479
 20
-45.8651
 30
0.0
 10
-91.57479
 20
-45.8651
 30
0.0
 10
-91.57479
 20
-46.3151
 30
0.0
 10
-91.57479
 20
-46.3151
 30
0.0
 10
-91.57479
 20
-46.3151
 30
0.0
 10
-92.37479
 20
-46.3151
 30
0.0
 10
-92.37479
 20
-46.3151
 30
0.0
 10
-92.37479
 20
-46.3151
 30
0.0
 10
-92.87479
 20
-46.3151
 30
0.0
 10
-92.87479
 20
-46.3151
 30
0.0
  0
SPLINE
  5
CD
330
1F
100
AcDbEntity
  8
Layer 1
 62
   250
370
     9
100
AcDbSpline
210
0.0
220
0.0
230
1.0
 70
    11
 71
     3
 72
    17
 73
    13
 74
     0
 42
0.0000000001
 43
0.0000000001
 40
0.0
 40
0.0
 40
0.0
 40
0.0
 40
0.25
 40
0.25
 40
0.25
 40
0.5
 40
0.5
 40
0.5
 40
0.75
 40
0.75
 40
0.75
 40
1.0
 40
1.0
 40
1.0
 40
1.0
 10
-102.14979
 20
-58.4651
 30
0.0
 10
-102.14979
 20
-58.4651
 30
0.0
 10
-101.54979
 20
-58.4651
 30
0.0
 10
-101.54979
 20
-58.4651
 30
0.0
 10
-101.54979
 20
-58.4651
 30
0.0
 10
-101.54979
 20
-58.8651
 30
0.0
 10
-101.54979
 20
-58.8651
 30
0.0
 10
-101.54979
 20
-58.8651
 30
0.0
 10
-102.14979
 20
-58.8651
 30
0.0
 10
-102.14979
 20
-58.8651
 30
0.0
 10
-102.14979
 20
-58.8651
 30
0.0
 10
-102.14979
 20
-58.4651
 30
0.0
 10
-102.14979
 20
-58.4651
 30
0.0
  0
SPLINE
  5
CE
330
1F
100
AcDbEntity
  8
Layer 1
 62
   250
370
     9
100
AcDbSpline
210
0.0
220
0.0
230
1.0
 70
    11
 71
     3
 72
    17
 73
    13
 74
     0
 42
0.0000000001
 43
0.0000000001
 40
0.0
 40
0.0
 40
0.0
 40
0.0
 40
0.25
 40
0.25
 40
0.25
 40
0.5
 40
0.5
 40
0.5
 40
0.75
 40
0.75
 40
0.75
 40
1.0
 40
1.0
 40
1.0
 40
1.0
 10
-99.14979
 20
-58.4651
 30
0.0
 10
-99.14979
 20
-58.4651
 30
0.0
 10
-98.54979
 20
-58.4651
 30
0.0
 10
-98.54979
 20
-58.4651
 30
0.0
 10
-98.54979
 20
-58.4651
 30
0.0
 10
-98.54979
 20
-58.8651
 30
0.0
 10
-98.54979
 20
-58.8651
 30
0.0
 10
-98.54979
 20
-58.8651
 30
0.0
 10
-99.14979
 20
-58.8651
 30
0.0
 10
-99.14979
 20
-58.8651
 30
0.0
 10
-99.14979
 20
-58.8651
 30
0.0
 10
-99.14979
 20
-58.4651
 30
0.0
 10
-99.14979
 20
-58.4651
 30
0.0
  0
SPLINE
  5
CF
330
1F
100
AcDbEntity
  8
Layer 1
 62
   250
370
     9
100
AcDbSpline
210
0.0
220
0.0
230
1.0
 70
    11
 71
     3
 72
    29
 73
    25
 74
     0
 42
0.0000000001
 43
0.0000000001
 40
0.0
 40
0.0
 40
0.0
 40
0.0
 40
0.125
 40
0.125
 40
0.125
 40
0.25
 40
0.25
 40
0.25
 40
0.375
 40
0.375
 40
0.375
 40
0.5
 40
0.5
 40
0.5
 40
0.625
 40
0.625
 40
0.625
 40
0.75
 40
0.75
 40
0.75
 40
0.875
 40
0.875
 40
0.875
 40
1.0
 40
1.0
 40
1.0
 40
1.0
 10
-31.27609
 20
-34.13814
 30
0.0
 10
-31.27609
 20
-34.13814
 30
0.0
 10
-20.9761
 20
-34.13814
 30
0.0
 10
-20.9761
 20
-34.13814
 30
0.0
 10
-20.3161
 20
-34.13814
 30
0.0
 10
-19.7761
 20
-34.67814
 30
0.0
 10
-19.7761
 20
-35.33814
 30
0.0
 10
-19.7761
 20
-35.33814
 30
0.0
 10
-19.7761
 20
-41.33813
 30
0.0
 10
-19.7761
 20
-41.33813
 30
0.0
 10
-19.7761
 20
-41.99813
 30
0.0
 10
-20.3161
 20
-42.53813
 30
0.0
 10
-20.9761
 20
-42.53813
 30
0.0
 10
-20.9761
 20
-42.53813
 30
0.0
 10
-31.27609
 20
-42.53813
 30
0.0
 10
-31.27609
 20
-42.53813
 30
0.0
 10
-31.93609
 20
-42.53813
 30
0.0
 10
-32.47609
 20
-41.99813
 30
0.0
 10
-32.47609
 20
-41.33813
 30
0.0
 10
-32.47609
 20
-41.33813
 30
0.0
 10
-32.47609
 20
-35.33814
 30
0.0
 10
-32.47609
 20
-35.33814
 30
0.0
 10
-32.47609
 20
-34.67814
 30
0.0
 10
-31.93609
 20
-34.13814
 30
0.0
 10
-31.27609
 20
-34.13814
 30
0.0
  0
SPLINE
  5
D0
330
1F
100
AcDbEntity
  8
Layer 1
 62
   250
370
     9
100
AcDbSpline
210
0.0
220
0.0
230
1.0
 70
    11
 71
     3
 72
    29
 73
    25
 74
     0
 42
0.0000000001
 43
0.0000000001
 40
0.0
 40
0.0
 40
0.0
 40
0.0
 40
0.125
 40
0.125
 40
0.125
 40
0.25
 40
0.25
 40
0.25
 40
0.375
 40
0.375
 40
0.375
 40
0.5
 40
0.5
 40
0.5
 40
0.625
 40
0.625
 40
0.625
 40
0.75
 40
0.75
 40
0.75
 40
0.875
 40
0.875
 40
0.875
 40
1.0
 40
1.0
 40
1.0
 40
1.0
 10
-31.27609
 20
-34.63814
 30
0.0
 10
-31.27609
 20
-34.63814
 30
0.0
 10
-20.9761
 20
-34.63814
 30
0.0
 10
-20.9761
 20
-34.63814
 30
0.0
 10
-20.5911
 20
-34.63814
 30
0.0
 10
-20.2761
 20
-34.95314
 30
0.0
 10
-20.2761
 20
-35.33814
 30
0.0
 10
-20.2761
 20
-35.33814
 30
0.0
 10
-20.2761
 20
-41.33813
 30
0.0
 10
-20.2761
 20
-41.33813
 30
0.0
 10
-20.2761
 20
-41.72313
 30
0.0
 10
-20.5911
 20
-42.03813
 30
0.0
 10
-20.9761
 20
-42.03813
 30
0.0
 10
-20.9761
 20
-42.03813
 30
0.0
 10
-31.27609
 20
-42.03813
 30
0.0
 10
-31.27609
 20
-42.03813
 30
0.0
 10
-31.66109
 20
-42.03813
 30
0.0
 10
-31.97609
 20
-41.72313
 30
0.0
 10
-31.97609
 20
-41.33813
 30
0.0
 10
-31.97609
 20
-41.33813
 30
0.0
 10
-31.97609
 20
-35.33814
 30
0.0
 10
-31.97609
 20
-35.33814
 30
0.0
 10
-31.97609
 20
-34.95314
 30
0.0
 10
-31.66109
 20
-34.63814
 30
0.0
 10
-31.27609
 20
-34.63814
 30
0.0
  0
SPLINE
  5
D1
330
1F
100
AcDbEntity
  8
Layer 1
 62
   250
370
     9
100
AcDbSpline
210
0.0
220
0.0
230
1.0
 70
    11
 71
     3
 72
    29
 73
    25
 74
     0
 42
0.0000000001
 43
0.0000000001
 40
0.0
 40
0.0
 40
0.0
 40
0.0
 40
0.125
 40
0.125
 40
0.125
 40
0.25
 40
0.25
 40
0.25
 40
0.375
 40
0.375
 40
0.375
 40
0.5
 40
0.5
 40
0.5
 40
0.625
 40
0.625
 40
0.625
 40
0.75
 40
0.75
 40
0.75
 40
0.875
 40
0.875
 40
0.875
 40
1.0
 40
1.0
 40
1.0
 40
1.0
 10
-31.7239
 20
-24.28239
 30
0.0
 10
-31.7239
 20
-24.28239
 30
0.0
 10
-21.42391
 20
-24.28239
 30
0.0
 10
-21.42391
 20
-24.28239
 30
0.0
 10
-20.76391
 20
-24.28239
 30
0.0
 10
-20.22391
 20
-24.82239
 30
0.0
 10
-20.22391
 20
-25.48239
 30
0.0
 10
-20.22391
 20
-25.48239
 30
0.0
 10
-20.22391
 20
-31.48238
 30
0.0
 10
-20.22391
 20
-31.48238
 30
0.0
 10
-20.22391
 20
-32.14238
 30
0.0
 10
-20.76391
 20
-32.68238
 30
0.0
 10
-21.42391
 20
-32.68238
 30
0.0
 10
-21.42391
 20
-32.68238
 30
0.0
 10
-31.7239
 20
-32.68238
 30
0.0
 10
-31.7239
 20
-32.68238
 30
0.0
 10
-32.3839
 20
-32.68238
 30
0.0
 10
-32.9239
 20
-32.14238
 30
0.0
 10
-32.9239
 20
-31.48238
 30
0.0
 10
-32.9239
 20
-31.48238
 30
0.0
 10
-32.9239
 20
-25.48239
 30
0.0
 10
-32.9239
 20
-25.48239
 30
0.0
 10
-32.9239
 20
-24.82239
 30
0.0
 10
-32.3839
 20
-24.28239
 30
0.0
 10
-31.7239
 20
-24.28239
 30
0.0
  0
SPLINE
  5
D2
330
1F
100
AcDbEntity
  8
Layer 1
 62
   250
370
     9
100
AcDbSpline
210
0.0
220
0.0
230
1.0
 70
    11
 71
     3
 72
    29
 73
    25
 74
     0
 42
0.0000000001
 43
0.0000000001
 40
0.0
 40
0.0
 40
0.0
 40
0.0
 40
0.125
 40
0.125
 40
0.125
 40
0.25
 40
0.25
 40
0.25
 40
0.375
 40
0.375
 40
0.375
 40
0.5
 40
0.5
 40
0.5
 40
0.625
 40
0.625
 40
0.625
 40
0.75
 40
0.75
 40
0.75
 40
0.875
 40
0.875
 40
0.875
 40
1.0
 40
1.0
 40
1.0
 40
1.0
 10
-31.7239
 20
-24.78239
 30
0.0
 10
-31.7239
 20
-24.78239
 30
0.0
 10
-21.42391
 20
-24.78239
 30
0.0
 10
-21.42391
 20
-24.78239
 30
0.0
 10
-21.03891
 20
-24.78239
 30
0.0
 10
-20.72391
 20
-25.09739
 30
0.0
 10
-20.72391
 20
-25.48239
 30
0.0
 10
-20.72391
 20
-25.48239
 30
0.0
 10
-20.72391
 20
-31.48238
 30
0.0
 10
-20.72391
 20
-31.48238
 30
0.0
 10
-20.72391
 20
-31.86738
 30
0.0
 10
-21.03891
 20
-32.18238
 30
0.0
 10
-21.42391
 20
-32.18238
 30
0.0
 10
-21.42391
 20
-32.18238
 30
0.0
 10
-31.7239
 20
-32.18238
 30
0.0
 10
-31.7239
 20
-32.18238
 30
0.0
 10
-32.1089
 20
-32.18238
 30
0.0
 10
-32.4239
 20
-31.86738
 30
0.0
 10
-32.4239
 20
-31.48238
 30
0.0
 10
-32.4239
 20
-31.48238
 30
0.0
 10
-32.4239
 20
-25.48239
 30
0.0
 10
-32.4239
 20
-25.48239
 30
0.0
 10
-32.4239
 20
-25.09739
 30
0.0
 10
-32.1089
 20
-24.78239
 30
0.0
 10
-31.7239
 20
-24.78239
 30
0.0
  0
SPLINE
  5
D3
330
1F
100
AcDbEntity
  8
Layer 1
 62
   250
370
     9
100
AcDbSpline
210
0.0
220
0.0
230
1.0
 70
    11
 71
     3
 72
    29
 73
    25
 74
     0
 42
0.0000000001
 43
0.0000000001
 40
0.0
 40
0.0
 40
0.0
 40
0.0
 40
0.125
 40
0.125
 40
0.125
 40
0.25
 40
0.25
 40
0.25
 40
0.375
 40
0.375
 40
0.375
 40
0.5
 40
0.5
 40
0.5
 40
0.625
 40
0.625
 40
0.625
 40
0.75
 40
0.75
 40
0.75
 40
0.875
 40
0.875
 40
0.875
 40
1.0
 40
1.0
 40
1.0
 40
1.0
 10
-15.35501
 20
-23.64128
 30
0.0
 10
-15.35501
 20
-23.64128
 30
0.0
 10
-5.05502
 20
-23.64128
 30
0.0
 10
-5.05502
 20
-23.64128
 30
0.0
 10
-4.39502
 20
-23.64128
 30
0.0
 10
-3.85502
 20
-24.18128
 30
0.0
 10
-3.85502
 20
-24.84128
 30
0.0
 10
-3.85502
 20
-24.84128
 30
0.0
 10
-3.85502
 20
-30.84127
 30
0.0
 10
-3.85502
 20
-30.84127
 30
0.0
 10
-3.85502
 20
-31.50127
 30
0.0
 10
-4.39502
 20
-32.04127
 30
0.0
 10
-5.05502
 20
-32.04127
 30
0.0
 10
-5.05502
 20
-32.04127
 30
0.0
 10
-15.35501
 20
-32.04127
 30
0.0
 10
-15.35501
 20
-32.04127
 30
0.0
 10
-16.01501
 20
-32.04127
 30
0.0
 10
-16.55501
 20
-31.50127
 30
0.0
 10
-16.55501
 20
-30.84127
 30
0.0
 10
-16.55501
 20
-30.84127
 30
0.0
 10
-16.55501
 20
-24.84128
 30
0.0
 10
-16.55501
 20
-24.84128
 30
0.0
 10
-16.55501
 20
-24.18128
 30
0.0
 10
-16.01501
 20
-23.64128
 30
0.0
 10
-15.35501
 20
-23.64128
 30
0.0
  0
SPLINE
  5
D4
330
1F
100
AcDbEntity
  8
Layer 1
 62
   250
370
     9
100
AcDbSpline
210
0.0
220
0.0
230
1.0
 70
    11
 71
     3
 72
    29
 73
    25
 74
     0
 42
0.0000000001
 43
0.0000000001
 40
0.0
 40
0.0
 40
0.0
 40
0.0
 40
0.125
 40
0.125
 40
0.125
 40
0.25
 40
0.25
 40
0.25
 40
0.375
 40
0.375
 40
0.375
 40
0.5
 40
0.5
 40
0.5
 40
0.625
 40
0.625
 40
0.625
 40
0.75
 40
0.75
 40
0.75
 40
0.875
 40
0.875
 40
0.875
 40
1.0
 40
1.0
 40
1.0
 40
1.0
 10
-15.35501
 20
-24.14128
 30
0.0
 10
-15.35501
 20
-24.14128
 30
0.0
 10
-5.05502
 20
-24.14128
 30
0.0
 10
-5.05502
 20
-24.14128
 30
0.0
 10
-4.67002
 20
-24.14128
 30
0.0
 10
-4.35502
 20
-24.45628
 30
0.0
 10
-4.35502
 20
-24.84128
 30
0.0
 10
-4.35502
 20
-24.84128
 30
0.0
 10
-4.35502
 20
-30.84127
 30
0.0
 10
-4.35502
 20
-30.84127
 30
0.0
 10
-4.35502
 20
-31.22627
 30
0.0
 10
-4.67002
 20
-31.54127
 30
0.0
 10
-5.05502
 20
-31.54127
 30
0.0
 10
-5.05502
 20
-31.54127
 30
0.0
 10
-15.35501
 20
-31.54127
 30
0.0
 10
-15.35501
 20
-31.54127
 30
0.0
 10
-15.74001
 20
-31.54127
 30
0.0
 10
-16.05501
 20
-31.22627
 30
0.0
 10
-16.05501
 20
-30.84127
 30
0.0
 10
-16.05501
 20
-30.84127
 30
0.0
 10
-16.05501
 20
-24.84128
 30
0.0
 10
-16.05501
 20
-24.84128
 30
0.0
 10
-16.05501
 20
-24.45628
 30
0.0
 10
-15.74001
 20
-24.14128
 30
0.0
 10
-15.35501
 20
-24.14128
 30
0.0
  0
SPLINE
  5
D5
330
1F
100
AcDbEntity
  8
Layer 1
 62
   250
370
     9
100
AcDbSpline
210
0.0
220
0.0
230
1.0
 70
    11
 71
     3
 72
    29
 73
    25
 74
     0
 42
0.0000000001
 43
0.0000000001
 40
0.0
 40
0.0
 40
0.0
 40
0.0
 40
0.125
 40
0.125
 40
0.125
 40
0.25
 40
0.25
 40
0.25
 40
0.375
 40
0.375
 40
0.375
 40
0.5
 40
0.5
 40
0.5
 40
0.625
 40
0.625
 40
0.625
 40
0.75
 40
0.75
 40
0.75
 40
0.875
 40
0.875
 40
0.875
 40
1.0
 40
1.0
 40
1.0
 40
1.0
 10
-15.14334
 20
-33.4485
 30
0.0
 10
-15.14334
 20
-33.4485
 30
0.0
 10
-4.84335
 20
-33.4485
 30
0.0
 10
-4.84335
 20
-33.4485
 30
0.0
 10
-4.18335
 20
-33.4485
 30
0.0
 10
-3.64335
 20
-33.9885
 30
0.0
 10
-3.64335
 20
-34.6485
 30
0.0
 10
-3.64335
 20
-34.6485
 30
0.0
 10
-3.64335
 20
-40.64849
 30
0.0
 10
-3.64335
 20
-40.64849
 30
0.0
 10
-3.64335
 20
-41.30849
 30
0.0
 10
-4.18335
 20
-41.84849
 30
0.0
 10
-4.84335
 20
-41.84849
 30
0.0
 10
-4.84335
 20
-41.84849
 30
0.0
 10
-15.14334
 20
-41.84849
 30
0.0
 10
-15.14334
 20
-41.84849
 30
0.0
 10
-15.80334
 20
-41.84849
 30
0.0
 10
-16.34334
 20
-41.30849
 30
0.0
 10
-16.34334
 20
-40.64849
 30
0.0
 10
-16.34334
 20
-40.64849
 30
0.0
 10
-16.34334
 20
-34.6485
 30
0.0
 10
-16.34334
 20
-34.6485
 30
0.0
 10
-16.34334
 20
-33.9885
 30
0.0
 10
-15.80334
 20
-33.4485
 30
0.0
 10
-15.14334
 20
-33.4485
 30
0.0
  0
SPLINE
  5
D6
330
1F
100
AcDbEntity
  8
Layer 1
 62
   250
370
     9
100
AcDbSpline
210
0.0
220
0.0
230
1.0
 70
    11
 71
     3
 72
    29
 73
    25
 74
     0
 42
0.0000000001
 43
0.0000000001
 40
0.0
 40
0.0
 40
0.0
 40
0.0
 40
0.125
 40
0.125
 40
0.125
 40
0.25
 40
0.25
 40
0.25
 40
0.375
 40
0.375
 40
0.375
 40
0.5
 40
0.5
 40
0.5
 40
0.625
 40
0.625
 40
0.625
 40
0.75
 40
0.75
 40
0.75
 40
0.875
 40
0.875
 40
0.875
 40
1.0
 40
1.0
 40
1.0
 40
1.0
 10
-15.14334
 20
-33.9485
 30
0.0
 10
-15.14334
 20
-33.9485
 30
0.0
 10
-4.84335
 20
-33.9485
 30
0.0
 10
-4.84335
 20
-33.9485
 30
0.0
 10
-4.45835
 20
-33.9485
 30
0.0
 10
-4.14335
 20
-34.2635
 30
0.0
 10
-4.14335
 20
-34.6485
 30
0.0
 10
-4.14335
 20
-34.6485
 30
0.0
 10
-4.14335
 20
-40.64849
 30
0.0
 10
-4.14335
 20
-40.64849
 30
0.0
 10
-4.14335
 20
-41.03349
 30
0.0
 10
-4.45835
 20
-41.34849
 30
0.0
 10
-4.84335
 20
-41.34849
 30
0.0
 10
-4.84335
 20
-41.34849
 30
0.0
 10
-15.14334
 20
-41.34849
 30
0.0
 10
-15.14334
 20
-41.34849
 30
0.0
 10
-15.52834
 20
-41.34849
 30
0.0
 10
-15.84334
 20
-41.03349
 30
0.0
 10
-15.84334
 20
-40.64849
 30
0.0
 10
-15.84334
 20
-40.64849
 30
0.0
 10
-15.84334
 20
-34.6485
 30
0.0
 10
-15.84334
 20
-34.6485
 30
0.0
 10
-15.84334
 20
-34.2635
 30
0.0
 10
-15.52834
 20
-33.9485
 30
0.0
 10
-15.14334
 20
-33.9485
 30
0.0
  0
SPLINE
  5
D7
330
1F
100
AcDbEntity
  8
Layer 1
 62
   250
370
     9
100
AcDbSpline
210
0.0
220
0.0
230
1.0
 70
    11
 71
     3
 72
    59
 73
    55
 74
     0
 42
0.0000000001
 43
0.0000000001
 40
0.0
 40
0.0
 40
0.0
 40
0.0
 40
0.0555555555555556
 40
0.0555555555555556
 40
0.0555555555555556
 40
0.1111111111111111
 40
0.1111111111111111
 40
0.1111111111111111
 40
0.1666666666666667
 40
0.1666666666666667
 40
0.1666666666666667
 40
0.2222222222222222
 40
0.2222222222222222
 40
0.2222222222222222
 40
0.2777777777777778
 40
0.2777777777777778
 40
0.2777777777777778
 40
0.3333333333333333
 40
0.3333333333333333
 40
0.3333333333333333
 40
0.3888888888888888
 40
0.3888888888888888
 40
0.3888888888888888
 40
0.4444444444444444
 40
0.4444444444444444
 40
0.4444444444444444
 40
0.5
 40
0.5
 40
0.5
 40
0.5555555555555556
 40
0.5555555555555556
 40
0.5555555555555556
 40
0.611111111111111
 40
0.611111111111111
 40
0.611111111111111
 40
0.6666666666666666
 40
0.6666666666666666
 40
0.6666666666666666
 40
0.7222222222222222
 40
0.7222222222222222
 40
0.7222222222222222
 40
0.7777777777777777
 40
0.7777777777777777
 40
0.7777777777777777
 40
0.8333333333333333
 40
0.8333333333333333
 40
0.8333333333333333
 40
0.8888888888888888
 40
0.8888888888888888
 40
0.8888888888888888
 40
0.9444444444444444
 40
0.9444444444444444
 40
0.9444444444444444
 40
1.0
 40
1.0
 40
1.0
 40
1.0
 10
-108.62055
 20
-70.1587
 30
0.0
 10
-108.62055
 20
-70.1587
 30
0.0
 10
-108.92055
 20
-70.1587
 30
0.0
 10
-108.92055
 20
-70.1587
 30
0.0
 10
-108.92055
 20
-70.1587
 30
0.0
 10
-108.92055
 20
-69.7587
 30
0.0
 10
-108.92055
 20
-69.7587
 30
0.0
 10
-108.92055
 20
-69.7587
 30
0.0
 10
-109.52055
 20
-69.7587
 30
0.0
 10
-109.52055
 20
-69.7587
 30
0.0
 10
-109.52055
 20
-69.7587
 30
0.0
 10
-109.52055
 20
-70.1587
 30
0.0
 10
-109.52055
 20
-70.1587
 30
0.0
 10
-109.52055
 20
-70.1587
 30
0.0
 10
-109.82055
 20
-70.1587
 30
0.0
 10
-109.82055
 20
-70.1587
 30
0.0
 10
-109.82055
 20
-70.1587
 30
0.0
 10
-109.82055
 20
-72.7087
 30
0.0
 10
-109.82055
 20
-72.7087
 30
0.0
 10
-109.82055
 20
-73.12116
 30
0.0
 10
-109.48305
 20
-73.4587
 30
0.0
 10
-109.07056
 20
-73.4587
 30
0.0
 10
-109.07056
 20
-73.4587
 30
0.0
 10
-108.62055
 20
-73.4587
 30
0.0
 10
-108.62055
 20
-73.4587
 30
0.0
 10
-108.62055
 20
-73.4587
 30
0.0
 10
-96.62055
 20
-73.4587
 30
0.0
 10
-96.62055
 20
-73.4587
 30
0.0
 10
-96.62055
 20
-73.4587
 30
0.0
 10
-96.12055
 20
-73.4587
 30
0.0
 10
-96.12055
 20
-73.4587
 30
0.0
 10
-96.12055
 20
-73.4587
 30
0.0
 10
-96.12055
 20
-72.9587
 30
0.0
 10
-96.12055
 20
-72.9587
 30
0.0
 10
-96.12055
 20
-72.9587
 30
0.0
 10
-95.72055
 20
-72.9587
 30
0.0
 10
-95.72055
 20
-72.9587
 30
0.0
 10
-95.72055
 20
-72.9587
 30
0.0
 10
-95.72055
 20
-71.9587
 30
0.0
 10
-95.72055
 20
-71.9587
 30
0.0
 10
-95.72055
 20
-71.9587
 30
0.0
 10
-96.12055
 20
-71.9587
 30
0.0
 10
-96.12055
 20
-71.9587
 30
0.0
 10
-96.12055
 20
-71.9587
 30
0.0
 10
-96.62055
 20
-71.9587
 30
0.0
 10
-96.62055
 20
-71.9587
 30
0.0
 10
-96.62055
 20
-71.9587
 30
0.0
 10
-96.62055
 20
-71.4587
 30
0.0
 10
-96.62055
 20
-71.4587
 30
0.0
 10
-96.62055
 20
-71.4587
 30
0.0
 10
-108.62055
 20
-71.5587
 30
0.0
 10
-108.62055
 20
-71.5587
 30
0.0
 10
-108.62055
 20
-71.5587
 30
0.0
 10
-108.62055
 20
-70.1587
 30
0.0
 10
-108.62055
 20
-70.1587
 30
0.0
  0
SPLINE
  5
D8
330
1F
100
AcDbEntity
  8
Layer 1
 62
   250
370
     9
100
AcDbSpline
210
0.0
220
0.0
230
1.0
 70
    11
 71
     3
 72
    59
 73
    55
 74
     0
 42
0.0000000001
 43
0.0000000001
 40
0.0
 40
0.0
 40
0.0
 40
0.0
 40
0.0555555555555556
 40
0.0555555555555556
 40
0.0555555555555556
 40
0.1111111111111111
 40
0.1111111111111111
 40
0.1111111111111111
 40
0.1666666666666667
 40
0.1666666666666667
 40
0.1666666666666667
 40
0.2222222222222222
 40
0.2222222222222222
 40
0.2222222222222222
 40
0.2777777777777778
 40
0.2777777777777778
 40
0.2777777777777778
 40
0.3333333333333333
 40
0.3333333333333333
 40
0.3333333333333333
 40
0.3888888888888888
 40
0.3888888888888888
 40
0.3888888888888888
 40
0.4444444444444444
 40
0.4444444444444444
 40
0.4444444444444444
 40
0.5
 40
0.5
 40
0.5
 40
0.5555555555555556
 40
0.5555555555555556
 40
0.5555555555555556
 40
0.611111111111111
 40
0.611111111111111
 40
0.611111111111111
 40
0.6666666666666666
 40
0.6666666666666666
 40
0.6666666666666666
 40
0.7222222222222222
 40
0.7222222222222222
 40
0.7222222222222222
 40
0.7777777777777777
 40
0.7777777777777777
 40
0.7777777777777777
 40
0.8333333333333333
 40
0.8333333333333333
 40
0.8333333333333333
 40
0.8888888888888888
 40
0.8888888888888888
 40
0.8888888888888888
 40
0.9444444444444444
 40
0.9444444444444444
 40
0.9444444444444444
 40
1.0
 40
1.0
 40
1.0
 40
1.0
 10
-125.62055
 20
-75.1587
 30
0.0
 10
-125.62055
 20
-75.1587
 30
0.0
 10
-125.92055
 20
-75.1587
 30
0.0
 10
-125.92055
 20
-75.1587
 30
0.0
 10
-125.92055
 20
-75.1587
 30
0.0
 10
-125.92055
 20
-74.7587
 30
0.0
 10
-125.92055
 20
-74.7587
 30
0.0
 10
-125.92055
 20
-74.7587
 30
0.0
 10
-126.52055
 20
-74.7587
 30
0.0
 10
-126.52055
 20
-74.7587
 30
0.0
 10
-126.52055
 20
-74.7587
 30
0.0
 10
-126.52055
 20
-75.1587
 30
0.0
 10
-126.52055
 20
-75.1587
 30
0.0
 10
-126.52055
 20
-75.1587
 30
0.0
 10
-126.82055
 20
-75.1587
 30
0.0
 10
-126.82055
 20
-75.1587
 30
0.0
 10
-126.82055
 20
-75.1587
 30
0.0
 10
-126.82055
 20
-77.7087
 30
0.0
 10
-126.82055
 20
-77.7087
 30
0.0
 10
-126.82055
 20
-78.12116
 30
0.0
 10
-126.48305
 20
-78.4587
 30
0.0
 10
-126.07056
 20
-78.4587
 30
0.0
 10
-126.07056
 20
-78.4587
 30
0.0
 10
-125.62055
 20
-78.4587
 30
0.0
 10
-125.62055
 20
-78.4587
 30
0.0
 10
-125.62055
 20
-78.4587
 30
0.0
 10
-113.62055
 20
-78.4587
 30
0.0
 10
-113.62055
 20
-78.4587
 30
0.0
 10
-113.62055
 20
-78.4587
 30
0.0
 10
-113.12055
 20
-78.4587
 30
0.0
 10
-113.12055
 20
-78.4587
 30
0.0
 10
-113.12055
 20
-78.4587
 30
0.0
 10
-113.12055
 20
-77.9587
 30
0.0
 10
-113.12055
 20
-77.9587
 30
0.0
 10
-113.12055
 20
-77.9587
 30
0.0
 10
-112.72055
 20
-77.9587
 30
0.0
 10
-112.72055
 20
-77.9587
 30
0.0
 10
-112.72055
 20
-77.9587
 30
0.0
 10
-112.72055
 20
-76.9587
 30
0.0
 10
-112.72055
 20
-76.9587
 30
0.0
 10
-112.72055
 20
-76.9587
 30
0.0
 10
-113.12055
 20
-76.9587
 30
0.0
 10
-113.12055
 20
-76.9587
 30
0.0
 10
-113.12055
 20
-76.9587
 30
0.0
 10
-113.62055
 20
-76.9587
 30
0.0
 10
-113.62055
 20
-76.9587
 30
0.0
 10
-113.62055
 20
-76.9587
 30
0.0
 10
-113.62055
 20
-76.4587
 30
0.0
 10
-113.62055
 20
-76.4587
 30
0.0
 10
-113.62055
 20
-76.4587
 30
0.0
 10
-125.62055
 20
-76.5587
 30
0.0
 10
-125.62055
 20
-76.5587
 30
0.0
 10
-125.62055
 20
-76.5587
 30
0.0
 10
-125.62055
 20
-75.1587
 30
0.0
 10
-125.62055
 20
-75.1587
 30
0.0
  0
SPLINE
  5
D9
330
1F
100
AcDbEntity
  8
Layer 1
 62
   250
370
     9
100
AcDbSpline
210
0.0
220
0.0
230
1.0
 70
    11
 71
     3
 72
    59
 73
    55
 74
     0
 42
0.0000000001
 43
0.0000000001
 40
0.0
 40
0.0
 40
0.0
 40
0.0
 40
0.0555555555555556
 40
0.0555555555555556
 40
0.0555555555555556
 40
0.1111111111111111
 40
0.1111111111111111
 40
0.1111111111111111
 40
0.1666666666666667
 40
0.1666666666666667
 40
0.1666666666666667
 40
0.2222222222222222
 40
0.2222222222222222
 40
0.2222222222222222
 40
0.2777777777777778
 40
0.2777777777777778
 40
0.2777777777777778
 40
0.3333333333333333
 40
0.3333333333333333
 40
0.3333333333333333
 40
0.3888888888888888
 40
0.3888888888888888
 40
0.3888888888888888
 40
0.4444444444444444
 40
0.4444444444444444
 40
0.4444444444444444
 40
0.5
 40
0.5
 40
0.5
 40
0.5555555555555556
 40
0.5555555555555556
 40
0.5555555555555556
 40
0.611111111111111
 40
0.611111111111111
 40
0.611111111111111
 40
0.6666666666666666
 40
0.6666666666666666
 40
0.6666666666666666
 40
0.7222222222222222
 40
0.7222222222222222
 40
0.7222222222222222
 40
0.7777777777777777
 40
0.7777777777777777
 40
0.7777777777777777
 40
0.8333333333333333
 40
0.8333333333333333
 40
0.8333333333333333
 40
0.8888888888888888
 40
0.8888888888888888
 40
0.8888888888888888
 40
0.9444444444444444
 40
0.9444444444444444
 40
0.9444444444444444
 40
1.0
 40
1.0
 40
1.0
 40
1.0
 10
-108.62055
 20
-75.1587
 30
0.0
 10
-108.62055
 20
-75.1587
 30
0.0
 10
-108.92055
 20
-75.1587
 30
0.0
 10
-108.92055
 20
-75.1587
 30
0.0
 10
-108.92055
 20
-75.1587
 30
0.0
 10
-108.92055
 20
-74.7587
 30
0.0
 10
-108.92055
 20
-74.7587
 30
0.0
 10
-108.92055
 20
-74.7587
 30
0.0
 10
-109.52055
 20
-74.7587
 30
0.0
 10
-109.52055
 20
-74.7587
 30
0.0
 10
-109.52055
 20
-74.7587
 30
0.0
 10
-109.52055
 20
-75.1587
 30
0.0
 10
-109.52055
 20
-75.1587
 30
0.0
 10
-109.52055
 20
-75.1587
 30
0.0
 10
-109.82055
 20
-75.1587
 30
0.0
 10
-109.82055
 20
-75.1587
 30
0.0
 10
-109.82055
 20
-75.1587
 30
0.0
 10
-109.82055
 20
-77.7087
 30
0.0
 10
-109.82055
 20
-77.7087
 30
0.0
 10
-109.82055
 20
-78.12116
 30
0.0
 10
-109.48305
 20
-78.4587
 30
0.0
 10
-109.07056
 20
-78.4587
 30
0.0
 10
-109.07056
 20
-78.4587
 30
0.0
 10
-108.62055
 20
-78.4587
 30
0.0
 10
-108.62055
 20
-78.4587
 30
0.0
 10
-108.62055
 20
-78.4587
 30
0.0
 10
-96.62055
 20
-78.4587
 30
0.0
 10
-96.62055
 20
-78.4587
 30
0.0
 10
-96.62055
 20
-78.4587
 30
0.0
 10
-96.12055
 20
-78.4587
 30
0.0
 10
-96.12055
 20
-78.4587
 30
0.0
 10
-96.12055
 20
-78.4587
 30
0.0
 10
-96.12055
 20
-77.9587
 30
0.0
 10
-96.12055
 20
-77.9587
 30
0.0
 10
-96.12055
 20
-77.9587
 30
0.0
 10
-95.72055
 20
-77.9587
 30
0.0
 10
-95.72055
 20
-77.9587
 30
0.0
 10
-95.72055
 20
-77.9587
 30
0.0
 10
-95.72055
 20
-76.9587
 30
0.0
 10
-95.72055
 20
-76.9587
 30
0.0
 10
-95.72055
 20
-76.9587
 30
0.0
 10
-96.12055
 20
-76.9587
 30
0.0
 10
-96.12055
 20
-76.9587
 30
0.0
 10
-96.12055
 20
-76.9587
 30
0.0
 10
-96.62055
 20
-76.9587
 30
0.0
 10
-96.62055
 20
-76.9587
 30
0.0
 10
-96.62055
 20
-76.9587
 30
0.0
 10
-96.62055
 20
-76.4587
 30
0.0
 10
-96.62055
 20
-76.4587
 30
0.0
 10
-96.62055
 20
-76.4587
 30
0.0
 10
-108.62055
 20
-76.5587
 30
0.0
 10
-108.62055
 20
-76.5587
 30
0.0
 10
-108.62055
 20
-76.5587
 30
0.0
 10
-108.62055
 20
-75.1587
 30
0.0
 10
-108.62055
 20
-75.1587
 30
0.0
  0
ENDSEC
  0
SECTION
  2
OBJECTS
  0
DICTIONARY
  5
C
330
0
100
AcDbDictionary
281
     1
  3
ACAD_DETAILVIEWSTYLE
350
E1
  3
ACAD_GROUP
350
D
  3
ACAD_LAYOUT
350
1A
  3
ACAD_MATERIAL
350
43
  3
ACAD_MLEADERSTYLE
350
5B
  3
ACAD_MLINESTYLE
350
17
  3
ACAD_PLOTSETTINGS
350
19
  3
ACAD_PLOTSTYLENAME
350
E
  3
ACAD_SCALELIST
350
47
  3
ACAD_SECTIONVIEWSTYLE
350
E2
  3
ACAD_TABLESTYLE
350
59
  3
ACAD_VISUALSTYLE
350
2A
  3
ACDB_RECOMPOSE_DATA
350
DE
  3
AcDbVariableDictionary
350
DA
  0
SUN
  5
5D
330
29
100
AcDbSun
 90
        1
290
     0
 63
     7
421
 16777215
 40
1.0
291
     1
 91
  2455826
 92
 54000000
292
     0
 70
     2
 71
   256
280
     1
  0
DICTIONARY
  5
E1
102
{ACAD_REACTORS
330
C
102
}
330
C
100
AcDbDictionary
281
     1
  0
DICTIONARY
  5
D
102
{ACAD_REACTORS
330
C
102
}
330
C
100
AcDbDictionary
281
     1
  0
DICTIONARY
  5
1A
102
{ACAD_REACTORS
330
C
102
}
330
C
100
AcDbDictionary
281
     1
  3
Layout1
350
1E
  3
Layout2
350
26
  3
Model
350
22
  0
DICTIONARY
  5
43
102
{ACAD_REACTORS
330
C
102
}
330
C
100
AcDbDictionary
281
     1
  3
ByBlock
350
45
  3
ByLayer
350
44
  3
Global
350
46
  0
DICTIONARY
  5
5B
102
{ACAD_REACTORS
330
C
102
}
330
C
100
AcDbDictionary
281
     1
  3
Standard
350
5C
  0
DICTIONARY
  5
17
102
{ACAD_REACTORS
330
C
102
}
330
C
100
AcDbDictionary
281
     1
  3
Standard
350
18
  0
DICTIONARY
  5
19
102
{ACAD_REACTORS
330
C
102
}
330
C
100
AcDbDictionary
281
     1
  0
ACDBDICTIONARYWDFLT
  5
E
102
{ACAD_REACTORS
330
C
102
}
330
C
100
AcDbDictionary
281
     1
  3
Normal
350
F
100
AcDbDictionaryWithDefault
340
F
  0
DICTIONARY
  5
47
102
{ACAD_REACTORS
330
C
102
}
330
C
100
AcDbDictionary
281
     1
  3
A0
350
48
  3
A1
350
49
  3
A2
350
4A
  3
A3
350
4B
  3
A4
350
4C
  3
A5
350
4D
  3
A6
350
4E
  3
A7
350
4F
  3
A8
350
50
  3
A9
350
51
  3
B1
350
52
  3
B2
350
53
  3
B3
350
54
  3
B4
350
55
  3
B5
350
56
  3
B6
350
57
  3
B7
350
58
  0
DICTIONARY
  5
E2
102
{ACAD_REACTORS
330
C
102
}
330
C
100
AcDbDictionary
281
     1
  0
DICTIONARY
  5
59
102
{ACAD_REACTORS
330
C
102
}
330
C
100
AcDbDictionary
281
     1
  3
Standard
350
5A
  0
DICTIONARY
  5
2A
102
{ACAD_REACTORS
330
C
102
}
330
C
100
AcDbDictionary
281
     1
  3
2dWireframe
350
2F
  3
Basic
350
32
  3
Brighten
350
36
  3
ColorChange
350
3A
  3
Conceptual
350
34
  3
Dim
350
35
  3
EdgeColorOff
350
3D
  3
Facepattern
350
39
  3
Flat
350
2B
  3
FlatWithEdges
350
2C
  3
Gouraud
350
2D
  3
GouraudWithEdges
350
2E
  3
Hidden
350
31
  3
JitterOff
350
3B
  3
Linepattern
350
38
  3
OverhangOff
350
3C
  3
Realistic
350
33
  3
Shaded
350
42
  3
Shaded with edges
350
41
  3
Shades of Gray
350
3E
  3
Sketchy
350
3F
  3
Thicken
350
37
  3
Wireframe
350
30
  3
X-Ray
350
40
  0
XRECORD
  5
DE
102
{ACAD_REACTORS
330
C
102
}
330
C
100
AcDbXrecord
280
     1
 90
        1
330
5A
  0
DICTIONARY
  5
DA
102
{ACAD_REACTORS
330
C
102
}
330
C
100
AcDbDictionary
281
     1
  3
CANNOSCALE
350
DB
  3
CMLEADERSTYLE
350
E0
  3
CTABLESTYLE
350
DF
  0
LAYOUT
  5
1E
102
{ACAD_REACTORS
330
1A
102
}
330
1A
100
AcDbPlotSettings
  1

  2
none_device
  4

  6

 40
0.0
 41
0.0
 42
0.0
 43
0.0
 44
0.0
 45
0.0
 46
0.0
 47
0.0
 48
0.0
 49
0.0
140
0.0
141
0.0
142
1.0
143
1.0
 70
   688
 72
     0
 73
     0
 74
     5
  7

 75
    16
 76
     0
 77
     2
 78
   300
147
1.0
148
0.0
149
0.0
100
AcDbLayout
  1
Layout1
 70
     1
 71
     1
 10
0.0
 20
0.0
 11
12.0
 21
9.0
 12
0.0
 22
0.0
 32
0.0
 14
1.000000000000000E+20
 24
1.000000000000000E+20
 34
1.000000000000000E+20
 15
-1.000000000000000E+20
 25
-1.000000000000000E+20
 35
-1.000000000000000E+20
146
0.0
 13
0.0
 23
0.0
 33
0.0
 16
1.0
 26
0.0
 36
0.0
 17
0.0
 27
1.0
 37
0.0
 76
     0
330
1B
  0
LAYOUT
  5
26
102
{ACAD_REACTORS
330
1A
102
}
330
1A
100
AcDbPlotSettings
  1

  2
none_device
  4

  6

 40
0.0
 41
0.0
 42
0.0
 43
0.0
 44
0.0
 45
0.0
 46
0.0
 47
0.0
 48
0.0
 49
0.0
140
0.0
141
0.0
142
1.0
143
1.0
 70
   688
 72
     0
 73
     0
 74
     5
  7

 75
    16
 76
     0
 77
     2
 78
   300
147
1.0
148
0.0
149
0.0
100
AcDbLayout
  1
Layout2
 70
     1
 71
     2
 10
0.0
 20
0.0
 11
0.0
 21
0.0
 12
0.0
 22
0.0
 32
0.0
 14
0.0
 24
0.0
 34
0.0
 15
0.0
 25
0.0
 35
0.0
146
0.0
 13
0.0
 23
0.0
 33
0.0
 16
1.0
 26
0.0
 36
0.0
 17
0.0
 27
1.0
 37
0.0
 76
     0
330
23
  0
LAYOUT
  5
22
102
{ACAD_REACTORS
330
1A
102
}
330
1A
100
AcDbPlotSettings
  1

  2
none_device
  4
Letter_(8.50_x_11.00_Inches)
  6

 40
6.35
 41
6.35
 42
6.35000508
 43
6.35000508
 44
215.9
 45
279.4
 46
0.0
 47
0.0
 48
0.0
 49
0.0
140
0.0
141
0.0
142
1.0
143
1.0
 70
  1712
 72
     0
 73
     0
 74
     0
  7

 75
     0
 76
     0
 77
     2
 78
   300
147
1.0
148
0.0
149
0.0
100
AcDbLayout
  1
Model
 70
     1
 71
     0
 10
0.0
 20
0.0
 11
12.0
 21
9.0
 12
0.0
 22
0.0
 32
0.0
 14
-129.6786
 24
-93.08657
 34
0.0
 15
30.68973
 25
62.16746
 35
0.0
146
0.0
 13
0.0
 23
0.0
 33
0.0
 16
1.0
 26
0.0
 36
0.0
 17
0.0
 27
1.0
 37
0.0
 76
     0
330
1F
331
29
  0
MATERIAL
  5
45
102
{ACAD_REACTORS
330
43
102
}
330
43
100
AcDbMaterial
  1
ByBlock
 72
     1
 94
      127
  0
MATERIAL
  5
44
102
{ACAD_REACTORS
330
43
102
}
330
43
100
AcDbMaterial
  1
ByLayer
 72
     1
 94
      127
  0
MATERIAL
  5
46
102
{ACAD_REACTORS
330
43
102
}
330
43
100
AcDbMaterial
  1
Global
 72
     1
 94
      127
  0
MLEADERSTYLE
  5
5C
102
{ACAD_REACTORS
330
5B
102
}
330
5B
100
AcDbMLeaderStyle
179
     2
170
     2
171
     1
172
     0
 90
        2
 40
0.0
 41
0.0
173
     1
 91
-1056964608
340
14
 92
       -2
290
     1
 42
0.09
291
     1
 43
0.36
  3
Standard
341
0
 44
0.18
300

342
11
174
     1
178
     6
175
     1
176
     0
 93
-1056964608
 45
0.18
292
     0
297
     0
 46
0.18
343
0
 94
-1056964608
 47
1.0
 49
1.0
140
1.0
293
     1
141
0.0
294
     1
177
     0
142
1.0
295
     0
296
     0
143
0.125
271
     0
272
     9
273
     9
298
     0
  0
MLINESTYLE
  5
18
102
{ACAD_REACTORS
330
17
102
}
330
17
100
AcDbMlineStyle
  2
Standard
 70
     0
  3

 62
   256
 51
90.0
 52
90.0
 71
     2
 49
0.5
 62
   256
  6
BYLAYER
 49
-0.5
 62
   256
  6
BYLAYER
  0
ACDBPLACEHOLDER
  5
F
102
{ACAD_REACTORS
330
E
102
}
330
E
  0
SCALE
  5
48
102
{ACAD_REACTORS
330
47
102
}
330
47
100
AcDbScale
 70
     0
300
1:1
140
1.0
141
1.0
290
     1
  0
SCALE
  5
49
102
{ACAD_REACTORS
330
47
102
}
330
47
100
AcDbScale
 70
     0
300
1/128" = 1'-0"
140
0.0078125
141
12.0
290
     0
  0
SCALE
  5
4A
102
{ACAD_REACTORS
330
47
102
}
330
47
100
AcDbScale
 70
     0
300
1/64" = 1'-0"
140
0.015625
141
12.0
290
     0
  0
SCALE
  5
4B
102
{ACAD_REACTORS
330
47
102
}
330
47
100
AcDbScale
 70
     0
300
1/32" = 1'-0"
140
0.03125
141
12.0
290
     0
  0
SCALE
  5
4C
102
{ACAD_REACTORS
330
47
102
}
330
47
100
AcDbScale
 70
     0
300
1/16" = 1'-0"
140
0.0625
141
12.0
290
     0
  0
SCALE
  5
4D
102
{ACAD_REACTORS
330
47
102
}
330
47
100
AcDbScale
 70
     0
300
3/32" = 1'-0"
140
0.09375
141
12.0
290
     0
  0
SCALE
  5
4E
102
{ACAD_REACTORS
330
47
102
}
330
47
100
AcDbScale
 70
     0
300
1/8" = 1'-0"
140
0.125
141
12.0
290
     0
  0
SCALE
  5
4F
102
{ACAD_REACTORS
330
47
102
}
330
47
100
AcDbScale
 70
     0
300
3/16" = 1'-0"
140
0.1875
141
12.0
290
     0
  0
SCALE
  5
50
102
{ACAD_REACTORS
330
47
102
}
330
47
100
AcDbScale
 70
     0
300
1/4" = 1'-0"
140
0.25
141
12.0
290
     0
  0
SCALE
  5
51
102
{ACAD_REACTORS
330
47
102
}
330
47
100
AcDbScale
 70
     0
300
3/8" = 1'-0"
140
0.375
141
12.0
290
     0
  0
SCALE
  5
52
102
{ACAD_REACTORS
330
47
102
}
330
47
100
AcDbScale
 70
     0
300
1/2" = 1'-0"
140
0.5
141
12.0
290
     0
  0
SCALE
  5
53
102
{ACAD_REACTORS
330
47
102
}
330
47
100
AcDbScale
 70
     0
300
3/4" = 1'-0"
140
0.75
141
12.0
290
     0
  0
SCALE
  5
54
102
{ACAD_REACTORS
330
47
102
}
330
47
100
AcDbScale
 70
     0
300
1" = 1'-0"
140
1.0
141
12.0
290
     0
  0
SCALE
  5
55
102
{ACAD_REACTORS
330
47
102
}
330
47
100
AcDbScale
 70
     0
300
1-1/2" = 1'-0"
140
1.5
141
12.0
290
     0
  0
SCALE
  5
56
102
{ACAD_REACTORS
330
47
102
}
330
47
100
AcDbScale
 70
     0
300
3" = 1'-0"
140
3.0
141
12.0
290
     0
  0
SCALE
  5
57
102
{ACAD_REACTORS
330
47
102
}
330
47
100
AcDbScale
 70
     0
300
6" = 1'-0"
140
6.0
141
12.0
290
     0
  0
SCALE
  5
58
102
{ACAD_REACTORS
330
47
102
}
330
47
100
AcDbScale
 70
     0
300
1'-0" = 1'-0"
140
12.0
141
12.0
290
     0
  0
TABLESTYLE
  5
5A
102
{ACAD_REACTORS
330
59
102
}
102
{ACAD_XDICTIONARY
360
DC
102
}
330
59
100
AcDbTableStyle
  3
Standard
 70
     0
 71
     0
 40
0.06
 41
0.06
280
     0
281
     0
  7
Standard
140
0.18
170
     2
 62
     0
 63
   257
283
     0
 90
        4
 91
        0
  1

274
    -2
284
     1
 64
     0
275
    -2
285
     1
 65
     0
276
    -2
286
     1
 66
     0
277
    -2
287
     1
 67
     0
278
    -2
288
     1
 68
     0
279
    -2
289
     1
 69
     0
  7
Standard
140
0.25
170
     5
 62
     0
 63
   257
283
     0
 90
        4
 91
        0
  1

274
    -2
284
     1
 64
     0
275
    -2
285
     1
 65
     0
276
    -2
286
     1
 66
     0
277
    -2
287
     1
 67
     0
278
    -2
288
     1
 68
     0
279
    -2
289
     1
 69
     0
  7
Standard
140
0.18
170
     5
 62
     0
 63
   257
283
     0
 90
        4
 91
        0
  1

274
    -2
284
     1
 64
     0
275
    -2
285
     1
 65
     0
276
    -2
286
     1
 66
     0
277
    -2
287
     1
 67
     0
278
    -2
288
     1
 68
     0
279
    -2
289
     1
 69
     0
  0
VISUALSTYLE
  5
2F
102
{ACAD_REACTORS
330
2A
102
}
330
2A
100
AcDbVisualStyle
  2
2dWireframe
 70
     4
177
     3
291
     0
 70
    58
 90
        0
176
     1
 90
        2
176
     1
 90
        0
176
     1
 90
        0
176
     1
 40
0.6
176
     1
 40
30.0
176
     1
 62
     7
420
 16777215
176
     1
 90
        1
176
     1
 90
        4
176
     1
 62
     7
176
     1
 62
   257
176
     1
 90
        1
176
     1
 90
        1
176
     1
 40
1.0
176
     1
 90
        0
176
     1
 62
   257
176
     1
 40
1.0
176
     1
 90
        1
176
     1
 90
        6
176
     1
 90
        2
176
     1
 62
     7
176
     1
 90
        5
176
     1
 90
        0
176
     1
 90
        0
176
     1
290
     0
176
     1
 90
        1
176
     1
 40
0.0
176
     1
 90
        0
176
     1
290
     1
176
     1
290
     1
176
     1
290
     0
176
     1
290
     0
176
     1
290
     0
176
     1
290
     0
176
     1
290
     0
176
     1
290
     0
176
     1
290
     0
176
     1
 90
       50
176
     1
 40
0.0
176
     1
 40
1.0
176
     1
 90
        0
176
     1
 62
    18
420
        0
176
     1
 90
       50
176
     1
 90
        3
176
     1
 62
     5
420
      255
176
     1
290
     0
176
     1
 90
       50
176
     1
 90
       50
176
     1
 90
       50
176
     1
290
     0
176
     1
 90
       50
176
     1
 62
   256
176
     0
 40
1.0
176
     0
 90
        2
176
     1
  1
strokes_ogs.tif
176
     1
290
     0
176
     1
 40
1.0
176
     1
 40
1.0
176
     1
  0
VISUALSTYLE
  5
32
102
{ACAD_REACTORS
330
2A
102
}
330
2A
100
AcDbVisualStyle
  2
Basic
 70
     7
177
     3
291
     1
 70
    58
 90
        1
176
     1
 90
        0
176
     1
 90
        1
176
     1
 90
        0
176
     1
 40
0.6
176
     1
 40
30.0
176
     1
 62
     7
420
 16777215
176
     1
 90
        0
176
     1
 90
        4
176
     1
 62
     7
176
     1
 62
   257
176
     1
 90
        1
176
     1
 90
        1
176
     1
 40
1.0
176
     1
 90
        8
176
     1
 62
     7
176
     1
 40
1.0
176
     1
 90
        1
176
     1
 90
        6
176
     1
 90
        2
176
     1
 62
     7
176
     1
 90
        5
176
     1
 90
        0
176
     1
 90
        0
176
     1
290
     0
176
     1
 90
        1
176
     1
 40
0.0
176
     1
 90
        0
176
     1
290
     0
176
     1
290
     1
176
     1
290
     1
176
     1
290
     0
176
     1
290
     0
176
     1
290
     0
176
     1
290
     0
176
     1
290
     0
176
     1
290
     0
176
     1
 90
       50
176
     1
 40
0.0
176
     1
 40
1.0
176
     1
 90
        0
176
     1
 62
    18
420
        0
176
     1
 90
       50
176
     1
 90
        3
176
     1
 62
     5
420
      255
176
     1
290
     0
176
     1
 90
       50
176
     1
 90
       50
176
     1
 90
       50
176
     1
290
     0
176
     1
 90
       50
176
     1
 62
   256
176
     0
 40
1.0
176
     0
 90
        2
176
     1
  1
strokes_ogs.tif
176
     1
290
     0
176
     1
 40
1.0
176
     1
 40
1.0
176
     1
  0
VISUALSTYLE
  5
36
102
{ACAD_REACTORS
330
2A
102
}
330
2A
100
AcDbVisualStyle
  2
Brighten
 70
    12
177
     3
291
     1
 70
    58
 90
        2
176
     1
 90
        2
176
     1
 90
        0
176
     1
 90
        0
176
     1
 40
0.6
176
     1
 40
30.0
176
     1
 62
     7
420
 16777215
176
     1
 90
        1
176
     1
 90
        4
176
     1
 62
     7
176
     1
 62
   257
176
     1
 90
        1
176
     1
 90
        1
176
     1
 40
1.0
176
     1
 90
        8
176
     1
 62
     7
176
     1
 40
1.0
176
     1
 90
        1
176
     1
 90
        6
176
     1
 90
        2
176
     1
 62
     7
176
     1
 90
        5
176
     1
 90
        0
176
     1
 90
        0
176
     1
290
     0
176
     1
 90
        1
176
     1
 40
50.0
176
     1
 90
        0
176
     1
290
     0
176
     1
290
     1
176
     1
290
     1
176
     1
290
     0
176
     1
290
     0
176
     1
290
     0
176
     1
290
     0
176
     1
290
     0
176
     1
290
     0
176
     1
 90
       50
176
     1
 40
0.0
176
     1
 40
1.0
176
     1
 90
        0
176
     1
 62
    18
420
        0
176
     1
 90
       50
176
     1
 90
        3
176
     1
 62
     5
420
      255
176
     1
290
     0
176
     1
 90
       50
176
     1
 90
       50
176
     1
 90
       50
176
     1
290
     0
176
     1
 90
       50
176
     1
 62
   256
176
     0
 40
1.0
176
     0
 90
        2
176
     1
  1
strokes_ogs.tif
176
     1
290
     0
176
     1
 40
1.0
176
     1
 40
1.0
176
     1
  0
VISUALSTYLE
  5
3A
102
{ACAD_REACTORS
330
2A
102
}
330
2A
100
AcDbVisualStyle
  2
ColorChange
 70
    16
177
     3
291
     1
 70
    58
 90
        2
176
     1
 90
        2
176
     1
 90
        3
176
     1
 90
        0
176
     1
 40
0.6
176
     1
 40
30.0
176
     1
 62
     8
420
  8421504
176
     1
 90
        1
176
     1
 90
        4
176
     1
 62
     7
176
     1
 62
   257
176
     1
 90
        1
176
     1
 90
        1
176
     1
 40
1.0
176
     1
 90
        8
176
     1
 62
     8
420
  8421504
176
     1
 40
1.0
176
     1
 90
        1
176
     1
 90
        6
176
     1
 90
        2
176
     1
 62
     7
176
     1
 90
        5
176
     1
 90
        0
176
     1
 90
        0
176
     1
290
     0
176
     1
 90
        1
176
     1
 40
0.0
176
     1
 90
        0
176
     1
290
     0
176
     1
290
     1
176
     1
290
     1
176
     1
290
     0
176
     1
290
     0
176
     1
290
     0
176
     1
290
     0
176
     1
290
     0
176
     1
290
     0
176
     1
 90
       50
176
     1
 40
0.0
176
     1
 40
1.0
176
     1
 90
        0
176
     1
 62
    18
420
        0
176
     1
 90
       50
176
     1
 90
        3
176
     1
 62
     5
420
      255
176
     1
290
     0
176
     1
 90
       50
176
     1
 90
       50
176
     1
 90
       50
176
     1
290
     0
176
     1
 90
       50
176
     1
 62
   256
176
     0
 40
1.0
176
     0
 90
        2
176
     1
  1
strokes_ogs.tif
176
     1
290
     0
176
     1
 40
1.0
176
     1
 40
1.0
176
     1
  0
VISUALSTYLE
  5
34
102
{ACAD_REACTORS
330
2A
102
}
330
2A
100
AcDbVisualStyle
  2
Conceptual
 70
     9
177
     3
291
     0
 70
    58
 90
        3
176
     1
 90
        2
176
     1
 90
        0
176
     1
 90
        0
176
     1
 40
0.6
176
     1
 40
30.0
176
     1
 62
     7
420
 16777215
176
     1
 90
        2
176
     1
 90
        2
176
     1
 62
     7
176
     1
 62
   257
176
     1
 90
        1
176
     1
 90
        1
176
     1
 40
179.0
176
     1
 90
        8
176
     1
 62
     7
176
     1
 40
1.0
176
     1
 90
        1
176
     1
 90
        6
176
     1
 90
        2
176
     1
 62
     7
176
     1
 90
        3
176
     1
 90
        0
176
     1
 90
        0
176
     1
290
     0
176
     1
 90
        1
176
     1
 40
0.0
176
     1
 90
        0
176
     1
290
     0
176
     1
290
     1
176
     1
290
     1
176
     1
290
     0
176
     1
290
     0
176
     1
290
     0
176
     1
290
     0
176
     1
290
     0
176
     1
290
     0
176
     1
 90
       50
176
     1
 40
0.0
176
     1
 40
1.0
176
     1
 90
        0
176
     1
 62
    18
420
        0
176
     1
 90
       50
176
     1
 90
        3
176
     1
 62
     5
420
      255
176
     1
290
     0
176
     1
 90
       50
176
     1
 90
       50
176
     1
 90
       50
176
     1
290
     0
176
     1
 90
       50
176
     1
 62
   256
176
     0
 40
1.0
176
     0
 90
        2
176
     1
  1
strokes_ogs.tif
176
     1
290
     0
176
     1
 40
1.0
176
     1
 40
1.0
176
     1
  0
VISUALSTYLE
  5
35
102
{ACAD_REACTORS
330
2A
102
}
330
2A
100
AcDbVisualStyle
  2
Dim
 70
    11
177
     3
291
     1
 70
    58
 90
        2
176
     1
 90
        2
176
     1
 90
        0
176
     1
 90
        0
176
     1
 40
0.6
176
     1
 40
30.0
176
     1
 62
     7
420
 16777215
176
     1
 90
        1
176
     1
 90
        4
176
     1
 62
     7
176
     1
 62
   257
176
     1
 90
        1
176
     1
 90
        1
176
     1
 40
1.0
176
     1
 90
        8
176
     1
 62
     7
176
     1
 40
1.0
176
     1
 90
        1
176
     1
 90
        6
176
     1
 90
        2
176
     1
 62
     7
176
     1
 90
        5
176
     1
 90
        0
176
     1
 90
        0
176
     1
290
     0
176
     1
 90
        1
176
     1
 40
-50.0
176
     1
 90
        0
176
     1
290
     0
176
     1
290
     1
176
     1
290
     1
176
     1
290
     0
176
     1
290
     0
176
     1
290
     0
176
     1
290
     0
176
     1
290
     0
176
     1
290
     0
176
     1
 90
       50
176
     1
 40
0.0
176
     1
 40
1.0
176
     1
 90
        0
176
     1
 62
    18
420
        0
176
     1
 90
       50
176
     1
 90
        3
176
     1
 62
     5
420
      255
176
     1
290
     0
176
     1
 90
       50
176
     1
 90
       50
176
     1
 90
       50
176
     1
290
     0
176
     1
 90
       50
176
     1
 62
   256
176
     0
 40
1.0
176
     0
 90
        2
176
     1
  1
strokes_ogs.tif
176
     1
290
     0
176
     1
 40
1.0
176
     1
 40
1.0
176
     1
  0
VISUALSTYLE
  5
3D
102
{ACAD_REACTORS
330
2A
102
}
330
2A
100
AcDbVisualStyle
  2
EdgeColorOff
 70
    22
177
     3
291
     1
 70
    58
 90
        2
176
     0
 90
        2
176
     0
 90
        0
176
     0
 90
        0
176
     0
 40
0.6
176
     0
 40
30.0
176
     0
 62
     7
420
 16777215
176
     0
 90
        1
176
     0
 90
        4
176
     0
 62
     7
176
     0
 62
   257
176
     0
 90
        1
176
     0
 90
        1
176
     0
 40
1.0
176
     0
 90
        8
176
     2
 62
     7
176
     0
 40
1.0
176
     0
 90
        1
176
     0
 90
        6
176
     0
 90
        2
176
     0
 62
     7
176
     0
 90
        5
176
     0
 90
        0
176
     0
 90
        0
176
     0
290
     0
176
     0
 90
        1
176
     0
 40
0.0
176
     0
 90
        0
176
     0
290
     0
176
     0
290
     1
176
     0
290
     1
176
     0
290
     0
176
     0
290
     0
176
     0
290
     0
176
     0
290
     0
176
     0
290
     0
176
     0
290
     0
176
     0
 90
       50
176
     0
 40
0.0
176
     0
 40
1.0
176
     0
 90
        0
176
     0
 62
    18
420
        0
176
     0
 90
       50
176
     0
 90
        3
176
     0
 62
     5
420
      255
176
     0
290
     0
176
     0
 90
       50
176
     0
 90
       50
176
     0
 90
       50
176
     0
290
     0
176
     0
 90
       50
176
     0
 62
   256
176
     0
 40
1.0
176
     0
 90
        2
176
     0
  1
strokes_ogs.tif
176
     0
290
     0
176
     0
 40
1.0
176
     0
 40
1.0
176
     0
  0
VISUALSTYLE
  5
39
102
{ACAD_REACTORS
330
2A
102
}
330
2A
100
AcDbVisualStyle
  2
Facepattern
 70
    15
177
     3
291
     1
 70
    58
 90
        2
176
     1
 90
        2
176
     1
 90
        0
176
     1
 90
        0
176
     1
 40
0.6
176
     1
 40
30.0
176
     1
 62
     7
420
 16777215
176
     1
 90
        1
176
     1
 90
        4
176
     1
 62
     7
176
     1
 62
   257
176
     1
 90
        1
176
     1
 90
        1
176
     1
 40
1.0
176
     1
 90
        8
176
     1
 62
     7
176
     1
 40
1.0
176
     1
 90
        1
176
     1
 90
        6
176
     1
 90
        2
176
     1
 62
     7
176
     1
 90
        5
176
     1
 90
        0
176
     1
 90
        0
176
     1
290
     0
176
     1
 90
        1
176
     1
 40
0.0
176
     1
 90
        0
176
     1
290
     0
176
     1
290
     1
176
     1
290
     1
176
     1
290
     0
176
     1
290
     0
176
     1
290
     0
176
     1
290
     0
176
     1
290
     0
176
     1
290
     0
176
     1
 90
       50
176
     1
 40
0.0
176
     1
 40
1.0
176
     1
 90
        0
176
     1
 62
    18
420
        0
176
     1
 90
       50
176
     1
 90
        3
176
     1
 62
     5
420
      255
176
     1
290
     0
176
     1
 90
       50
176
     1
 90
       50
176
     1
 90
       50
176
     1
290
     0
176
     1
 90
       50
176
     1
 62
   256
176
     0
 40
1.0
176
     0
 90
        2
176
     1
  1
strokes_ogs.tif
176
     1
290
     0
176
     1
 40
1.0
176
     1
 40
1.0
176
     1
  0
VISUALSTYLE
  5
2B
102
{ACAD_REACTORS
330
2A
102
}
330
2A
100
AcDbVisualStyle
  2
Flat
 70
     0
177
     3
291
     1
 70
    58
 90
        2
176
     1
 90
        1
176
     1
 90
        1
176
     1
 90
        2
176
     1
 40
0.6
176
     1
 40
30.0
176
     1
 62
     7
420
 16777215
176
     1
 90
        0
176
     1
 90
        0
176
     1
 62
     7
176
     1
 62
   257
176
     1
 90
        1
176
     1
 90
        1
176
     1
 40
1.0
176
     1
 90
        8
176
     1
 62
     7
176
     1
 40
1.0
176
     1
 90
        1
176
     1
 90
        6
176
     1
 90
        2
176
     1
 62
     7
176
     1
 90
        5
176
     1
 90
        0
176
     1
 90
        0
176
     1
290
     0
176
     1
 90
       13
176
     1
 40
0.0
176
     1
 90
        0
176
     1
290
     0
176
     1
290
     1
176
     1
290
     1
176
     1
290
     0
176
     1
290
     0
176
     1
290
     0
176
     1
290
     0
176
     1
290
     0
176
     1
290
     0
176
     1
 90
       50
176
     1
 40
0.0
176
     1
 40
1.0
176
     1
 90
        0
176
     1
 62
    18
420
        0
176
     1
 90
       50
176
     1
 90
        3
176
     1
 62
     5
420
      255
176
     1
290
     0
176
     1
 90
       50
176
     1
 90
       50
176
     1
 90
       50
176
     1
290
     0
176
     1
 90
       50
176
     1
 62
   256
176
     0
 40
1.0
176
     0
 90
        2
176
     1
  1
strokes_ogs.tif
176
     1
290
     0
176
     1
 40
1.0
176
     1
 40
1.0
176
     1
  0
VISUALSTYLE
  5
2C
102
{ACAD_REACTORS
330
2A
102
}
330
2A
100
AcDbVisualStyle
  2
FlatWithEdges
 70
     1
177
     3
291
     1
 70
    58
 90
        2
176
     1
 90
        1
176
     1
 90
        1
176
     1
 90
        2
176
     1
 40
0.6
176
     1
 40
30.0
176
     1
 62
     7
420
 16777215
176
     1
 90
        1
176
     1
 90
        0
176
     1
 62
     7
176
     1
 62
   257
176
     1
 90
        1
176
     1
 90
        1
176
     1
 40
1.0
176
     1
 90
        0
176
     1
 62
   257
176
     1
 40
1.0
176
     1
 90
        1
176
     1
 90
        6
176
     1
 90
        2
176
     1
 62
     7
176
     1
 90
        5
176
     1
 90
        0
176
     1
 90
        0
176
     1
290
     0
176
     1
 90
       13
176
     1
 40
0.0
176
     1
 90
        0
176
     1
290
     0
176
     1
290
     1
176
     1
290
     1
176
     1
290
     0
176
     1
290
     0
176
     1
290
     0
176
     1
290
     0
176
     1
290
     0
176
     1
290
     0
176
     1
 90
       50
176
     1
 40
0.0
176
     1
 40
1.0
176
     1
 90
        0
176
     1
 62
    18
420
        0
176
     1
 90
       50
176
     1
 90
        3
176
     1
 62
     5
420
      255
176
     1
290
     0
176
     1
 90
       50
176
     1
 90
       50
176
     1
 90
       50
176
     1
290
     0
176
     1
 90
       50
176
     1
 62
   256
176
     0
 40
1.0
176
     0
 90
        2
176
     1
  1
strokes_ogs.tif
176
     1
290
     0
176
     1
 40
1.0
176
     1
 40
1.0
176
     1
  0
VISUALSTYLE
  5
2D
102
{ACAD_REACTORS
330
2A
102
}
330
2A
100
AcDbVisualStyle
  2
Gouraud
 70
     2
177
     3
291
     1
 70
    58
 90
        2
176
     1
 90
        2
176
     1
 90
        1
176
     1
 90
        2
176
     1
 40
0.6
176
     1
 40
30.0
176
     1
 62
     7
420
 16777215
176
     1
 90
        0
176
     1
 90
        0
176
     1
 62
     7
176
     1
 62
   257
176
     1
 90
        1
176
     1
 90
        1
176
     1
 40
1.0
176
     1
 90
        0
176
     1
 62
     7
176
     1
 40
1.0
176
     1
 90
        1
176
     1
 90
        6
176
     1
 90
        2
176
     1
 62
     7
176
     1
 90
        5
176
     1
 90
        0
176
     1
 90
        0
176
     1
290
     0
176
     1
 90
       13
176
     1
 40
0.0
176
     1
 90
        0
176
     1
290
     0
176
     1
290
     1
176
     1
290
     1
176
     1
290
     0
176
     1
290
     0
176
     1
290
     0
176
     1
290
     0
176
     1
290
     0
176
     1
290
     0
176
     1
 90
       50
176
     1
 40
0.0
176
     1
 40
1.0
176
     1
 90
        0
176
     1
 62
    18
420
        0
176
     1
 90
       50
176
     1
 90
        3
176
     1
 62
     5
420
      255
176
     1
290
     0
176
     1
 90
       50
176
     1
 90
       50
176
     1
 90
       50
176
     1
290
     0
176
     1
 90
       50
176
     1
 62
   256
176
     0
 40
1.0
176
     0
 90
        2
176
     1
  1
strokes_ogs.tif
176
     1
290
     0
176
     1
 40
1.0
176
     1
 40
1.0
176
     1
  0
VISUALSTYLE
  5
2E
102
{ACAD_REACTORS
330
2A
102
}
330
2A
100
AcDbVisualStyle
  2
GouraudWithEdges
 70
     3
177
     3
291
     1
 70
    58
 90
        2
176
     1
 90
        2
176
     1
 90
        1
176
     1
 90
        2
176
     1
 40
0.6
176
     1
 40
30.0
176
     1
 62
     7
420
 16777215
176
     1
 90
        1
176
     1
 90
        0
176
     1
 62
     7
176
     1
 62
   257
176
     1
 90
        1
176
     1
 90
        1
176
     1
 40
1.0
176
     1
 90
        0
176
     1
 62
   257
176
     1
 40
1.0
176
     1
 90
        1
176
     1
 90
        6
176
     1
 90
        2
176
     1
 62
     7
176
     1
 90
        5
176
     1
 90
        0
176
     1
 90
        0
176
     1
290
     0
176
     1
 90
       13
176
     1
 40
0.0
176
     1
 90
        0
176
     1
290
     0
176
     1
290
     1
176
     1
290
     1
176
     1
290
     0
176
     1
290
     0
176
     1
290
     0
176
     1
290
     0
176
     1
290
     0
176
     1
290
     0
176
     1
 90
       50
176
     1
 40
0.0
176
     1
 40
1.0
176
     1
 90
        0
176
     1
 62
    18
420
        0
176
     1
 90
       50
176
     1
 90
        3
176
     1
 62
     5
420
      255
176
     1
290
     0
176
     1
 90
       50
176
     1
 90
       50
176
     1
 90
       50
176
     1
290
     0
176
     1
 90
       50
176
     1
 62
   256
176
     0
 40
1.0
176
     0
 90
        2
176
     1
  1
strokes_ogs.tif
176
     1
290
     0
176
     1
 40
1.0
176
     1
 40
1.0
176
     1
  0
VISUALSTYLE
  5
31
102
{ACAD_REACTORS
330
2A
102
}
330
2A
100
AcDbVisualStyle
  2
Hidden
 70
     6
177
     3
291
     0
 70
    58
 90
        1
176
     1
 90
        2
176
     1
 90
        2
176
     1
 90
        0
176
     1
 40
0.6
176
     1
 40
30.0
176
     1
 62
     7
420
 16777215
176
     1
 90
        2
176
     1
 90
        2
176
     1
 62
     7
176
     1
 62
   257
176
     1
 90
        2
176
     1
 90
        1
176
     1
 40
40.0
176
     1
 90
        0
176
     1
 62
   257
176
     1
 40
1.0
176
     1
 90
        1
176
     1
 90
        6
176
     1
 90
        2
176
     1
 62
     7
176
     1
 90
        3
176
     1
 90
        0
176
     1
 90
        0
176
     1
290
     0
176
     1
 90
        1
176
     1
 40
0.0
176
     1
 90
        0
176
     1
290
     0
176
     1
290
     1
176
     1
290
     1
176
     1
290
     0
176
     1
290
     0
176
     1
290
     0
176
     1
290
     0
176
     1
290
     0
176
     1
290
     0
176
     1
 90
       50
176
     1
 40
0.0
176
     1
 40
1.0
176
     1
 90
        0
176
     1
 62
    18
420
        0
176
     1
 90
       50
176
     1
 90
        3
176
     1
 62
     5
420
      255
176
     1
290
     0
176
     1
 90
       50
176
     1
 90
       50
176
     1
 90
       50
176
     1
290
     0
176
     1
 90
       50
176
     1
 62
   256
176
     0
 40
1.0
176
     0
 90
        2
176
     1
  1
strokes_ogs.tif
176
     1
290
     0
176
     1
 40
1.0
176
     1
 40
1.0
176
     1
  0
VISUALSTYLE
  5
3B
102
{ACAD_REACTORS
330
2A
102
}
330
2A
100
AcDbVisualStyle
  2
JitterOff
 70
    20
177
     3
291
     1
 70
    58
 90
        2
176
     0
 90
        2
176
     0
 90
        0
176
     0
 90
        0
176
     0
 40
0.6
176
     0
 40
30.0
176
     0
 62
     7
420
 16777215
176
     0
 90
        1
176
     0
 90
        4
176
     0
 62
     7
176
     0
 62
   257
176
     0
 90
        1
176
     0
 90
        1
176
     0
 40
1.0
176
     0
 90
       10
176
     2
 62
     7
176
     0
 40
1.0
176
     0
 90
        1
176
     0
 90
        6
176
     0
 90
        2
176
     0
 62
     7
176
     0
 90
        5
176
     0
 90
        0
176
     0
 90
        0
176
     0
290
     0
176
     0
 90
        1
176
     0
 40
0.0
176
     0
 90
        0
176
     0
290
     0
176
     0
290
     1
176
     0
290
     1
176
     0
290
     0
176
     0
290
     0
176
     0
290
     0
176
     0
290
     0
176
     0
290
     0
176
     0
290
     0
176
     0
 90
       50
176
     0
 40
0.0
176
     0
 40
1.0
176
     0
 90
        0
176
     0
 62
    18
420
        0
176
     0
 90
       50
176
     0
 90
        3
176
     0
 62
     5
420
      255
176
     0
290
     0
176
     0
 90
       50
176
     0
 90
       50
176
     0
 90
       50
176
     0
290
     0
176
     0
 90
       50
176
     0
 62
   256
176
     0
 40
1.0
176
     0
 90
        2
176
     0
  1
strokes_ogs.tif
176
     0
290
     0
176
     0
 40
1.0
176
     0
 40
1.0
176
     0
  0
VISUALSTYLE
  5
38
102
{ACAD_REACTORS
330
2A
102
}
330
2A
100
AcDbVisualStyle
  2
Linepattern
 70
    14
177
     3
291
     1
 70
    58
 90
        2
176
     1
 90
        2
176
     1
 90
        0
176
     1
 90
        0
176
     1
 40
0.6
176
     1
 40
30.0
176
     1
 62
     7
420
 16777215
176
     1
 90
        1
176
     1
 90
        4
176
     1
 62
     7
176
     1
 62
   257
176
     1
 90
        7
176
     1
 90
        7
176
     1
 40
1.0
176
     1
 90
        8
176
     1
 62
     7
176
     1
 40
1.0
176
     1
 90
        1
176
     1
 90
        6
176
     1
 90
        2
176
     1
 62
     7
176
     1
 90
        5
176
     1
 90
        0
176
     1
 90
        0
176
     1
290
     0
176
     1
 90
        1
176
     1
 40
0.0
176
     1
 90
        0
176
     1
290
     0
176
     1
290
     1
176
     1
290
     1
176
     1
290
     0
176
     1
290
     0
176
     1
290
     0
176
     1
290
     0
176
     1
290
     0
176
     1
290
     0
176
     1
 90
       50
176
     1
 40
0.0
176
     1
 40
1.0
176
     1
 90
        0
176
     1
 62
    18
420
        0
176
     1
 90
       50
176
     1
 90
        3
176
     1
 62
     5
420
      255
176
     1
290
     0
176
     1
 90
       50
176
     1
 90
       50
176
     1
 90
       50
176
     1
290
     0
176
     1
 90
       50
176
     1
 62
   256
176
     0
 40
1.0
176
     0
 90
        2
176
     1
  1
strokes_ogs.tif
176
     1
290
     0
176
     1
 40
1.0
176
     1
 40
1.0
176
     1
  0
VISUALSTYLE
  5
3C
102
{ACAD_REACTORS
330
2A
102
}
330
2A
100
AcDbVisualStyle
  2
OverhangOff
 70
    21
177
     3
291
     1
 70
    58
 90
        2
176
     0
 90
        2
176
     0
 90
        0
176
     0
 90
        0
176
     0
 40
0.6
176
     0
 40
30.0
176
     0
 62
     7
420
 16777215
176
     0
 90
        1
176
     0
 90
        4
176
     0
 62
     7
176
     0
 62
   257
176
     0
 90
        1
176
     0
 90
        1
176
     0
 40
1.0
176
     0
 90
        9
176
     2
 62
     7
176
     0
 40
1.0
176
     0
 90
        1
176
     0
 90
        6
176
     0
 90
        2
176
     0
 62
     7
176
     0
 90
        5
176
     0
 90
        0
176
     0
 90
        0
176
     0
290
     0
176
     0
 90
        1
176
     0
 40
0.0
176
     0
 90
        0
176
     0
290
     0
176
     0
290
     1
176
     0
290
     1
176
     0
290
     0
176
     0
290
     0
176
     0
290
     0
176
     0
290
     0
176
     0
290
     0
176
     0
290
     0
176
     0
 90
       50
176
     0
 40
0.0
176
     0
 40
1.0
176
     0
 90
        0
176
     0
 62
    18
420
        0
176
     0
 90
       50
176
     0
 90
        3
176
     0
 62
     5
420
      255
176
     0
290
     0
176
     0
 90
       50
176
     0
 90
       50
176
     0
 90
       50
176
     0
290
     0
176
     0
 90
       50
176
     0
 62
   256
176
     0
 40
1.0
176
     0
 90
        2
176
     0
  1
strokes_ogs.tif
176
     0
290
     0
176
     0
 40
1.0
176
     0
 40
1.0
176
     0
  0
VISUALSTYLE
  5
33
102
{ACAD_REACTORS
330
2A
102
}
330
2A
100
AcDbVisualStyle
  2
Realistic
 70
     8
177
     3
291
     0
 70
    58
 90
        2
176
     1
 90
        3
176
     1
 90
        0
176
     1
 90
        2
176
     1
 40
0.6
176
     1
 40
30.0
176
     1
 62
     7
420
 16777215
176
     1
 90
        0
176
     1
 90
        0
176
     1
 62
     7
176
     1
 62
   257
176
     1
 90
        1
176
     1
 90
        1
176
     1
 40
1.0
176
     1
 90
        8
176
     1
 62
   257
176
     1
 40
1.0
176
     1
 90
        1
176
     1
 90
        6
176
     1
 90
        2
176
     1
 62
     7
176
     1
 90
        3
176
     1
 90
        0
176
     1
 90
        0
176
     1
290
     0
176
     1
 90
       13
176
     1
 40
0.0
176
     1
 90
        0
176
     1
290
     0
176
     1
290
     1
176
     1
290
     1
176
     1
290
     0
176
     1
290
     0
176
     1
290
     0
176
     1
290
     0
176
     1
290
     0
176
     1
290
     0
176
     1
 90
       50
176
     1
 40
0.0
176
     1
 40
1.0
176
     1
 90
        0
176
     1
 62
    18
420
        0
176
     1
 90
       50
176
     1
 90
        3
176
     1
 62
     5
420
      255
176
     1
290
     0
176
     1
 90
       50
176
     1
 90
       50
176
     1
 90
       50
176
     1
290
     0
176
     1
 90
       50
176
     1
 62
   256
176
     0
 40
1.0
176
     0
 90
        2
176
     1
  1
strokes_ogs.tif
176
     1
290
     0
176
     1
 40
1.0
176
     1
 40
1.0
176
     1
  0
VISUALSTYLE
  5
42
102
{ACAD_REACTORS
330
2A
102
}
330
2A
100
AcDbVisualStyle
  2
Shaded
 70
    27
177
     3
291
     0
 70
    58
 90
        2
176
     1
 90
        2
176
     1
 90
        1
176
     1
 90
        2
176
     1
 40
0.6
176
     1
 40
30.0
176
     1
 62
     7
420
 16777215
176
     1
 90
        0
176
     1
 90
        4
176
     1
 62
     7
176
     1
 62
   257
176
     1
 90
        1
176
     1
 90
        1
176
     1
 40
1.0
176
     1
 90
        8
176
     1
 62
   257
176
     1
 40
1.0
176
     1
 90
        1
176
     1
 90
        6
176
     1
 90
        2
176
     1
 62
     8
420
  7895160
176
     1
 90
        3
176
     1
 90
        0
176
     1
 90
        0
176
     1
290
     0
176
     1
 90
        5
176
     1
 40
0.0
176
     1
 90
        0
176
     1
290
     0
176
     1
290
     1
176
     1
290
     1
176
     1
290
     0
176
     1
290
     0
176
     1
290
     0
176
     1
290
     0
176
     1
290
     0
176
     1
290
     0
176
     1
 90
       50
176
     1
 40
0.0
176
     1
 40
1.0
176
     1
 90
        0
176
     1
 62
    18
420
        0
176
     1
 90
       50
176
     1
 90
        3
176
     1
 62
     5
420
      255
176
     1
290
     0
176
     1
 90
       50
176
     1
 90
       50
176
     1
 90
       50
176
     1
290
     0
176
     1
 90
       50
176
     1
 62
   256
176
     0
 40
1.0
176
     0
 90
        2
176
     1
  1
strokes_ogs.tif
176
     1
290
     0
176
     1
 40
1.0
176
     1
 40
1.0
176
     1
  0
VISUALSTYLE
  5
41
102
{ACAD_REACTORS
330
2A
102
}
330
2A
100
AcDbVisualStyle
  2
Shaded with edges
 70
    26
177
     3
291
     0
 70
    58
 90
        2
176
     1
 90
        2
176
     1
 90
        1
176
     1
 90
        2
176
     1
 40
0.6
176
     1
 40
30.0
176
     1
 62
     7
420
 16777215
176
     1
 90
        1
176
     1
 90
       10
176
     1
 62
     7
176
     1
 62
   257
176
     1
 90
        2
176
     1
 90
        1
176
     1
 40
1.0
176
     1
 90
        8
176
     1
 62
   257
176
     1
 40
1.0
176
     1
 90
        1
176
     1
 90
        6
176
     1
 90
        2
176
     1
 62
     7
176
     1
 90
        3
176
     1
 90
        0
176
     1
 90
        0
176
     1
290
     0
176
     1
 90
        5
176
     1
 40
0.0
176
     1
 90
        0
176
     1
290
     0
176
     1
290
     1
176
     1
290
     1
176
     1
290
     0
176
     1
290
     0
176
     1
290
     0
176
     1
290
     0
176
     1
290
     0
176
     1
290
     0
176
     1
 90
       50
176
     1
 40
0.0
176
     1
 40
1.0
176
     1
 90
        0
176
     1
 62
    18
420
        0
176
     1
 90
       50
176
     1
 90
        3
176
     1
 62
     5
420
      255
176
     1
290
     0
176
     1
 90
       50
176
     1
 90
       50
176
     1
 90
       50
176
     1
290
     0
176
     1
 90
       50
176
     1
 62
   256
176
     0
 40
1.0
176
     0
 90
        2
176
     1
  1
strokes_ogs.tif
176
     1
290
     0
176
     1
 40
1.0
176
     1
 40
1.0
176
     1
  0
VISUALSTYLE
  5
3E
102
{ACAD_REACTORS
330
2A
102
}
330
2A
100
AcDbVisualStyle
  2
Shades of Gray
 70
    23
177
     3
291
     0
 70
    58
 90
        2
176
     1
 90
        2
176
     1
 90
        3
176
     1
 90
        0
176
     1
 40
0.6
176
     1
 40
30.0
176
     1
 62
     7
420
 16777215
176
     1
 90
        2
176
     1
 90
        2
176
     1
 62
     7
176
     1
 62
     7
176
     1
 90
        1
176
     1
 90
        1
176
     1
 40
40.0
176
     1
 90
        8
176
     1
 62
     7
176
     1
 40
1.0
176
     1
 90
        1
176
     1
 90
        6
176
     1
 90
        2
176
     1
 62
     7
176
     1
 90
        3
176
     1
 90
        0
176
     1
 90
        0
176
     1
290
     0
176
     1
 90
        1
176
     1
 40
0.0
176
     1
 90
        0
176
     1
290
     0
176
     1
290
     1
176
     1
290
     1
176
     1
290
     0
176
     1
290
     0
176
     1
290
     0
176
     1
290
     0
176
     1
290
     0
176
     1
290
     0
176
     1
 90
       50
176
     1
 40
0.0
176
     1
 40
1.0
176
     1
 90
        0
176
     1
 62
    18
420
        0
176
     1
 90
       50
176
     1
 90
        3
176
     1
 62
     5
420
      255
176
     1
290
     0
176
     1
 90
       50
176
     1
 90
       50
176
     1
 90
       50
176
     1
290
     0
176
     1
 90
       50
176
     1
 62
   256
176
     0
 40
1.0
176
     0
 90
        2
176
     1
  1
strokes_ogs.tif
176
     1
290
     0
176
     1
 40
1.0
176
     1
 40
1.0
176
     1
  0
VISUALSTYLE
  5
3F
102
{ACAD_REACTORS
330
2A
102
}
330
2A
100
AcDbVisualStyle
  2
Sketchy
 70
    24
177
     3
291
     0
 70
    58
 90
        1
176
     1
 90
        2
176
     1
 90
        2
176
     1
 90
        0
176
     1
 40
0.6
176
     1
 40
30.0
176
     1
 62
     7
420
 16777215
176
     1
 90
        2
176
     1
 90
        2
176
     1
 62
     7
176
     1
 62
     7
176
     1
 90
        1
176
     1
 90
        1
176
     1
 40
40.0
176
     1
 90
       11
176
     1
 62
     7
176
     1
 40
1.0
176
     1
 90
        1
176
     1
 90
        6
176
     1
 90
        2
176
     1
 62
     7
176
     1
 90
        6
176
     1
 90
        0
176
     1
 90
        0
176
     1
290
     0
176
     1
 90
        1
176
     1
 40
0.0
176
     1
 90
        0
176
     1
290
     0
176
     1
290
     1
176
     1
290
     1
176
     1
290
     0
176
     1
290
     0
176
     1
290
     0
176
     1
290
     0
176
     1
290
     0
176
     1
290
     0
176
     1
 90
       50
176
     1
 40
0.0
176
     1
 40
1.0
176
     1
 90
        0
176
     1
 62
    18
420
        0
176
     1
 90
       50
176
     1
 90
        3
176
     1
 62
     5
420
      255
176
     1
290
     0
176
     1
 90
       50
176
     1
 90
       50
176
     1
 90
       50
176
     1
290
     0
176
     1
 90
       50
176
     1
 62
   256
176
     0
 40
1.0
176
     0
 90
        2
176
     1
  1
strokes_ogs.tif
176
     1
290
     0
176
     1
 40
1.0
176
     1
 40
1.0
176
     1
  0
VISUALSTYLE
  5
37
102
{ACAD_REACTORS
330
2A
102
}
330
2A
100
AcDbVisualStyle
  2
Thicken
 70
    13
177
     3
291
     1
 70
    58
 90
        2
176
     1
 90
        2
176
     1
 90
        0
176
     1
 90
        0
176
     1
 40
0.6
176
     1
 40
30.0
176
     1
 62
     7
420
 16777215
176
     1
 90
        1
176
     1
 90
        4
176
     1
 62
     7
176
     1
 62
   257
176
     1
 90
        1
176
     1
 90
        1
176
     1
 40
1.0
176
     1
 90
       12
176
     1
 62
     7
176
     1
 40
1.0
176
     1
 90
        1
176
     1
 90
        6
176
     1
 90
        2
176
     1
 62
     7
176
     1
 90
        5
176
     1
 90
        0
176
     1
 90
        0
176
     1
290
     0
176
     1
 90
        1
176
     1
 40
0.0
176
     1
 90
        0
176
     1
290
     0
176
     1
290
     1
176
     1
290
     1
176
     1
290
     0
176
     1
290
     0
176
     1
290
     0
176
     1
290
     0
176
     1
290
     0
176
     1
290
     0
176
     1
 90
       50
176
     1
 40
0.0
176
     1
 40
1.0
176
     1
 90
        0
176
     1
 62
    18
420
        0
176
     1
 90
       50
176
     1
 90
        3
176
     1
 62
     5
420
      255
176
     1
290
     0
176
     1
 90
       50
176
     1
 90
       50
176
     1
 90
       50
176
     1
290
     0
176
     1
 90
       50
176
     1
 62
   256
176
     0
 40
1.0
176
     0
 90
        2
176
     1
  1
strokes_ogs.tif
176
     1
290
     0
176
     1
 40
1.0
176
     1
 40
1.0
176
     1
  0
VISUALSTYLE
  5
30
102
{ACAD_REACTORS
330
2A
102
}
330
2A
100
AcDbVisualStyle
  2
Wireframe
 70
     5
177
     3
291
     0
 70
    58
 90
        0
176
     1
 90
        2
176
     1
 90
        0
176
     1
 90
        0
176
     1
 40
0.6
176
     1
 40
30.0
176
     1
 62
     7
420
 16777215
176
     1
 90
        1
176
     1
 90
        4
176
     1
 62
     7
176
     1
 62
   257
176
     1
 90
        1
176
     1
 90
        1
176
     1
 40
1.0
176
     1
 90
        0
176
     1
 62
   257
176
     1
 40
1.0
176
     1
 90
        1
176
     1
 90
        6
176
     1
 90
        2
176
     1
 62
     7
176
     1
 90
        3
176
     1
 90
        0
176
     1
 90
        0
176
     1
290
     0
176
     1
 90
        1
176
     1
 40
0.0
176
     1
 90
        0
176
     1
290
     0
176
     1
290
     1
176
     1
290
     1
176
     1
290
     0
176
     1
290
     0
176
     1
290
     0
176
     1
290
     0
176
     1
290
     0
176
     1
290
     0
176
     1
 90
       50
176
     1
 40
0.0
176
     1
 40
1.0
176
     1
 90
        0
176
     1
 62
    18
420
        0
176
     1
 90
       50
176
     1
 90
        3
176
     1
 62
     5
420
      255
176
     1
290
     0
176
     1
 90
       50
176
     1
 90
       50
176
     1
 90
       50
176
     1
290
     0
176
     1
 90
       50
176
     1
 62
   256
176
     0
 40
1.0
176
     0
 90
        2
176
     1
  1
strokes_ogs.tif
176
     1
290
     0
176
     1
 40
1.0
176
     1
 40
1.0
176
     1
  0
VISUALSTYLE
  5
40
102
{ACAD_REACTORS
330
2A
102
}
330
2A
100
AcDbVisualStyle
  2
X-Ray
 70
    25
177
     3
291
     0
 70
    58
 90
        2
176
     1
 90
        2
176
     1
 90
        1
176
     1
 90
        1
176
     1
 40
0.5
176
     1
 40
30.0
176
     1
 62
     7
420
 16777215
176
     1
 90
        1
176
     1
 90
        0
176
     1
 62
     7
176
     1
 62
   257
176
     1
 90
        1
176
     1
 90
        1
176
     1
 40
1.0
176
     1
 90
        8
176
     1
 62
     7
176
     1
 40
1.0
176
     1
 90
        1
176
     1
 90
        6
176
     1
 90
        2
176
     1
 62
     7
176
     1
 90
        3
176
     1
 90
        0
176
     1
 90
        0
176
     1
290
     0
176
     1
 90
       13
176
     1
 40
0.0
176
     1
 90
        0
176
     1
290
     0
176
     1
290
     1
176
     1
290
     1
176
     1
290
     0
176
     1
290
     0
176
     1
290
     0
176
     1
290
     0
176
     1
290
     0
176
     1
290
     0
176
     1
 90
       50
176
     1
 40
0.0
176
     1
 40
1.0
176
     1
 90
        0
176
     1
 62
    18
420
        0
176
     1
 90
       50
176
     1
 90
        3
176
     1
 62
     5
420
      255
176
     1
290
     0
176
     1
 90
       50
176
     1
 90
       50
176
     1
 90
       50
176
     1
290
     0
176
     1
 90
       50
176
     1
 62
   256
176
     0
 40
1.0
176
     0
 90
        2
176
     1
  1
strokes_ogs.tif
176
     1
290
     0
176
     1
 40
1.0
176
     1
 40
1.0
176
     1
  0
DICTIONARYVAR
  5
DB
102
{ACAD_REACTORS
330
DA
102
}
330
DA
100
DictionaryVariables
280
     0
  1
1:1
  0
DICTIONARYVAR
  5
E0
102
{ACAD_REACTORS
330
DA
102
}
330
DA
100
DictionaryVariables
280
     0
  1
Standard
  0
DICTIONARYVAR
  5
DF
102
{ACAD_REACTORS
330
DA
102
}
330
DA
100
DictionaryVariables
280
     0
  1
Standard
  0
DICTIONARY
  5
DC
330
5A
100
AcDbDictionary
280
     1
281
     1
  3
ACAD_ROUNDTRIP_2008_TABLESTYLE_CELLSTYLEMAP
360
DD
  0
CELLSTYLEMAP
  5
DD
102
{ACAD_REACTORS
330
DC
102
}
330
DC
100
AcDbCellStyleMap
 90
        3
300
CELLSTYLE
  1
TABLEFORMAT_BEGIN
 90
        5
170
     1
 91
        0
 92
    32768
 62
   257
 93
        1
300
CONTENTFORMAT
  1
CONTENTFORMAT_BEGIN
 90
        0
 91
        0
 92
        4
 93
        0
300

 40
0.0
140
1.0
 94
        5
 62
     0
340
11
144
0.25
309
CONTENTFORMAT_END
171
     1
301
MARGIN
  1
CELLMARGIN_BEGIN
 40
0.06
 40
0.06
 40
0.06
 40
0.06
 40
0.06
 40
0.06
309
CELLMARGIN_END
 94
        6
 95
        1
302
GRIDFORMAT
  1
GRIDFORMAT_BEGIN
 90
        0
 91
        1
 62
     0
 92
       -2
340
14
 93
        0
 40
0.045
309
GRIDFORMAT_END
 95
        2
302
GRIDFORMAT
  1
GRIDFORMAT_BEGIN
 90
        0
 91
        1
 62
     0
 92
       -2
340
14
 93
        0
 40
0.045
309
GRIDFORMAT_END
 95
        4
302
GRIDFORMAT
  1
GRIDFORMAT_BEGIN
 90
        0
 91
        1
 62
     0
 92
       -2
340
14
 93
        0
 40
0.045
309
GRIDFORMAT_END
 95
        8
302
GRIDFORMAT
  1
GRIDFORMAT_BEGIN
 90
        0
 91
        1
 62
     0
 92
       -2
340
14
 93
        0
 40
0.045
309
GRIDFORMAT_END
 95
       16
302
GRIDFORMAT
  1
GRIDFORMAT_BEGIN
 90
        0
 91
        1
 62
     0
 92
       -2
340
14
 93
        0
 40
0.045
309
GRIDFORMAT_END
 95
       32
302
GRIDFORMAT
  1
GRIDFORMAT_BEGIN
 90
        0
 91
        1
 62
     0
 92
       -2
340
14
 93
        0
 40
0.045
309
GRIDFORMAT_END
309
TABLEFORMAT_END
  1
CELLSTYLE_BEGIN
 90
        1
 91
        1
300
_TITLE
309
CELLSTYLE_END
300
CELLSTYLE
  1
TABLEFORMAT_BEGIN
 90
        5
170
     1
 91
        0
 92
        0
 62
   257
 93
        1
300
CONTENTFORMAT
  1
CONTENTFORMAT_BEGIN
 90
        0
 91
        0
 92
        4
 93
        0
300

 40
0.0
140
1.0
 94
        5
 62
     0
340
11
144
0.18
309
CONTENTFORMAT_END
171
     1
301
MARGIN
  1
CELLMARGIN_BEGIN
 40
0.06
 40
0.06
 40
0.06
 40
0.06
 40
0.06
 40
0.06
309
CELLMARGIN_END
 94
        6
 95
        1
302
GRIDFORMAT
  1
GRIDFORMAT_BEGIN
 90
        0
 91
        1
 62
     0
 92
       -2
340
14
 93
        0
 40
0.045
309
GRIDFORMAT_END
 95
        2
302
GRIDFORMAT
  1
GRIDFORMAT_BEGIN
 90
        0
 91
        1
 62
     0
 92
       -2
340
14
 93
        0
 40
0.045
309
GRIDFORMAT_END
 95
        4
302
GRIDFORMAT
  1
GRIDFORMAT_BEGIN
 90
        0
 91
        1
 62
     0
 92
       -2
340
14
 93
        0
 40
0.045
309
GRIDFORMAT_END
 95
        8
302
GRIDFORMAT
  1
GRIDFORMAT_BEGIN
 90
        0
 91
        1
 62
     0
 92
       -2
340
14
 93
        0
 40
0.045
309
GRIDFORMAT_END
 95
       16
302
GRIDFORMAT
  1
GRIDFORMAT_BEGIN
 90
        0
 91
        1
 62
     0
 92
       -2
340
14
 93
        0
 40
0.045
309
GRIDFORMAT_END
 95
       32
302
GRIDFORMAT
  1
GRIDFORMAT_BEGIN
 90
        0
 91
        1
 62
     0
 92
       -2
340
14
 93
        0
 40
0.045
309
GRIDFORMAT_END
309
TABLEFORMAT_END
  1
CELLSTYLE_BEGIN
 90
        2
 91
        1
300
_HEADER
309
CELLSTYLE_END
300
CELLSTYLE
  1
TABLEFORMAT_BEGIN
 90
        5
170
     1
 91
        0
 92
        0
 62
   257
 93
        1
300
CONTENTFORMAT
  1
CONTENTFORMAT_BEGIN
 90
        0
 91
        0
 92
        4
 93
        0
300

 40
0.0
140
1.0
 94
        2
 62
     0
340
11
144
0.18
309
CONTENTFORMAT_END
171
     1
301
MARGIN
  1
CELLMARGIN_BEGIN
 40
0.06
 40
0.06
 40
0.06
 40
0.06
 40
0.06
 40
0.06
309
CELLMARGIN_END
 94
        6
 95
        1
302
GRIDFORMAT
  1
GRIDFORMAT_BEGIN
 90
        0
 91
        1
 62
     0
 92
       -2
340
14
 93
        0
 40
0.045
309
GRIDFORMAT_END
 95
        2
302
GRIDFORMAT
  1
GRIDFORMAT_BEGIN
 90
        0
 91
        1
 62
     0
 92
       -2
340
14
 93
        0
 40
0.045
309
GRIDFORMAT_END
 95
        4
302
GRIDFORMAT
  1
GRIDFORMAT_BEGIN
 90
        0
 91
        1
 62
     0
 92
       -2
340
14
 93
        0
 40
0.045
309
GRIDFORMAT_END
 95
        8
302
GRIDFORMAT
  1
GRIDFORMAT_BEGIN
 90
        0
 91
        1
 62
     0
 92
       -2
340
14
 93
        0
 40
0.045
309
GRIDFORMAT_END
 95
       16
302
GRIDFORMAT
  1
GRIDFORMAT_BEGIN
 90
        0
 91
        1
 62
     0
 92
       -2
340
14
 93
        0
 40
0.045
309
GRIDFORMAT_END
 95
       32
302
GRIDFORMAT
  1
GRIDFORMAT_BEGIN
 90
        0
 91
        1
 62
     0
 92
       -2
340
14
 93
        0
 40
0.045
309
GRIDFORMAT_END
309
TABLEFORMAT_END
  1
CELLSTYLE_BEGIN
 90
        3
 91
        2
300
_DATA
309
CELLSTYLE_END
  0
ENDSEC
  0
EOF
