  0
SECTION
  2
HEADER
  9
$ACADVER
  1
AC1032
  9
$ACADMAINTVER
 90
       55
  9
$DWGCODEPAGE
  3
ANSI_1251
  9
$LASTSAVEDBY
  1
torde
  9
$REQUIREDVERSIONS
160
                 0
  9
$INSBASE
 10
0.0
 20
0.0
 30
0.0
  9
$EXTMIN
 10
-10.15544
 20
-12.27324
 30
0.0
  9
$EXTMAX
 10
10.15544
 20
12.27324
 30
0.0
  9
$LIMMIN
 10
0.0
 20
0.0
  9
$LIMMAX
 10
12.0
 20
9.0
  9
$ORTHOMODE
 70
     0
  9
$REGENMODE
 70
     1
  9
$FILLMODE
 70
     1
  9
$QTEXTMODE
 70
     0
  9
$MIRRTEXT
 70
     1
  9
$LTSCALE
 40
1.0
  9
$ATTMODE
 70
     1
  9
$TEXTSIZE
 40
0.2
  9
$TRACEWID
 40
0.05
  9
$TEXTSTYLE
  7
Standard
  9
$CLAYER
  8
0
  9
$CELTYPE
  6
ByLayer
  9
$CECOLOR
 62
   256
  9
$CELTSCALE
 40
1.0
  9
$DISPSILH
 70
     0
  9
$DIMSCALE
 40
1.0
  9
$DIMASZ
 40
0.18
  9
$DIMEXO
 40
0.0625
  9
$DIMDLI
 40
0.38
  9
$DIMRND
 40
0.0
  9
$DIMDLE
 40
0.0
  9
$DIMEXE
 40
0.18
  9
$DIMTP
 40
0.0
  9
$DIMTM
 40
0.0
  9
$DIMTXT
 40
0.18
  9
$DIMCEN
 40
0.09
  9
$DIMTSZ
 40
0.0
  9
$DIMTOL
 70
     0
  9
$DIMLIM
 70
     0
  9
$DIMTIH
 70
     1
  9
$DIMTOH
 70
     1
  9
$DIMSE1
 70
     0
  9
$DIMSE2
 70
     0
  9
$DIMTAD
 70
     0
  9
$DIMZIN
 70
     0
  9
$DIMBLK
  1

  9
$DIMASO
 70
     1
  9
$DIMSHO
 70
     1
  9
$DIMPOST
  1

  9
$DIMAPOST
  1

  9
$DIMALT
 70
     0
  9
$DIMALTD
 70
     2
  9
$DIMALTF
 40
25.4
  9
$DIMLFAC
 40
1.0
  9
$DIMTOFL
 70
     0
  9
$DIMTVP
 40
0.0
  9
$DIMTIX
 70
     0
  9
$DIMSOXD
 70
     0
  9
$DIMSAH
 70
     0
  9
$DIMBLK1
  1

  9
$DIMBLK2
  1

  9
$DIMSTYLE
  2
Standard
  9
$DIMCLRD
 70
     0
  9
$DIMCLRE
 70
     0
  9
$DIMCLRT
 70
     0
  9
$DIMTFAC
 40
1.0
  9
$DIMGAP
 40
0.09
  9
$DIMJUST
 70
     0
  9
$DIMSD1
 70
     0
  9
$DIMSD2
 70
     0
  9
$DIMTOLJ
 70
     1
  9
$DIMTZIN
 70
     0
  9
$DIMALTZ
 70
     0
  9
$DIMALTTZ
 70
     0
  9
$DIMUPT
 70
     0
  9
$DIMDEC
 70
     4
  9
$DIMTDEC
 70
     4
  9
$DIMALTU
 70
     2
  9
$DIMALTTD
 70
     2
  9
$DIMTXSTY
  7
Standard
  9
$DIMAUNIT
 70
     0
  9
$DIMADEC
 70
     0
  9
$DIMALTRND
 40
0.0
  9
$DIMAZIN
 70
     0
  9
$DIMDSEP
 70
    46
  9
$DIMATFIT
 70
     3
  9
$DIMFRAC
 70
     0
  9
$DIMLDRBLK
  1

  9
$DIMLUNIT
 70
     2
  9
$DIMLWD
 70
    -2
  9
$DIMLWE
 70
    -2
  9
$DIMTMOVE
 70
     0
  9
$DIMFXL
 40
1.0
  9
$DIMFXLON
 70
     0
  9
$DIMJOGANG
 40
0.7853981633974483
  9
$DIMTFILL
 70
     0
  9
$DIMTFILLCLR
 70
     0
  9
$DIMARCSYM
 70
     0
  9
$DIMLTYPE
  6

  9
$DIMLTEX1
  6

  9
$DIMLTEX2
  6

  9
$DIMTXTDIRECTION
 70
     0
  9
$LUNITS
 70
     2
  9
$LUPREC
 70
     4
  9
$SKETCHINC
 40
0.1
  9
$FILLETRAD
 40
0.0
  9
$AUNITS
 70
     0
  9
$AUPREC
 70
     0
  9
$MENU
  1
.
  9
$ELEVATION
 40
0.0
  9
$PELEVATION
 40
0.0
  9
$THICKNESS
 40
0.0
  9
$LIMCHECK
 70
     0
  9
$CHAMFERA
 40
0.0
  9
$CHAMFERB
 40
0.0
  9
$CHAMFERC
 40
0.0
  9
$CHAMFERD
 40
0.0
  9
$SKPOLY
 70
     0
  9
$TDCREATE
 40
2461096.604288021
  9
$TDUCREATE
 40
2461096.479288021
  9
$TDUPDATE
 40
2461096.604288113
  9
$TDUUPDATE
 40
2461096.479288113
  9
$TDINDWG
 40
0.0000000116
  9
$TDUSRTIMER
 40
0.0000000116
  9
$USRTIMER
 70
     1
  9
$ANGBASE
 50
0.0
  9
$ANGDIR
 70
     0
  9
$PDMODE
 70
     0
  9
$PDSIZE
 40
0.0
  9
$PLINEWID
 40
0.0
  9
$SPLFRAME
 70
     0
  9
$SPLINETYPE
 70
     6
  9
$SPLINESEGS
 70
     8
  9
$HANDSEED
  5
F5
  9
$SURFTAB1
 70
     6
  9
$SURFTAB2
 70
     6
  9
$SURFTYPE
 70
     6
  9
$SURFU
 70
     6
  9
$SURFV
 70
     6
  9
$UCSBASE
  2

  9
$UCSNAME
  2

  9
$UCSORG
 10
0.0
 20
0.0
 30
0.0
  9
$UCSXDIR
 10
1.0
 20
0.0
 30
0.0
  9
$UCSYDIR
 10
0.0
 20
1.0
 30
0.0
  9
$UCSORTHOREF
  2

  9
$UCSORTHOVIEW
 70
     0
  9
$UCSORGTOP
 10
0.0
 20
0.0
 30
0.0
  9
$UCSORGBOTTOM
 10
0.0
 20
0.0
 30
0.0
  9
$UCSORGLEFT
 10
0.0
 20
0.0
 30
0.0
  9
$UCSORGRIGHT
 10
0.0
 20
0.0
 30
0.0
  9
$UCSORGFRONT
 10
0.0
 20
0.0
 30
0.0
  9
$UCSORGBACK
 10
0.0
 20
0.0
 30
0.0
  9
$PUCSBASE
  2

  9
$PUCSNAME
  2

  9
$PUCSORG
 10
0.0
 20
0.0
 30
0.0
  9
$PUCSXDIR
 10
1.0
 20
0.0
 30
0.0
  9
$PUCSYDIR
 10
0.0
 20
1.0
 30
0.0
  9
$PUCSORTHOREF
  2

  9
$PUCSORTHOVIEW
 70
     0
  9
$PUCSORGTOP
 10
0.0
 20
0.0
 30
0.0
  9
$PUCSORGBOTTOM
 10
0.0
 20
0.0
 30
0.0
  9
$PUCSORGLEFT
 10
0.0
 20
0.0
 30
0.0
  9
$PUCSORGRIGHT
 10
0.0
 20
0.0
 30
0.0
  9
$PUCSORGFRONT
 10
0.0
 20
0.0
 30
0.0
  9
$PUCSORGBACK
 10
0.0
 20
0.0
 30
0.0
  9
$USERI1
 70
     0
  9
$USERI2
 70
     0
  9
$USERI3
 70
     0
  9
$USERI4
 70
     0
  9
$USERI5
 70
     0
  9
$USERR1
 40
0.0
  9
$USERR2
 40
0.0
  9
$USERR3
 40
0.0
  9
$USERR4
 40
0.0
  9
$USERR5
 40
0.0
  9
$WORLDVIEW
 70
     1
  9
$SHADEDGE
 70
     3
  9
$SHADEDIF
 70
    70
  9
$TILEMODE
 70
     1
  9
$MAXACTVP
 70
    64
  9
$PINSBASE
 10
0.0
 20
0.0
 30
0.0
  9
$PLIMCHECK
 70
     0
  9
$PEXTMIN
 10
1.000000000000000E+20
 20
1.000000000000000E+20
 30
1.000000000000000E+20
  9
$PEXTMAX
 10
-1.000000000000000E+20
 20
-1.000000000000000E+20
 30
-1.000000000000000E+20
  9
$PLIMMIN
 10
0.0
 20
0.0
  9
$PLIMMAX
 10
12.0
 20
9.0
  9
$UNITMODE
 70
     0
  9
$VISRETAIN
 70
     1
  9
$PLINEGEN
 70
     0
  9
$PSLTSCALE
 70
     1
  9
$TREEDEPTH
 70
  3020
  9
$CMLSTYLE
  2
Standard
  9
$CMLJUST
 70
     0
  9
$CMLSCALE
 40
1.0
  9
$PROXYGRAPHICS
 70
     1
  9
$MEASUREMENT
 70
     0
  9
$CELWEIGHT
370
    -1
  9
$ENDCAPS
280
     0
  9
$JOINSTYLE
280
     0
  9
$LWDISPLAY
290
     0
  9
$INSUNITS
 70
     5
  9
$HYPERLINKBASE
  1

  9
$STYLESHEET
  1

  9
$XEDIT
290
     1
  9
$CEPSNTYPE
380
     0
  9
$PSTYLEMODE
290
     1
  9
$FINGERPRINTGUID
  2
{1debee3d-1571-4040-b580-bd2ad8fba56b}
  9
$VERSIONGUID
  2
{FAEB1C32-E019-11D5-929B-00C0DF256EC4}
  9
$EXTNAMES
290
     1
  9
$PSVPSCALE
 40
0.0
  9
$OLESTARTUP
290
     0
  9
$SORTENTS
280
   127
  9
$INDEXCTL
280
     0
  9
$HIDETEXT
280
     1
  9
$XCLIPFRAME
280
     2
  9
$HALOGAP
280
     0
  9
$OBSCOLOR
 70
   257
  9
$OBSLTYPE
280
     0
  9
$INTERSECTIONDISPLAY
280
     0
  9
$INTERSECTIONCOLOR
 70
   257
  9
$DIMASSOC
280
     2
  9
$PROJECTNAME
  1

  9
$CAMERADISPLAY
290
     0
  9
$LENSLENGTH
 40
50.0
  9
$CAMERAHEIGHT
 40
0.0
  9
$STEPSPERSEC
 40
2.0
  9
$STEPSIZE
 40
6.0
  9
$3DDWFPREC
 40
2.0
  9
$PSOLWIDTH
 40
0.25
  9
$PSOLHEIGHT
 40
4.0
  9
$LOFTANG1
 40
1.570796326794897
  9
$LOFTANG2
 40
1.570796326794897
  9
$LOFTMAG1
 40
0.0
  9
$LOFTMAG2
 40
0.0
  9
$LOFTPARAM
 70
     7
  9
$LOFTNORMALS
280
     1
  9
$LATITUDE
 40
37.795
  9
$LONGITUDE
 40
-122.394
  9
$NORTHDIRECTION
 40
0.0
  9
$TIMEZONE
 70
 -8000
  9
$LIGHTGLYPHDISPLAY
280
     1
  9
$TILEMODELIGHTSYNCH
280
     1
  9
$CMATERIAL
347
44
  9
$SOLIDHIST
280
     0
  9
$SHOWHIST
280
     1
  9
$DWFFRAME
280
     2
  9
$DGNFRAME
280
     2
  9
$REALWORLDSCALE
290
     1
  9
$INTERFERECOLOR
 62
   256
  9
$CSHADOW
280
     0
  9
$SHADOWPLANELOCATION
 40
0.0
  0
ENDSEC
  0
SECTION
  2
CLASSES
  0
CLASS
  1
ACDBDICTIONARYWDFLT
  2
AcDbDictionaryWithDefault
  3
ObjectDBX Classes
 90
        0
 91
        3
280
     0
281
     0
  0
CLASS
  1
VISUALSTYLE
  2
AcDbVisualStyle
  3
ObjectDBX Classes
 90
     4095
 91
        3
280
     0
281
     0
  0
CLASS
  1
MATERIAL
  2
AcDbMaterial
  3
ObjectDBX Classes
 90
     1153
 91
        3
280
     0
281
     0
  0
CLASS
  1
SCALE
  2
AcDbScale
  3
ObjectDBX Classes
 90
     1153
 91
        3
280
     0
281
     0
  0
CLASS
  1
TABLESTYLE
  2
AcDbTableStyle
  3
ObjectDBX Classes
 90
     4095
 91
        3
280
     0
281
     0
  0
CLASS
  1
MLEADERSTYLE
  2
AcDbMLeaderStyle
  3
ACDB_MLEADERSTYLE_CLASS
 90
     4095
 91
        3
280
     0
281
     0
  0
CLASS
  1
SUN
  2
AcDbSun
  3
SCENEOE
 90
     1153
 91
        3
280
     0
281
     0
  0
CLASS
  1
DICTIONARYVAR
  2
AcDbDictionaryVar
  3
ObjectDBX Classes
 90
        0
 91
        3
280
     0
281
     0
  0
CLASS
  1
CELLSTYLEMAP
  2
AcDbCellStyleMap
  3
ObjectDBX Classes
 90
     1152
 91
        3
280
     0
281
     0
  0
ENDSEC
  0
SECTION
  2
TABLES
  0
TABLE
  2
VPORT
  5
8
330
0
100
AcDbSymbolTable
 70
     1
  0
VPORT
  5
29
330
8
100
AcDbSymbolTableRecord
100
AcDbViewportTableRecord
  2
*Active
 70
     0
 10
0.0
 20
0.0
 11
1.0
 21
1.0
 12
10.42990654205607
 22
4.5
 13
0.0
 23
0.0
 14
0.5
 24
0.5
 15
0.5
 25
0.5
 16
0.0
 26
0.0
 36
1.0
 17
0.0
 27
0.0
 37
0.0
 40
9.0
 41
1.972972972850329
 42
50.0
 43
0.0
 44
0.0
 50
0.0
 51
0.0
 71
     0
 72
   100
 73
     1
 74
     3
 75
     0
 76
     0
 77
     0
 78
     0
281
     0
 65
     1
110
0.0
120
0.0
130
0.0
111
1.0
121
0.0
131
0.0
112
0.0
122
1.0
132
0.0
 79
     0
146
0.0
348
2F
 60
     3
 61
     5
292
     1
282
     1
141
0.0
142
0.0
 63
   250
361
5D
  0
ENDTAB
  0
TABLE
  2
LTYPE
  5
5
330
0
100
AcDbSymbolTable
 70
     1
  0
LTYPE
  5
14
330
5
100
AcDbSymbolTableRecord
100
AcDbLinetypeTableRecord
  2
ByBlock
 70
     0
  3

 72
    65
 73
     0
 40
0.0
  0
LTYPE
  5
15
330
5
100
AcDbSymbolTableRecord
100
AcDbLinetypeTableRecord
  2
ByLayer
 70
     0
  3

 72
    65
 73
     0
 40
0.0
  0
LTYPE
  5
16
330
5
100
AcDbSymbolTableRecord
100
AcDbLinetypeTableRecord
  2
Continuous
 70
     0
  3
Solid line
 72
    65
 73
     0
 40
0.0
  0
ENDTAB
  0
TABLE
  2
LAYER
  5
2
330
0
100
AcDbSymbolTable
 70
     2
  0
LAYER
  5
10
330
2
100
AcDbSymbolTableRecord
100
AcDbLayerTableRecord
  2
0
 70
     0
 62
     7
  6
Continuous
370
    -3
390
F
347
46
348
0
  0
LAYER
  5
5F
330
2
100
AcDbSymbolTableRecord
100
AcDbLayerTableRecord
  2
Layer 1
 70
     0
 62
     7
  6
Continuous
370
    -3
390
F
347
46
348
0
  0
ENDTAB
  0
TABLE
  2
STYLE
  5
3
330
0
100
AcDbSymbolTable
 70
     1
  0
STYLE
  5
11
330
3
100
AcDbSymbolTableRecord
100
AcDbTextStyleTableRecord
  2
Standard
 70
     0
 40
0.0
 41
1.0
 50
0.0
 71
     0
 42
0.2
  3
txt
  4

  0
ENDTAB
  0
TABLE
  2
VIEW
  5
6
330
0
100
AcDbSymbolTable
 70
     0
  0
ENDTAB
  0
TABLE
  2
UCS
  5
7
330
0
100
AcDbSymbolTable
 70
     0
  0
ENDTAB
  0
TABLE
  2
APPID
  5
9
330
0
100
AcDbSymbolTable
 70
     2
  0
APPID
  5
12
330
9
100
AcDbSymbolTableRecord
100
AcDbRegAppTableRecord
  2
ACAD
 70
     0
  0
APPID
  5
5E
330
9
100
AcDbSymbolTableRecord
100
AcDbRegAppTableRecord
  2
ODA
 70
     0
  0
ENDTAB
  0
TABLE
  2
DIMSTYLE
  5
A
330
0
100
AcDbSymbolTable
 70
     1
100
AcDbDimStyleTable
  0
DIMSTYLE
105
27
330
A
100
AcDbSymbolTableRecord
100
AcDbDimStyleTableRecord
  2
Standard
 70
     0
178
     0
340
11
  0
ENDTAB
  0
TABLE
  2
BLOCK_RECORD
  5
1
330
0
100
AcDbSymbolTable
 70
     1
  0
BLOCK_RECORD
  5
1F
330
1
100
AcDbSymbolTableRecord
100
AcDbBlockTableRecord
  2
*Model_Space
340
22
 70
     0
280
     1
281
     0
  0
BLOCK_RECORD
  5
1B
330
1
100
AcDbSymbolTableRecord
100
AcDbBlockTableRecord
  2
*Paper_Space
340
1E
 70
     0
280
     1
281
     0
  0
BLOCK_RECORD
  5
23
330
1
100
AcDbSymbolTableRecord
100
AcDbBlockTableRecord
  2
*Paper_Space0
340
26
 70
     0
280
     1
281
     0
  0
ENDTAB
  0
ENDSEC
  0
SECTION
  2
BLOCKS
  0
BLOCK
  5
20
330
1F
100
AcDbEntity
  8
0
100
AcDbBlockBegin
  2
*Model_Space
 70
     0
 10
0.0
 20
0.0
 30
0.0
  3
*Model_Space
  1

  0
ENDBLK
  5
21
330
1F
100
AcDbEntity
  8
0
100
AcDbBlockEnd
  0
BLOCK
  5
1C
330
1B
100
AcDbEntity
 67
     1
  8
0
100
AcDbBlockBegin
  2
*Paper_Space
 70
     0
 10
0.0
 20
0.0
 30
0.0
  3
*Paper_Space
  1

  0
ENDBLK
  5
1D
330
1B
100
AcDbEntity
 67
     1
  8
0
100
AcDbBlockEnd
  0
BLOCK
  5
24
330
23
100
AcDbEntity
  8
0
100
AcDbBlockBegin
  2
*Paper_Space0
 70
     0
 10
0.0
 20
0.0
 30
0.0
  3
*Paper_Space0
  1

  0
ENDBLK
  5
25
330
23
100
AcDbEntity
  8
0
100
AcDbBlockEnd
  0
ENDSEC
  0
SECTION
  2
ENTITIES
  0
SPLINE
  5
60
330
1F
100
AcDbEntity
  8
Layer 1
370
    18
100
AcDbSpline
210
0.0
220
0.0
230
1.0
 70
    11
 71
     3
 72
   104
 73
   100
 74
     0
 42
0.0000000001
 43
0.0000000001
 40
0.0
 40
0.0
 40
0.0
 40
0.0
 40
0.0303030303030303
 40
0.0303030303030303
 40
0.0303030303030303
 40
0.0606060606060606
 40
0.0606060606060606
 40
0.0606060606060606
 40
0.0909090909090909
 40
0.0909090909090909
 40
0.0909090909090909
 40
0.1212121212121212
 40
0.1212121212121212
 40
0.1212121212121212
 40
0.1515151515151515
 40
0.1515151515151515
 40
0.1515151515151515
 40
0.1818181818181818
 40
0.1818181818181818
 40
0.1818181818181818
 40
0.2121212121212121
 40
0.2121212121212121
 40
0.2121212121212121
 40
0.2424242424242424
 40
0.2424242424242424
 40
0.2424242424242424
 40
0.2727272727272727
 40
0.2727272727272727
 40
0.2727272727272727
 40
0.303030303030303
 40
0.303030303030303
 40
0.303030303030303
 40
0.3333333333333334
 40
0.3333333333333334
 40
0.3333333333333334
 40
0.3636363636363636
 40
0.3636363636363636
 40
0.3636363636363636
 40
0.3939393939393939
 40
0.3939393939393939
 40
0.3939393939393939
 40
0.4242424242424243
 40
0.4242424242424243
 40
0.4242424242424243
 40
0.4545454545454546
 40
0.4545454545454546
 40
0.4545454545454546
 40
0.4848484848484849
 40
0.4848484848484849
 40
0.4848484848484849
 40
0.5151515151515151
 40
0.5151515151515151
 40
0.5151515151515151
 40
0.5454545454545454
 40
0.5454545454545454
 40
0.5454545454545454
 40
0.5757575757575758
 40
0.5757575757575758
 40
0.5757575757575758
 40
0.6060606060606061
 40
0.6060606060606061
 40
0.6060606060606061
 40
0.6363636363636364
 40
0.6363636363636364
 40
0.6363636363636364
 40
0.6666666666666667
 40
0.6666666666666667
 40
0.6666666666666667
 40
0.696969696969697
 40
0.696969696969697
 40
0.696969696969697
 40
0.7272727272727273
 40
0.7272727272727273
 40
0.7272727272727273
 40
0.7575757575757576
 40
0.7575757575757576
 40
0.7575757575757576
 40
0.7878787878787878
 40
0.7878787878787878
 40
0.7878787878787878
 40
0.8181818181818182
 40
0.8181818181818182
 40
0.8181818181818182
 40
0.8484848484848485
 40
0.8484848484848485
 40
0.8484848484848485
 40
0.8787878787878788
 40
0.8787878787878788
 40
0.8787878787878788
 40
0.9090909090909092
 40
0.9090909090909092
 40
0.9090909090909092
 40
0.9393939393939394
 40
0.9393939393939394
 40
0.9393939393939394
 40
0.9696969696969697
 40
0.9696969696969697
 40
0.9696969696969697
 40
1.0
 40
1.0
 40
1.0
 40
1.0
 10
9.32687
 20
4.21764
 30
0.0
 10
9.52233
 20
5.05262
 30
0.0
 10
8.98543
 20
6.19752
 30
0.0
 10
8.3727
 20
6.70857
 30
0.0
 10
7.43156
 20
7.49353
 30
0.0
 10
5.90823
 20
7.852
 30
0.0
 10
4.80658
 20
8.08172
 30
0.0
 10
3.17942
 20
8.42103
 30
0.0
 10
1.51274
 20
8.40054
 30
0.0
 10
-0.15382
 20
8.29495
 30
0.0
 10
-0.54729
 20
8.27002
 30
0.0
 10
-0.56282
 20
8.04032
 30
0.0
 10
-0.94251
 20
8.10734
 30
0.0
 10
-1.44646
 20
8.19625
 30
0.0
 10
-1.47294
 20
8.56395
 30
0.0
 10
-1.44537
 20
9.04629
 30
0.0
 10
-1.38385
 20
10.12287
 30
0.0
 10
-2.30919
 20
11.38593
 30
0.0
 10
-3.21782
 20
11.87049
 30
0.0
 10
-4.29434
 20
12.44458
 30
0.0
 10
-5.4589
 20
12.31386
 30
0.0
 10
-6.5798
 20
11.96952
 30
0.0
 10
-8.97161
 20
11.23477
 30
0.0
 10
-10.42682
 20
9.39536
 30
0.0
 10
-10.10134
 20
6.5802
 30
0.0
 10
-9.82166
 20
4.16119
 30
0.0
 10
-8.54981
 20
4.04813
 30
0.0
 10
-6.62029
 20
3.79275
 30
0.0
 10
-7.03626
 20
0.7421
 30
0.0
 10
-6.1718
 20
-1.78328
 30
0.0
 10
-3.90757
 20
-3.81344
 30
0.0
 10
-2.51428
 20
-5.0627
 30
0.0
 10
-0.54412
 20
-4.76462
 30
0.0
 10
-0.66995
 20
-7.16008
 30
0.0
 10
-0.74417
 20
-8.5731
 30
0.0
 10
-1.68381
 20
-10.62183
 30
0.0
 10
-2.72827
 20
-11.21866
 30
0.0
 10
-2.72827
 20
-11.21866
 30
0.0
 10
-2.67437
 20
-12.26442
 30
0.0
 10
-2.67437
 20
-12.26442
 30
0.0
 10
-2.67437
 20
-12.26442
 30
0.0
 10
4.6045
 20
-12.26442
 30
0.0
 10
4.6045
 20
-12.26442
 30
0.0
 10
4.56781
 20
-11.78136
 30
0.0
 10
4.55348
 20
-11.38816
 30
0.0
 10
4.45012
 20
-10.91944
 30
0.0
 10
4.26856
 20
-10.0961
 30
0.0
 10
3.92945
 20
-7.89705
 30
0.0
 10
5.13906
 20
-6.69834
 30
0.0
 10
5.38115
 20
-6.45842
 30
0.0
 10
5.52979
 20
-6.29792
 30
0.0
 10
5.86361
 20
-6.33683
 30
0.0
 10
6.65616
 20
-6.42931
 30
0.0
 10
8.09554
 20
-6.64421
 30
0.0
 10
8.65837
 20
-6.56531
 30
0.0
 10
9.26681
 20
-6.48002
 30
0.0
 10
9.64048
 20
-6.02525
 30
0.0
 10
9.50627
 20
-5.31566
 30
0.0
 10
9.41629
 20
-4.8399
 30
0.0
 10
9.46717
 20
-4.51715
 30
0.0
 10
9.87842
 20
-4.18562
 30
0.0
 10
10.11722
 20
-3.99311
 30
0.0
 10
10.21771
 20
-3.69521
 30
0.0
 10
9.93638
 20
-3.44164
 30
0.0
 10
9.5164
 20
-3.06311
 30
0.0
 10
10.01539
 20
-2.96719
 30
0.0
 10
10.11002
 20
-2.78695
 30
0.0
 10
10.21505
 20
-2.58691
 30
0.0
 10
10.07995
 20
-2.43645
 30
0.0
 10
9.88701
 20
-2.32036
 30
0.0
 10
9.53637
 20
-2.10938
 30
0.0
 10
9.42052
 20
-1.70013
 30
0.0
 10
9.84195
 20
-1.56826
 30
0.0
 10
10.21531
 20
-1.45142
 30
0.0
 10
10.10485
 20
-1.11935
 30
0.0
 10
9.86585
 20
-0.86346
 30
0.0
 10
9.48817
 20
-0.45907
 30
0.0
 10
8.74337
 20
0.3172
 30
0.0
 10
8.65866
 20
0.63491
 30
0.0
 10
8.65866
 20
0.63491
 30
0.0
 10
9.34869
 20
0.71325
 30
0.0
 10
9.32538
 20
1.32398
 30
0.0
 10
9.06473
 20
1.10719
 30
0.0
 10
8.55019
 20
0.77569
 30
0.0
 10
8.45286
 20
1.29677
 30
0.0
 10
8.38394
 20
1.66582
 30
0.0
 10
8.37025
 20
2.39802
 30
0.0
 10
8.34527
 20
2.63325
 30
0.0
 10
8.21929
 20
3.81946
 30
0.0
 10
7.98258
 20
4.61185
 30
0.0
 10
7.25968
 20
5.52168
 30
0.0
 10
7.04995
 20
5.78565
 30
0.0
 10
6.89154
 20
6.13985
 30
0.0
 10
7.46751
 20
5.98159
 30
0.0
 10
8.52191
 20
5.6918
 30
0.0
 10
8.60815
 20
4.96962
 30
0.0
 10
8.70693
 20
4.05897
 30
0.0
 10
8.80045
 20
3.19683
 30
0.0
 10
9.21921
 20
3.75776
 30
0.0
 10
9.32687
 20
4.21764
 30
0.0
  0
SPLINE
  5
61
330
1F
100
AcDbEntity
  8
Layer 1
370
    18
100
AcDbSpline
210
0.0
220
0.0
230
1.0
 70
    11
 71
     3
 72
    17
 73
    13
 74
     0
 42
0.0000000001
 43
0.0000000001
 40
0.0
 40
0.0
 40
0.0
 40
0.0
 40
0.25
 40
0.25
 40
0.25
 40
0.5
 40
0.5
 40
0.5
 40
0.75
 40
0.75
 40
0.75
 40
1.0
 40
1.0
 40
1.0
 40
1.0
 10
-4.02207
 20
11.44247
 30
0.0
 10
-3.96806
 20
11.44247
 30
0.0
 10
-3.92427
 20
11.39868
 30
0.0
 10
-3.92427
 20
11.34467
 30
0.0
 10
-3.92427
 20
11.29066
 30
0.0
 10
-3.96806
 20
11.24687
 30
0.0
 10
-4.02207
 20
11.24687
 30
0.0
 10
-4.07608
 20
11.24687
 30
0.0
 10
-4.11987
 20
11.29066
 30
0.0
 10
-4.11987
 20
11.34467
 30
0.0
 10
-4.11987
 20
11.39868
 30
0.0
 10
-4.07608
 20
11.44247
 30
0.0
 10
-4.02207
 20
11.44247
 30
0.0
  0
SPLINE
  5
62
330
1F
100
AcDbEntity
  8
Layer 1
370
    18
100
AcDbSpline
210
0.0
220
0.0
230
1.0
 70
    11
 71
     3
 72
    17
 73
    13
 74
     0
 42
0.0000000001
 43
0.0000000001
 40
0.0
 40
0.0
 40
0.0
 40
0.0
 40
0.25
 40
0.25
 40
0.25
 40
0.5
 40
0.5
 40
0.5
 40
0.75
 40
0.75
 40
0.75
 40
1.0
 40
1.0
 40
1.0
 40
1.0
 10
-5.27813
 20
11.44247
 30
0.0
 10
-5.22412
 20
11.44247
 30
0.0
 10
-5.18033
 20
11.39868
 30
0.0
 10
-5.18033
 20
11.34467
 30
0.0
 10
-5.18033
 20
11.29066
 30
0.0
 10
-5.22412
 20
11.24687
 30
0.0
 10
-5.27813
 20
11.24687
 30
0.0
 10
-5.33214
 20
11.24687
 30
0.0
 10
-5.37593
 20
11.29066
 30
0.0
 10
-5.37593
 20
11.34467
 30
0.0
 10
-5.37593
 20
11.39868
 30
0.0
 10
-5.33214
 20
11.44247
 30
0.0
 10
-5.27813
 20
11.44247
 30
0.0
  0
SPLINE
  5
63
330
1F
100
AcDbEntity
  8
Layer 1
370
    18
100
AcDbSpline
210
0.0
220
0.0
230
1.0
 70
    11
 71
     3
 72
    17
 73
    13
 74
     0
 42
0.0000000001
 43
0.0000000001
 40
0.0
 40
0.0
 40
0.0
 40
0.0
 40
0.25
 40
0.25
 40
0.25
 40
0.5
 40
0.5
 40
0.5
 40
0.75
 40
0.75
 40
0.75
 40
1.0
 40
1.0
 40
1.0
 40
1.0
 10
-6.55566
 20
11.44247
 30
0.0
 10
-6.50165
 20
11.44247
 30
0.0
 10
-6.45786
 20
11.39868
 30
0.0
 10
-6.45786
 20
11.34467
 30
0.0
 10
-6.45786
 20
11.29066
 30
0.0
 10
-6.50165
 20
11.24687
 30
0.0
 10
-6.55566
 20
11.24687
 30
0.0
 10
-6.60967
 20
11.24687
 30
0.0
 10
-6.65346
 20
11.29066
 30
0.0
 10
-6.65346
 20
11.34467
 30
0.0
 10
-6.65346
 20
11.39868
 30
0.0
 10
-6.60967
 20
11.44247
 30
0.0
 10
-6.55566
 20
11.44247
 30
0.0
  0
SPLINE
  5
64
330
1F
100
AcDbEntity
  8
Layer 1
370
    18
100
AcDbSpline
210
0.0
220
0.0
230
1.0
 70
    11
 71
     3
 72
    17
 73
    13
 74
     0
 42
0.0000000001
 43
0.0000000001
 40
0.0
 40
0.0
 40
0.0
 40
0.0
 40
0.25
 40
0.25
 40
0.25
 40
0.5
 40
0.5
 40
0.5
 40
0.75
 40
0.75
 40
0.75
 40
1.0
 40
1.0
 40
1.0
 40
1.0
 10
-7.81886
 20
10.22819
 30
0.0
 10
-7.76485
 20
10.22819
 30
0.0
 10
-7.72106
 20
10.1844
 30
0.0
 10
-7.72106
 20
10.13039
 30
0.0
 10
-7.72106
 20
10.07638
 30
0.0
 10
-7.76485
 20
10.03259
 30
0.0
 10
-7.81886
 20
10.03259
 30
0.0
 10
-7.87287
 20
10.03259
 30
0.0
 10
-7.91666
 20
10.07638
 30
0.0
 10
-7.91666
 20
10.13039
 30
0.0
 10
-7.91666
 20
10.1844
 30
0.0
 10
-7.87287
 20
10.22819
 30
0.0
 10
-7.81886
 20
10.22819
 30
0.0
  0
SPLINE
  5
65
330
1F
100
AcDbEntity
  8
Layer 1
370
    18
100
AcDbSpline
210
0.0
220
0.0
230
1.0
 70
    11
 71
     3
 72
    17
 73
    13
 74
     0
 42
0.0000000001
 43
0.0000000001
 40
0.0
 40
0.0
 40
0.0
 40
0.0
 40
0.25
 40
0.25
 40
0.25
 40
0.5
 40
0.5
 40
0.5
 40
0.75
 40
0.75
 40
0.75
 40
1.0
 40
1.0
 40
1.0
 40
1.0
 10
-6.55566
 20
10.22819
 30
0.0
 10
-6.50165
 20
10.22819
 30
0.0
 10
-6.45786
 20
10.1844
 30
0.0
 10
-6.45786
 20
10.13039
 30
0.0
 10
-6.45786
 20
10.07638
 30
0.0
 10
-6.50165
 20
10.03259
 30
0.0
 10
-6.55566
 20
10.03259
 30
0.0
 10
-6.60967
 20
10.03259
 30
0.0
 10
-6.65346
 20
10.07638
 30
0.0
 10
-6.65346
 20
10.13039
 30
0.0
 10
-6.65346
 20
10.1844
 30
0.0
 10
-6.60967
 20
10.22819
 30
0.0
 10
-6.55566
 20
10.22819
 30
0.0
  0
SPLINE
  5
66
330
1F
100
AcDbEntity
  8
Layer 1
370
    18
100
AcDbSpline
210
0.0
220
0.0
230
1.0
 70
    11
 71
     3
 72
    17
 73
    13
 74
     0
 42
0.0000000001
 43
0.0000000001
 40
0.0
 40
0.0
 40
0.0
 40
0.0
 40
0.25
 40
0.25
 40
0.25
 40
0.5
 40
0.5
 40
0.5
 40
0.75
 40
0.75
 40
0.75
 40
1.0
 40
1.0
 40
1.0
 40
1.0
 10
-5.31404
 20
10.22819
 30
0.0
 10
-5.26003
 20
10.22819
 30
0.0
 10
-5.21624
 20
10.1844
 30
0.0
 10
-5.21624
 20
10.13039
 30
0.0
 10
-5.21624
 20
10.07638
 30
0.0
 10
-5.26003
 20
10.03259
 30
0.0
 10
-5.31404
 20
10.03259
 30
0.0
 10
-5.36805
 20
10.03259
 30
0.0
 10
-5.41184
 20
10.07638
 30
0.0
 10
-5.41184
 20
10.13039
 30
0.0
 10
-5.41184
 20
10.1844
 30
0.0
 10
-5.36805
 20
10.22819
 30
0.0
 10
-5.31404
 20
10.22819
 30
0.0
  0
SPLINE
  5
67
330
1F
100
AcDbEntity
  8
Layer 1
370
    18
100
AcDbSpline
210
0.0
220
0.0
230
1.0
 70
    11
 71
     3
 72
    17
 73
    13
 74
     0
 42
0.0000000001
 43
0.0000000001
 40
0.0
 40
0.0
 40
0.0
 40
0.0
 40
0.25
 40
0.25
 40
0.25
 40
0.5
 40
0.5
 40
0.5
 40
0.75
 40
0.75
 40
0.75
 40
1.0
 40
1.0
 40
1.0
 40
1.0
 10
-4.04004
 20
10.22819
 30
0.0
 10
-3.98603
 20
10.22819
 30
0.0
 10
-3.94224
 20
10.1844
 30
0.0
 10
-3.94224
 20
10.13039
 30
0.0
 10
-3.94224
 20
10.07638
 30
0.0
 10
-3.98603
 20
10.03259
 30
0.0
 10
-4.04004
 20
10.03259
 30
0.0
 10
-4.09405
 20
10.03259
 30
0.0
 10
-4.13784
 20
10.07638
 30
0.0
 10
-4.13784
 20
10.13039
 30
0.0
 10
-4.13784
 20
10.1844
 30
0.0
 10
-4.09405
 20
10.22819
 30
0.0
 10
-4.04004
 20
10.22819
 30
0.0
  0
SPLINE
  5
68
330
1F
100
AcDbEntity
  8
Layer 1
370
    18
100
AcDbSpline
210
0.0
220
0.0
230
1.0
 70
    11
 71
     3
 72
    17
 73
    13
 74
     0
 42
0.0000000001
 43
0.0000000001
 40
0.0
 40
0.0
 40
0.0
 40
0.0
 40
0.25
 40
0.25
 40
0.25
 40
0.5
 40
0.5
 40
0.5
 40
0.75
 40
0.75
 40
0.75
 40
1.0
 40
1.0
 40
1.0
 40
1.0
 10
-2.78763
 20
10.22819
 30
0.0
 10
-2.73362
 20
10.22819
 30
0.0
 10
-2.68983
 20
10.1844
 30
0.0
 10
-2.68983
 20
10.13039
 30
0.0
 10
-2.68983
 20
10.07638
 30
0.0
 10
-2.73362
 20
10.03259
 30
0.0
 10
-2.78763
 20
10.03259
 30
0.0
 10
-2.84164
 20
10.03259
 30
0.0
 10
-2.88543
 20
10.07638
 30
0.0
 10
-2.88543
 20
10.13039
 30
0.0
 10
-2.88543
 20
10.1844
 30
0.0
 10
-2.84164
 20
10.22819
 30
0.0
 10
-2.78763
 20
10.22819
 30
0.0
  0
SPLINE
  5
69
330
1F
100
AcDbEntity
  8
Layer 1
370
    18
100
AcDbSpline
210
0.0
220
0.0
230
1.0
 70
    11
 71
     3
 72
    17
 73
    13
 74
     0
 42
0.0000000001
 43
0.0000000001
 40
0.0
 40
0.0
 40
0.0
 40
0.0
 40
0.25
 40
0.25
 40
0.25
 40
0.5
 40
0.5
 40
0.5
 40
0.75
 40
0.75
 40
0.75
 40
1.0
 40
1.0
 40
1.0
 40
1.0
 10
-9.0784
 20
8.9035
 30
0.0
 10
-9.02439
 20
8.9035
 30
0.0
 10
-8.9806
 20
8.85971
 30
0.0
 10
-8.9806
 20
8.8057
 30
0.0
 10
-8.9806
 20
8.75169
 30
0.0
 10
-9.02439
 20
8.7079
 30
0.0
 10
-9.0784
 20
8.7079
 30
0.0
 10
-9.13241
 20
8.7079
 30
0.0
 10
-9.1762
 20
8.75169
 30
0.0
 10
-9.1762
 20
8.8057
 30
0.0
 10
-9.1762
 20
8.85971
 30
0.0
 10
-9.13241
 20
8.9035
 30
0.0
 10
-9.0784
 20
8.9035
 30
0.0
  0
SPLINE
  5
6A
330
1F
100
AcDbEntity
  8
Layer 1
370
    18
100
AcDbSpline
210
0.0
220
0.0
230
1.0
 70
    11
 71
     3
 72
    17
 73
    13
 74
     0
 42
0.0000000001
 43
0.0000000001
 40
0.0
 40
0.0
 40
0.0
 40
0.0
 40
0.25
 40
0.25
 40
0.25
 40
0.5
 40
0.5
 40
0.5
 40
0.75
 40
0.75
 40
0.75
 40
1.0
 40
1.0
 40
1.0
 40
1.0
 10
-7.8152
 20
8.9035
 30
0.0
 10
-7.76119
 20
8.9035
 30
0.0
 10
-7.7174
 20
8.85971
 30
0.0
 10
-7.7174
 20
8.8057
 30
0.0
 10
-7.7174
 20
8.75169
 30
0.0
 10
-7.76119
 20
8.7079
 30
0.0
 10
-7.8152
 20
8.7079
 30
0.0
 10
-7.86921
 20
8.7079
 30
0.0
 10
-7.913
 20
8.75169
 30
0.0
 10
-7.913
 20
8.8057
 30
0.0
 10
-7.913
 20
8.85971
 30
0.0
 10
-7.86921
 20
8.9035
 30
0.0
 10
-7.8152
 20
8.9035
 30
0.0
  0
SPLINE
  5
6B
330
1F
100
AcDbEntity
  8
Layer 1
370
    18
100
AcDbSpline
210
0.0
220
0.0
230
1.0
 70
    11
 71
     3
 72
    17
 73
    13
 74
     0
 42
0.0000000001
 43
0.0000000001
 40
0.0
 40
0.0
 40
0.0
 40
0.0
 40
0.25
 40
0.25
 40
0.25
 40
0.5
 40
0.5
 40
0.5
 40
0.75
 40
0.75
 40
0.75
 40
1.0
 40
1.0
 40
1.0
 40
1.0
 10
-6.57358
 20
8.9035
 30
0.0
 10
-6.51957
 20
8.9035
 30
0.0
 10
-6.47578
 20
8.85971
 30
0.0
 10
-6.47578
 20
8.8057
 30
0.0
 10
-6.47578
 20
8.75169
 30
0.0
 10
-6.51957
 20
8.7079
 30
0.0
 10
-6.57358
 20
8.7079
 30
0.0
 10
-6.62759
 20
8.7079
 30
0.0
 10
-6.67138
 20
8.75169
 30
0.0
 10
-6.67138
 20
8.8057
 30
0.0
 10
-6.67138
 20
8.85971
 30
0.0
 10
-6.62759
 20
8.9035
 30
0.0
 10
-6.57358
 20
8.9035
 30
0.0
  0
SPLINE
  5
6C
330
1F
100
AcDbEntity
  8
Layer 1
370
    18
100
AcDbSpline
210
0.0
220
0.0
230
1.0
 70
    11
 71
     3
 72
    17
 73
    13
 74
     0
 42
0.0000000001
 43
0.0000000001
 40
0.0
 40
0.0
 40
0.0
 40
0.0
 40
0.25
 40
0.25
 40
0.25
 40
0.5
 40
0.5
 40
0.5
 40
0.75
 40
0.75
 40
0.75
 40
1.0
 40
1.0
 40
1.0
 40
1.0
 10
-5.29958
 20
8.9035
 30
0.0
 10
-5.24557
 20
8.9035
 30
0.0
 10
-5.20178
 20
8.85971
 30
0.0
 10
-5.20178
 20
8.8057
 30
0.0
 10
-5.20178
 20
8.75169
 30
0.0
 10
-5.24557
 20
8.7079
 30
0.0
 10
-5.29958
 20
8.7079
 30
0.0
 10
-5.35359
 20
8.7079
 30
0.0
 10
-5.39738
 20
8.75169
 30
0.0
 10
-5.39738
 20
8.8057
 30
0.0
 10
-5.39738
 20
8.85971
 30
0.0
 10
-5.35359
 20
8.9035
 30
0.0
 10
-5.29958
 20
8.9035
 30
0.0
  0
SPLINE
  5
6D
330
1F
100
AcDbEntity
  8
Layer 1
370
    18
100
AcDbSpline
210
0.0
220
0.0
230
1.0
 70
    11
 71
     3
 72
    17
 73
    13
 74
     0
 42
0.0000000001
 43
0.0000000001
 40
0.0
 40
0.0
 40
0.0
 40
0.0
 40
0.25
 40
0.25
 40
0.25
 40
0.5
 40
0.5
 40
0.5
 40
0.75
 40
0.75
 40
0.75
 40
1.0
 40
1.0
 40
1.0
 40
1.0
 10
-4.04717
 20
8.9035
 30
0.0
 10
-3.99316
 20
8.9035
 30
0.0
 10
-3.94937
 20
8.85971
 30
0.0
 10
-3.94937
 20
8.8057
 30
0.0
 10
-3.94937
 20
8.75169
 30
0.0
 10
-3.99316
 20
8.7079
 30
0.0
 10
-4.04717
 20
8.7079
 30
0.0
 10
-4.10118
 20
8.7079
 30
0.0
 10
-4.14497
 20
8.75169
 30
0.0
 10
-4.14497
 20
8.8057
 30
0.0
 10
-4.14497
 20
8.85971
 30
0.0
 10
-4.10118
 20
8.9035
 30
0.0
 10
-4.04717
 20
8.9035
 30
0.0
  0
SPLINE
  5
6E
330
1F
100
AcDbEntity
  8
Layer 1
370
    18
100
AcDbSpline
210
0.0
220
0.0
230
1.0
 70
    11
 71
     3
 72
    17
 73
    13
 74
     0
 42
0.0000000001
 43
0.0000000001
 40
0.0
 40
0.0
 40
0.0
 40
0.0
 40
0.25
 40
0.25
 40
0.25
 40
0.5
 40
0.5
 40
0.5
 40
0.75
 40
0.75
 40
0.75
 40
1.0
 40
1.0
 40
1.0
 40
1.0
 10
-2.7442
 20
8.9035
 30
0.0
 10
-2.69019
 20
8.9035
 30
0.0
 10
-2.6464
 20
8.85971
 30
0.0
 10
-2.6464
 20
8.8057
 30
0.0
 10
-2.6464
 20
8.75169
 30
0.0
 10
-2.69019
 20
8.7079
 30
0.0
 10
-2.7442
 20
8.7079
 30
0.0
 10
-2.79821
 20
8.7079
 30
0.0
 10
-2.842
 20
8.75169
 30
0.0
 10
-2.842
 20
8.8057
 30
0.0
 10
-2.842
 20
8.85971
 30
0.0
 10
-2.79821
 20
8.9035
 30
0.0
 10
-2.7442
 20
8.9035
 30
0.0
  0
SPLINE
  5
6F
330
1F
100
AcDbEntity
  8
Layer 1
370
    18
100
AcDbSpline
210
0.0
220
0.0
230
1.0
 70
    11
 71
     3
 72
    17
 73
    13
 74
     0
 42
0.0000000001
 43
0.0000000001
 40
0.0
 40
0.0
 40
0.0
 40
0.0
 40
0.25
 40
0.25
 40
0.25
 40
0.5
 40
0.5
 40
0.5
 40
0.75
 40
0.75
 40
0.75
 40
1.0
 40
1.0
 40
1.0
 40
1.0
 10
-9.05668
 20
7.66567
 30
0.0
 10
-9.00267
 20
7.66567
 30
0.0
 10
-8.95888
 20
7.62188
 30
0.0
 10
-8.95888
 20
7.56787
 30
0.0
 10
-8.95888
 20
7.51386
 30
0.0
 10
-9.00267
 20
7.47007
 30
0.0
 10
-9.05668
 20
7.47007
 30
0.0
 10
-9.11069
 20
7.47007
 30
0.0
 10
-9.15448
 20
7.51386
 30
0.0
 10
-9.15448
 20
7.56787
 30
0.0
 10
-9.15448
 20
7.62188
 30
0.0
 10
-9.11069
 20
7.66567
 30
0.0
 10
-9.05668
 20
7.66567
 30
0.0
  0
SPLINE
  5
70
330
1F
100
AcDbEntity
  8
Layer 1
370
    18
100
AcDbSpline
210
0.0
220
0.0
230
1.0
 70
    11
 71
     3
 72
    17
 73
    13
 74
     0
 42
0.0000000001
 43
0.0000000001
 40
0.0
 40
0.0
 40
0.0
 40
0.0
 40
0.25
 40
0.25
 40
0.25
 40
0.5
 40
0.5
 40
0.5
 40
0.75
 40
0.75
 40
0.75
 40
1.0
 40
1.0
 40
1.0
 40
1.0
 10
-7.79348
 20
7.66567
 30
0.0
 10
-7.73947
 20
7.66567
 30
0.0
 10
-7.69568
 20
7.62188
 30
0.0
 10
-7.69568
 20
7.56787
 30
0.0
 10
-7.69568
 20
7.51386
 30
0.0
 10
-7.73947
 20
7.47007
 30
0.0
 10
-7.79348
 20
7.47007
 30
0.0
 10
-7.84749
 20
7.47007
 30
0.0
 10
-7.89128
 20
7.51386
 30
0.0
 10
-7.89128
 20
7.56787
 30
0.0
 10
-7.89128
 20
7.62188
 30
0.0
 10
-7.84749
 20
7.66567
 30
0.0
 10
-7.79348
 20
7.66567
 30
0.0
  0
SPLINE
  5
71
330
1F
100
AcDbEntity
  8
Layer 1
370
    18
100
AcDbSpline
210
0.0
220
0.0
230
1.0
 70
    11
 71
     3
 72
    17
 73
    13
 74
     0
 42
0.0000000001
 43
0.0000000001
 40
0.0
 40
0.0
 40
0.0
 40
0.0
 40
0.25
 40
0.25
 40
0.25
 40
0.5
 40
0.5
 40
0.5
 40
0.75
 40
0.75
 40
0.75
 40
1.0
 40
1.0
 40
1.0
 40
1.0
 10
-6.55186
 20
7.66567
 30
0.0
 10
-6.49785
 20
7.66567
 30
0.0
 10
-6.45406
 20
7.62188
 30
0.0
 10
-6.45406
 20
7.56787
 30
0.0
 10
-6.45406
 20
7.51386
 30
0.0
 10
-6.49785
 20
7.47007
 30
0.0
 10
-6.55186
 20
7.47007
 30
0.0
 10
-6.60587
 20
7.47007
 30
0.0
 10
-6.64966
 20
7.51386
 30
0.0
 10
-6.64966
 20
7.56787
 30
0.0
 10
-6.64966
 20
7.62188
 30
0.0
 10
-6.60587
 20
7.66567
 30
0.0
 10
-6.55186
 20
7.66567
 30
0.0
  0
SPLINE
  5
72
330
1F
100
AcDbEntity
  8
Layer 1
370
    18
100
AcDbSpline
210
0.0
220
0.0
230
1.0
 70
    11
 71
     3
 72
    17
 73
    13
 74
     0
 42
0.0000000001
 43
0.0000000001
 40
0.0
 40
0.0
 40
0.0
 40
0.0
 40
0.25
 40
0.25
 40
0.25
 40
0.5
 40
0.5
 40
0.5
 40
0.75
 40
0.75
 40
0.75
 40
1.0
 40
1.0
 40
1.0
 40
1.0
 10
-5.27786
 20
7.66567
 30
0.0
 10
-5.22385
 20
7.66567
 30
0.0
 10
-5.18006
 20
7.62188
 30
0.0
 10
-5.18006
 20
7.56787
 30
0.0
 10
-5.18006
 20
7.51386
 30
0.0
 10
-5.22385
 20
7.47007
 30
0.0
 10
-5.27786
 20
7.47007
 30
0.0
 10
-5.33187
 20
7.47007
 30
0.0
 10
-5.37566
 20
7.51386
 30
0.0
 10
-5.37566
 20
7.56787
 30
0.0
 10
-5.37566
 20
7.62188
 30
0.0
 10
-5.33187
 20
7.66567
 30
0.0
 10
-5.27786
 20
7.66567
 30
0.0
  0
SPLINE
  5
73
330
1F
100
AcDbEntity
  8
Layer 1
370
    18
100
AcDbSpline
210
0.0
220
0.0
230
1.0
 70
    11
 71
     3
 72
    17
 73
    13
 74
     0
 42
0.0000000001
 43
0.0000000001
 40
0.0
 40
0.0
 40
0.0
 40
0.0
 40
0.25
 40
0.25
 40
0.25
 40
0.5
 40
0.5
 40
0.5
 40
0.75
 40
0.75
 40
0.75
 40
1.0
 40
1.0
 40
1.0
 40
1.0
 10
-4.02545
 20
7.66567
 30
0.0
 10
-3.97144
 20
7.66567
 30
0.0
 10
-3.92765
 20
7.62188
 30
0.0
 10
-3.92765
 20
7.56787
 30
0.0
 10
-3.92765
 20
7.51386
 30
0.0
 10
-3.97144
 20
7.47007
 30
0.0
 10
-4.02545
 20
7.47007
 30
0.0
 10
-4.07946
 20
7.47007
 30
0.0
 10
-4.12325
 20
7.51386
 30
0.0
 10
-4.12325
 20
7.56787
 30
0.0
 10
-4.12325
 20
7.62188
 30
0.0
 10
-4.07946
 20
7.66567
 30
0.0
 10
-4.02545
 20
7.66567
 30
0.0
  0
SPLINE
  5
74
330
1F
100
AcDbEntity
  8
Layer 1
370
    18
100
AcDbSpline
210
0.0
220
0.0
230
1.0
 70
    11
 71
     3
 72
    17
 73
    13
 74
     0
 42
0.0000000001
 43
0.0000000001
 40
0.0
 40
0.0
 40
0.0
 40
0.0
 40
0.25
 40
0.25
 40
0.25
 40
0.5
 40
0.5
 40
0.5
 40
0.75
 40
0.75
 40
0.75
 40
1.0
 40
1.0
 40
1.0
 40
1.0
 10
-2.72248
 20
7.66567
 30
0.0
 10
-2.66847
 20
7.66567
 30
0.0
 10
-2.62468
 20
7.62188
 30
0.0
 10
-2.62468
 20
7.56787
 30
0.0
 10
-2.62468
 20
7.51386
 30
0.0
 10
-2.66847
 20
7.47007
 30
0.0
 10
-2.72248
 20
7.47007
 30
0.0
 10
-2.77649
 20
7.47007
 30
0.0
 10
-2.82028
 20
7.51386
 30
0.0
 10
-2.82028
 20
7.56787
 30
0.0
 10
-2.82028
 20
7.62188
 30
0.0
 10
-2.77649
 20
7.66567
 30
0.0
 10
-2.72248
 20
7.66567
 30
0.0
  0
SPLINE
  5
75
330
1F
100
AcDbEntity
  8
Layer 1
370
    18
100
AcDbSpline
210
0.0
220
0.0
230
1.0
 70
    11
 71
     3
 72
    17
 73
    13
 74
     0
 42
0.0000000001
 43
0.0000000001
 40
0.0
 40
0.0
 40
0.0
 40
0.0
 40
0.25
 40
0.25
 40
0.25
 40
0.5
 40
0.5
 40
0.5
 40
0.75
 40
0.75
 40
0.75
 40
1.0
 40
1.0
 40
1.0
 40
1.0
 10
-1.4343
 20
7.66567
 30
0.0
 10
-1.38029
 20
7.66567
 30
0.0
 10
-1.3365
 20
7.62188
 30
0.0
 10
-1.3365
 20
7.56787
 30
0.0
 10
-1.3365
 20
7.51386
 30
0.0
 10
-1.38029
 20
7.47007
 30
0.0
 10
-1.4343
 20
7.47007
 30
0.0
 10
-1.48831
 20
7.47007
 30
0.0
 10
-1.5321
 20
7.51386
 30
0.0
 10
-1.5321
 20
7.56787
 30
0.0
 10
-1.5321
 20
7.62188
 30
0.0
 10
-1.48831
 20
7.66567
 30
0.0
 10
-1.4343
 20
7.66567
 30
0.0
  0
SPLINE
  5
76
330
1F
100
AcDbEntity
  8
Layer 1
370
    18
100
AcDbSpline
210
0.0
220
0.0
230
1.0
 70
    11
 71
     3
 72
    17
 73
    13
 74
     0
 42
0.0000000001
 43
0.0000000001
 40
0.0
 40
0.0
 40
0.0
 40
0.0
 40
0.25
 40
0.25
 40
0.25
 40
0.5
 40
0.5
 40
0.5
 40
0.75
 40
0.75
 40
0.75
 40
1.0
 40
1.0
 40
1.0
 40
1.0
 10
-0.1711
 20
7.66567
 30
0.0
 10
-0.11709
 20
7.66567
 30
0.0
 10
-0.0733
 20
7.62188
 30
0.0
 10
-0.0733
 20
7.56787
 30
0.0
 10
-0.0733
 20
7.51386
 30
0.0
 10
-0.11709
 20
7.47007
 30
0.0
 10
-0.1711
 20
7.47007
 30
0.0
 10
-0.22511
 20
7.47007
 30
0.0
 10
-0.2689
 20
7.51386
 30
0.0
 10
-0.2689
 20
7.56787
 30
0.0
 10
-0.2689
 20
7.62188
 30
0.0
 10
-0.22511
 20
7.66567
 30
0.0
 10
-0.1711
 20
7.66567
 30
0.0
  0
SPLINE
  5
77
330
1F
100
AcDbEntity
  8
Layer 1
370
    18
100
AcDbSpline
210
0.0
220
0.0
230
1.0
 70
    11
 71
     3
 72
    17
 73
    13
 74
     0
 42
0.0000000001
 43
0.0000000001
 40
0.0
 40
0.0
 40
0.0
 40
0.0
 40
0.25
 40
0.25
 40
0.25
 40
0.5
 40
0.5
 40
0.5
 40
0.75
 40
0.75
 40
0.75
 40
1.0
 40
1.0
 40
1.0
 40
1.0
 10
1.07052
 20
7.66567
 30
0.0
 10
1.12453
 20
7.66567
 30
0.0
 10
1.16832
 20
7.62188
 30
0.0
 10
1.16832
 20
7.56787
 30
0.0
 10
1.16832
 20
7.51386
 30
0.0
 10
1.12453
 20
7.47007
 30
0.0
 10
1.07052
 20
7.47007
 30
0.0
 10
1.01651
 20
7.47007
 30
0.0
 10
0.97272
 20
7.51386
 30
0.0
 10
0.97272
 20
7.56787
 30
0.0
 10
0.97272
 20
7.62188
 30
0.0
 10
1.01651
 20
7.66567
 30
0.0
 10
1.07052
 20
7.66567
 30
0.0
  0
SPLINE
  5
78
330
1F
100
AcDbEntity
  8
Layer 1
370
    18
100
AcDbSpline
210
0.0
220
0.0
230
1.0
 70
    11
 71
     3
 72
    17
 73
    13
 74
     0
 42
0.0000000001
 43
0.0000000001
 40
0.0
 40
0.0
 40
0.0
 40
0.0
 40
0.25
 40
0.25
 40
0.25
 40
0.5
 40
0.5
 40
0.5
 40
0.75
 40
0.75
 40
0.75
 40
1.0
 40
1.0
 40
1.0
 40
1.0
 10
2.34452
 20
7.66567
 30
0.0
 10
2.39853
 20
7.66567
 30
0.0
 10
2.44232
 20
7.62188
 30
0.0
 10
2.44232
 20
7.56787
 30
0.0
 10
2.44232
 20
7.51386
 30
0.0
 10
2.39853
 20
7.47007
 30
0.0
 10
2.34452
 20
7.47007
 30
0.0
 10
2.29051
 20
7.47007
 30
0.0
 10
2.24672
 20
7.51386
 30
0.0
 10
2.24672
 20
7.56787
 30
0.0
 10
2.24672
 20
7.62188
 30
0.0
 10
2.29051
 20
7.66567
 30
0.0
 10
2.34452
 20
7.66567
 30
0.0
  0
SPLINE
  5
79
330
1F
100
AcDbEntity
  8
Layer 1
370
    18
100
AcDbSpline
210
0.0
220
0.0
230
1.0
 70
    11
 71
     3
 72
    17
 73
    13
 74
     0
 42
0.0000000001
 43
0.0000000001
 40
0.0
 40
0.0
 40
0.0
 40
0.0
 40
0.25
 40
0.25
 40
0.25
 40
0.5
 40
0.5
 40
0.5
 40
0.75
 40
0.75
 40
0.75
 40
1.0
 40
1.0
 40
1.0
 40
1.0
 10
-9.12183
 20
6.53644
 30
0.0
 10
-9.06782
 20
6.53644
 30
0.0
 10
-9.02403
 20
6.49265
 30
0.0
 10
-9.02403
 20
6.43864
 30
0.0
 10
-9.02403
 20
6.38463
 30
0.0
 10
-9.06782
 20
6.34084
 30
0.0
 10
-9.12183
 20
6.34084
 30
0.0
 10
-9.17584
 20
6.34084
 30
0.0
 10
-9.21963
 20
6.38463
 30
0.0
 10
-9.21963
 20
6.43864
 30
0.0
 10
-9.21963
 20
6.49265
 30
0.0
 10
-9.17584
 20
6.53644
 30
0.0
 10
-9.12183
 20
6.53644
 30
0.0
  0
SPLINE
  5
7A
330
1F
100
AcDbEntity
  8
Layer 1
370
    18
100
AcDbSpline
210
0.0
220
0.0
230
1.0
 70
    11
 71
     3
 72
    17
 73
    13
 74
     0
 42
0.0000000001
 43
0.0000000001
 40
0.0
 40
0.0
 40
0.0
 40
0.0
 40
0.25
 40
0.25
 40
0.25
 40
0.5
 40
0.5
 40
0.5
 40
0.75
 40
0.75
 40
0.75
 40
1.0
 40
1.0
 40
1.0
 40
1.0
 10
-7.85863
 20
6.53644
 30
0.0
 10
-7.80462
 20
6.53644
 30
0.0
 10
-7.76083
 20
6.49265
 30
0.0
 10
-7.76083
 20
6.43864
 30
0.0
 10
-7.76083
 20
6.38463
 30
0.0
 10
-7.80462
 20
6.34084
 30
0.0
 10
-7.85863
 20
6.34084
 30
0.0
 10
-7.91264
 20
6.34084
 30
0.0
 10
-7.95643
 20
6.38463
 30
0.0
 10
-7.95643
 20
6.43864
 30
0.0
 10
-7.95643
 20
6.49265
 30
0.0
 10
-7.91264
 20
6.53644
 30
0.0
 10
-7.85863
 20
6.53644
 30
0.0
  0
SPLINE
  5
7B
330
1F
100
AcDbEntity
  8
Layer 1
370
    18
100
AcDbSpline
210
0.0
220
0.0
230
1.0
 70
    11
 71
     3
 72
    17
 73
    13
 74
     0
 42
0.0000000001
 43
0.0000000001
 40
0.0
 40
0.0
 40
0.0
 40
0.0
 40
0.25
 40
0.25
 40
0.25
 40
0.5
 40
0.5
 40
0.5
 40
0.75
 40
0.75
 40
0.75
 40
1.0
 40
1.0
 40
1.0
 40
1.0
 10
-6.61701
 20
6.53644
 30
0.0
 10
-6.563
 20
6.53644
 30
0.0
 10
-6.51921
 20
6.49265
 30
0.0
 10
-6.51921
 20
6.43864
 30
0.0
 10
-6.51921
 20
6.38463
 30
0.0
 10
-6.563
 20
6.34084
 30
0.0
 10
-6.61701
 20
6.34084
 30
0.0
 10
-6.67102
 20
6.34084
 30
0.0
 10
-6.71481
 20
6.38463
 30
0.0
 10
-6.71481
 20
6.43864
 30
0.0
 10
-6.71481
 20
6.49265
 30
0.0
 10
-6.67102
 20
6.53644
 30
0.0
 10
-6.61701
 20
6.53644
 30
0.0
  0
SPLINE
  5
7C
330
1F
100
AcDbEntity
  8
Layer 1
370
    18
100
AcDbSpline
210
0.0
220
0.0
230
1.0
 70
    11
 71
     3
 72
    17
 73
    13
 74
     0
 42
0.0000000001
 43
0.0000000001
 40
0.0
 40
0.0
 40
0.0
 40
0.0
 40
0.25
 40
0.25
 40
0.25
 40
0.5
 40
0.5
 40
0.5
 40
0.75
 40
0.75
 40
0.75
 40
1.0
 40
1.0
 40
1.0
 40
1.0
 10
-5.34301
 20
6.53644
 30
0.0
 10
-5.289
 20
6.53644
 30
0.0
 10
-5.24521
 20
6.49265
 30
0.0
 10
-5.24521
 20
6.43864
 30
0.0
 10
-5.24521
 20
6.38463
 30
0.0
 10
-5.289
 20
6.34084
 30
0.0
 10
-5.34301
 20
6.34084
 30
0.0
 10
-5.39702
 20
6.34084
 30
0.0
 10
-5.44081
 20
6.38463
 30
0.0
 10
-5.44081
 20
6.43864
 30
0.0
 10
-5.44081
 20
6.49265
 30
0.0
 10
-5.39702
 20
6.53644
 30
0.0
 10
-5.34301
 20
6.53644
 30
0.0
  0
SPLINE
  5
7D
330
1F
100
AcDbEntity
  8
Layer 1
370
    18
100
AcDbSpline
210
0.0
220
0.0
230
1.0
 70
    11
 71
     3
 72
    17
 73
    13
 74
     0
 42
0.0000000001
 43
0.0000000001
 40
0.0
 40
0.0
 40
0.0
 40
0.0
 40
0.25
 40
0.25
 40
0.25
 40
0.5
 40
0.5
 40
0.5
 40
0.75
 40
0.75
 40
0.75
 40
1.0
 40
1.0
 40
1.0
 40
1.0
 10
-4.0906
 20
6.53644
 30
0.0
 10
-4.03659
 20
6.53644
 30
0.0
 10
-3.9928
 20
6.49265
 30
0.0
 10
-3.9928
 20
6.43864
 30
0.0
 10
-3.9928
 20
6.38463
 30
0.0
 10
-4.03659
 20
6.34084
 30
0.0
 10
-4.0906
 20
6.34084
 30
0.0
 10
-4.14461
 20
6.34084
 30
0.0
 10
-4.1884
 20
6.38463
 30
0.0
 10
-4.1884
 20
6.43864
 30
0.0
 10
-4.1884
 20
6.49265
 30
0.0
 10
-4.14461
 20
6.53644
 30
0.0
 10
-4.0906
 20
6.53644
 30
0.0
  0
SPLINE
  5
7E
330
1F
100
AcDbEntity
  8
Layer 1
370
    18
100
AcDbSpline
210
0.0
220
0.0
230
1.0
 70
    11
 71
     3
 72
    17
 73
    13
 74
     0
 42
0.0000000001
 43
0.0000000001
 40
0.0
 40
0.0
 40
0.0
 40
0.0
 40
0.25
 40
0.25
 40
0.25
 40
0.5
 40
0.5
 40
0.5
 40
0.75
 40
0.75
 40
0.75
 40
1.0
 40
1.0
 40
1.0
 40
1.0
 10
-2.78763
 20
6.53644
 30
0.0
 10
-2.73362
 20
6.53644
 30
0.0
 10
-2.68983
 20
6.49265
 30
0.0
 10
-2.68983
 20
6.43864
 30
0.0
 10
-2.68983
 20
6.38463
 30
0.0
 10
-2.73362
 20
6.34084
 30
0.0
 10
-2.78763
 20
6.34084
 30
0.0
 10
-2.84164
 20
6.34084
 30
0.0
 10
-2.88543
 20
6.38463
 30
0.0
 10
-2.88543
 20
6.43864
 30
0.0
 10
-2.88543
 20
6.49265
 30
0.0
 10
-2.84164
 20
6.53644
 30
0.0
 10
-2.78763
 20
6.53644
 30
0.0
  0
SPLINE
  5
7F
330
1F
100
AcDbEntity
  8
Layer 1
370
    18
100
AcDbSpline
210
0.0
220
0.0
230
1.0
 70
    11
 71
     3
 72
    17
 73
    13
 74
     0
 42
0.0000000001
 43
0.0000000001
 40
0.0
 40
0.0
 40
0.0
 40
0.0
 40
0.25
 40
0.25
 40
0.25
 40
0.5
 40
0.5
 40
0.5
 40
0.75
 40
0.75
 40
0.75
 40
1.0
 40
1.0
 40
1.0
 40
1.0
 10
-1.49945
 20
6.53644
 30
0.0
 10
-1.44544
 20
6.53644
 30
0.0
 10
-1.40165
 20
6.49265
 30
0.0
 10
-1.40165
 20
6.43864
 30
0.0
 10
-1.40165
 20
6.38463
 30
0.0
 10
-1.44544
 20
6.34084
 30
0.0
 10
-1.49945
 20
6.34084
 30
0.0
 10
-1.55346
 20
6.34084
 30
0.0
 10
-1.59725
 20
6.38463
 30
0.0
 10
-1.59725
 20
6.43864
 30
0.0
 10
-1.59725
 20
6.49265
 30
0.0
 10
-1.55346
 20
6.53644
 30
0.0
 10
-1.49945
 20
6.53644
 30
0.0
  0
SPLINE
  5
80
330
1F
100
AcDbEntity
  8
Layer 1
370
    18
100
AcDbSpline
210
0.0
220
0.0
230
1.0
 70
    11
 71
     3
 72
    17
 73
    13
 74
     0
 42
0.0000000001
 43
0.0000000001
 40
0.0
 40
0.0
 40
0.0
 40
0.0
 40
0.25
 40
0.25
 40
0.25
 40
0.5
 40
0.5
 40
0.5
 40
0.75
 40
0.75
 40
0.75
 40
1.0
 40
1.0
 40
1.0
 40
1.0
 10
-0.23625
 20
6.53644
 30
0.0
 10
-0.18224
 20
6.53644
 30
0.0
 10
-0.13845
 20
6.49265
 30
0.0
 10
-0.13845
 20
6.43864
 30
0.0
 10
-0.13845
 20
6.38463
 30
0.0
 10
-0.18224
 20
6.34084
 30
0.0
 10
-0.23625
 20
6.34084
 30
0.0
 10
-0.29026
 20
6.34084
 30
0.0
 10
-0.33405
 20
6.38463
 30
0.0
 10
-0.33405
 20
6.43864
 30
0.0
 10
-0.33405
 20
6.49265
 30
0.0
 10
-0.29026
 20
6.53644
 30
0.0
 10
-0.23625
 20
6.53644
 30
0.0
  0
SPLINE
  5
81
330
1F
100
AcDbEntity
  8
Layer 1
370
    18
100
AcDbSpline
210
0.0
220
0.0
230
1.0
 70
    11
 71
     3
 72
    17
 73
    13
 74
     0
 42
0.0000000001
 43
0.0000000001
 40
0.0
 40
0.0
 40
0.0
 40
0.0
 40
0.25
 40
0.25
 40
0.25
 40
0.5
 40
0.5
 40
0.5
 40
0.75
 40
0.75
 40
0.75
 40
1.0
 40
1.0
 40
1.0
 40
1.0
 10
1.00537
 20
6.53644
 30
0.0
 10
1.05938
 20
6.53644
 30
0.0
 10
1.10317
 20
6.49265
 30
0.0
 10
1.10317
 20
6.43864
 30
0.0
 10
1.10317
 20
6.38463
 30
0.0
 10
1.05938
 20
6.34084
 30
0.0
 10
1.00537
 20
6.34084
 30
0.0
 10
0.95136
 20
6.34084
 30
0.0
 10
0.90757
 20
6.38463
 30
0.0
 10
0.90757
 20
6.43864
 30
0.0
 10
0.90757
 20
6.49265
 30
0.0
 10
0.95136
 20
6.53644
 30
0.0
 10
1.00537
 20
6.53644
 30
0.0
  0
SPLINE
  5
82
330
1F
100
AcDbEntity
  8
Layer 1
370
    18
100
AcDbSpline
210
0.0
220
0.0
230
1.0
 70
    11
 71
     3
 72
    17
 73
    13
 74
     0
 42
0.0000000001
 43
0.0000000001
 40
0.0
 40
0.0
 40
0.0
 40
0.0
 40
0.25
 40
0.25
 40
0.25
 40
0.5
 40
0.5
 40
0.5
 40
0.75
 40
0.75
 40
0.75
 40
1.0
 40
1.0
 40
1.0
 40
1.0
 10
2.27937
 20
6.53644
 30
0.0
 10
2.33338
 20
6.53644
 30
0.0
 10
2.37717
 20
6.49265
 30
0.0
 10
2.37717
 20
6.43864
 30
0.0
 10
2.37717
 20
6.38463
 30
0.0
 10
2.33338
 20
6.34084
 30
0.0
 10
2.27937
 20
6.34084
 30
0.0
 10
2.22536
 20
6.34084
 30
0.0
 10
2.18157
 20
6.38463
 30
0.0
 10
2.18157
 20
6.43864
 30
0.0
 10
2.18157
 20
6.49265
 30
0.0
 10
2.22536
 20
6.53644
 30
0.0
 10
2.27937
 20
6.53644
 30
0.0
  0
SPLINE
  5
83
330
1F
100
AcDbEntity
  8
Layer 1
370
    18
100
AcDbSpline
210
0.0
220
0.0
230
1.0
 70
    11
 71
     3
 72
    17
 73
    13
 74
     0
 42
0.0000000001
 43
0.0000000001
 40
0.0
 40
0.0
 40
0.0
 40
0.0
 40
0.25
 40
0.25
 40
0.25
 40
0.5
 40
0.5
 40
0.5
 40
0.75
 40
0.75
 40
0.75
 40
1.0
 40
1.0
 40
1.0
 40
1.0
 10
3.69092
 20
6.53644
 30
0.0
 10
3.74493
 20
6.53644
 30
0.0
 10
3.78872
 20
6.49265
 30
0.0
 10
3.78872
 20
6.43864
 30
0.0
 10
3.78872
 20
6.38463
 30
0.0
 10
3.74493
 20
6.34084
 30
0.0
 10
3.69092
 20
6.34084
 30
0.0
 10
3.63691
 20
6.34084
 30
0.0
 10
3.59312
 20
6.38463
 30
0.0
 10
3.59312
 20
6.43864
 30
0.0
 10
3.59312
 20
6.49265
 30
0.0
 10
3.63691
 20
6.53644
 30
0.0
 10
3.69092
 20
6.53644
 30
0.0
  0
SPLINE
  5
84
330
1F
100
AcDbEntity
  8
Layer 1
370
    18
100
AcDbSpline
210
0.0
220
0.0
230
1.0
 70
    11
 71
     3
 72
    17
 73
    13
 74
     0
 42
0.0000000001
 43
0.0000000001
 40
0.0
 40
0.0
 40
0.0
 40
0.0
 40
0.25
 40
0.25
 40
0.25
 40
0.5
 40
0.5
 40
0.5
 40
0.75
 40
0.75
 40
0.75
 40
1.0
 40
1.0
 40
1.0
 40
1.0
 10
4.92875
 20
6.53644
 30
0.0
 10
4.98276
 20
6.53644
 30
0.0
 10
5.02655
 20
6.49265
 30
0.0
 10
5.02655
 20
6.43864
 30
0.0
 10
5.02655
 20
6.38463
 30
0.0
 10
4.98276
 20
6.34084
 30
0.0
 10
4.92875
 20
6.34084
 30
0.0
 10
4.87474
 20
6.34084
 30
0.0
 10
4.83095
 20
6.38463
 30
0.0
 10
4.83095
 20
6.43864
 30
0.0
 10
4.83095
 20
6.49265
 30
0.0
 10
4.87474
 20
6.53644
 30
0.0
 10
4.92875
 20
6.53644
 30
0.0
  0
SPLINE
  5
85
330
1F
100
AcDbEntity
  8
Layer 1
370
    18
100
AcDbSpline
210
0.0
220
0.0
230
1.0
 70
    11
 71
     3
 72
    17
 73
    13
 74
     0
 42
0.0000000001
 43
0.0000000001
 40
0.0
 40
0.0
 40
0.0
 40
0.0
 40
0.25
 40
0.25
 40
0.25
 40
0.5
 40
0.5
 40
0.5
 40
0.75
 40
0.75
 40
0.75
 40
1.0
 40
1.0
 40
1.0
 40
1.0
 10
6.16657
 20
6.53644
 30
0.0
 10
6.22058
 20
6.53644
 30
0.0
 10
6.26437
 20
6.49265
 30
0.0
 10
6.26437
 20
6.43864
 30
0.0
 10
6.26437
 20
6.38463
 30
0.0
 10
6.22058
 20
6.34084
 30
0.0
 10
6.16657
 20
6.34084
 30
0.0
 10
6.11256
 20
6.34084
 30
0.0
 10
6.06877
 20
6.38463
 30
0.0
 10
6.06877
 20
6.43864
 30
0.0
 10
6.06877
 20
6.49265
 30
0.0
 10
6.11256
 20
6.53644
 30
0.0
 10
6.16657
 20
6.53644
 30
0.0
  0
SPLINE
  5
86
330
1F
100
AcDbEntity
  8
Layer 1
370
    18
100
AcDbSpline
210
0.0
220
0.0
230
1.0
 70
    11
 71
     3
 72
    17
 73
    13
 74
     0
 42
0.0000000001
 43
0.0000000001
 40
0.0
 40
0.0
 40
0.0
 40
0.0
 40
0.25
 40
0.25
 40
0.25
 40
0.5
 40
0.5
 40
0.5
 40
0.75
 40
0.75
 40
0.75
 40
1.0
 40
1.0
 40
1.0
 40
1.0
 10
7.51298
 20
6.53644
 30
0.0
 10
7.56699
 20
6.53644
 30
0.0
 10
7.61078
 20
6.49265
 30
0.0
 10
7.61078
 20
6.43864
 30
0.0
 10
7.61078
 20
6.38463
 30
0.0
 10
7.56699
 20
6.34084
 30
0.0
 10
7.51298
 20
6.34084
 30
0.0
 10
7.45897
 20
6.34084
 30
0.0
 10
7.41518
 20
6.38463
 30
0.0
 10
7.41518
 20
6.43864
 30
0.0
 10
7.41518
 20
6.49265
 30
0.0
 10
7.45897
 20
6.53644
 30
0.0
 10
7.51298
 20
6.53644
 30
0.0
  0
SPLINE
  5
87
330
1F
100
AcDbEntity
  8
Layer 1
370
    18
100
AcDbSpline
210
0.0
220
0.0
230
1.0
 70
    11
 71
     3
 72
    17
 73
    13
 74
     0
 42
0.0000000001
 43
0.0000000001
 40
0.0
 40
0.0
 40
0.0
 40
0.0
 40
0.25
 40
0.25
 40
0.25
 40
0.5
 40
0.5
 40
0.5
 40
0.75
 40
0.75
 40
0.75
 40
1.0
 40
1.0
 40
1.0
 40
1.0
 10
-9.03497
 20
5.25517
 30
0.0
 10
-8.98096
 20
5.25517
 30
0.0
 10
-8.93717
 20
5.21138
 30
0.0
 10
-8.93717
 20
5.15737
 30
0.0
 10
-8.93717
 20
5.10336
 30
0.0
 10
-8.98096
 20
5.05957
 30
0.0
 10
-9.03497
 20
5.05957
 30
0.0
 10
-9.08898
 20
5.05957
 30
0.0
 10
-9.13277
 20
5.10336
 30
0.0
 10
-9.13277
 20
5.15737
 30
0.0
 10
-9.13277
 20
5.21138
 30
0.0
 10
-9.08898
 20
5.25517
 30
0.0
 10
-9.03497
 20
5.25517
 30
0.0
  0
SPLINE
  5
88
330
1F
100
AcDbEntity
  8
Layer 1
370
    18
100
AcDbSpline
210
0.0
220
0.0
230
1.0
 70
    11
 71
     3
 72
    17
 73
    13
 74
     0
 42
0.0000000001
 43
0.0000000001
 40
0.0
 40
0.0
 40
0.0
 40
0.0
 40
0.25
 40
0.25
 40
0.25
 40
0.5
 40
0.5
 40
0.5
 40
0.75
 40
0.75
 40
0.75
 40
1.0
 40
1.0
 40
1.0
 40
1.0
 10
-7.77177
 20
5.25517
 30
0.0
 10
-7.71776
 20
5.25517
 30
0.0
 10
-7.67397
 20
5.21138
 30
0.0
 10
-7.67397
 20
5.15737
 30
0.0
 10
-7.67397
 20
5.10336
 30
0.0
 10
-7.71776
 20
5.05957
 30
0.0
 10
-7.77177
 20
5.05957
 30
0.0
 10
-7.82578
 20
5.05957
 30
0.0
 10
-7.86957
 20
5.10336
 30
0.0
 10
-7.86957
 20
5.15737
 30
0.0
 10
-7.86957
 20
5.21138
 30
0.0
 10
-7.82578
 20
5.25517
 30
0.0
 10
-7.77177
 20
5.25517
 30
0.0
  0
SPLINE
  5
89
330
1F
100
AcDbEntity
  8
Layer 1
370
    18
100
AcDbSpline
210
0.0
220
0.0
230
1.0
 70
    11
 71
     3
 72
    17
 73
    13
 74
     0
 42
0.0000000001
 43
0.0000000001
 40
0.0
 40
0.0
 40
0.0
 40
0.0
 40
0.25
 40
0.25
 40
0.25
 40
0.5
 40
0.5
 40
0.5
 40
0.75
 40
0.75
 40
0.75
 40
1.0
 40
1.0
 40
1.0
 40
1.0
 10
-6.53015
 20
5.25517
 30
0.0
 10
-6.47614
 20
5.25517
 30
0.0
 10
-6.43235
 20
5.21138
 30
0.0
 10
-6.43235
 20
5.15737
 30
0.0
 10
-6.43235
 20
5.10336
 30
0.0
 10
-6.47614
 20
5.05957
 30
0.0
 10
-6.53015
 20
5.05957
 30
0.0
 10
-6.58416
 20
5.05957
 30
0.0
 10
-6.62795
 20
5.10336
 30
0.0
 10
-6.62795
 20
5.15737
 30
0.0
 10
-6.62795
 20
5.21138
 30
0.0
 10
-6.58416
 20
5.25517
 30
0.0
 10
-6.53015
 20
5.25517
 30
0.0
  0
SPLINE
  5
8A
330
1F
100
AcDbEntity
  8
Layer 1
370
    18
100
AcDbSpline
210
0.0
220
0.0
230
1.0
 70
    11
 71
     3
 72
    17
 73
    13
 74
     0
 42
0.0000000001
 43
0.0000000001
 40
0.0
 40
0.0
 40
0.0
 40
0.0
 40
0.25
 40
0.25
 40
0.25
 40
0.5
 40
0.5
 40
0.5
 40
0.75
 40
0.75
 40
0.75
 40
1.0
 40
1.0
 40
1.0
 40
1.0
 10
-5.25615
 20
5.25517
 30
0.0
 10
-5.20214
 20
5.25517
 30
0.0
 10
-5.15835
 20
5.21138
 30
0.0
 10
-5.15835
 20
5.15737
 30
0.0
 10
-5.15835
 20
5.10336
 30
0.0
 10
-5.20214
 20
5.05957
 30
0.0
 10
-5.25615
 20
5.05957
 30
0.0
 10
-5.31016
 20
5.05957
 30
0.0
 10
-5.35395
 20
5.10336
 30
0.0
 10
-5.35395
 20
5.15737
 30
0.0
 10
-5.35395
 20
5.21138
 30
0.0
 10
-5.31016
 20
5.25517
 30
0.0
 10
-5.25615
 20
5.25517
 30
0.0
  0
SPLINE
  5
8B
330
1F
100
AcDbEntity
  8
Layer 1
370
    18
100
AcDbSpline
210
0.0
220
0.0
230
1.0
 70
    11
 71
     3
 72
    17
 73
    13
 74
     0
 42
0.0000000001
 43
0.0000000001
 40
0.0
 40
0.0
 40
0.0
 40
0.0
 40
0.25
 40
0.25
 40
0.25
 40
0.5
 40
0.5
 40
0.5
 40
0.75
 40
0.75
 40
0.75
 40
1.0
 40
1.0
 40
1.0
 40
1.0
 10
-4.00374
 20
5.25517
 30
0.0
 10
-3.94973
 20
5.25517
 30
0.0
 10
-3.90594
 20
5.21138
 30
0.0
 10
-3.90594
 20
5.15737
 30
0.0
 10
-3.90594
 20
5.10336
 30
0.0
 10
-3.94973
 20
5.05957
 30
0.0
 10
-4.00374
 20
5.05957
 30
0.0
 10
-4.05775
 20
5.05957
 30
0.0
 10
-4.10154
 20
5.10336
 30
0.0
 10
-4.10154
 20
5.15737
 30
0.0
 10
-4.10154
 20
5.21138
 30
0.0
 10
-4.05775
 20
5.25517
 30
0.0
 10
-4.00374
 20
5.25517
 30
0.0
  0
SPLINE
  5
8C
330
1F
100
AcDbEntity
  8
Layer 1
370
    18
100
AcDbSpline
210
0.0
220
0.0
230
1.0
 70
    11
 71
     3
 72
    17
 73
    13
 74
     0
 42
0.0000000001
 43
0.0000000001
 40
0.0
 40
0.0
 40
0.0
 40
0.0
 40
0.25
 40
0.25
 40
0.25
 40
0.5
 40
0.5
 40
0.5
 40
0.75
 40
0.75
 40
0.75
 40
1.0
 40
1.0
 40
1.0
 40
1.0
 10
-2.70077
 20
5.25517
 30
0.0
 10
-2.64676
 20
5.25517
 30
0.0
 10
-2.60297
 20
5.21138
 30
0.0
 10
-2.60297
 20
5.15737
 30
0.0
 10
-2.60297
 20
5.10336
 30
0.0
 10
-2.64676
 20
5.05957
 30
0.0
 10
-2.70077
 20
5.05957
 30
0.0
 10
-2.75478
 20
5.05957
 30
0.0
 10
-2.79857
 20
5.10336
 30
0.0
 10
-2.79857
 20
5.15737
 30
0.0
 10
-2.79857
 20
5.21138
 30
0.0
 10
-2.75478
 20
5.25517
 30
0.0
 10
-2.70077
 20
5.25517
 30
0.0
  0
SPLINE
  5
8D
330
1F
100
AcDbEntity
  8
Layer 1
370
    18
100
AcDbSpline
210
0.0
220
0.0
230
1.0
 70
    11
 71
     3
 72
    17
 73
    13
 74
     0
 42
0.0000000001
 43
0.0000000001
 40
0.0
 40
0.0
 40
0.0
 40
0.0
 40
0.25
 40
0.25
 40
0.25
 40
0.5
 40
0.5
 40
0.5
 40
0.75
 40
0.75
 40
0.75
 40
1.0
 40
1.0
 40
1.0
 40
1.0
 10
-1.41259
 20
5.25517
 30
0.0
 10
-1.35858
 20
5.25517
 30
0.0
 10
-1.31479
 20
5.21138
 30
0.0
 10
-1.31479
 20
5.15737
 30
0.0
 10
-1.31479
 20
5.10336
 30
0.0
 10
-1.35858
 20
5.05957
 30
0.0
 10
-1.41259
 20
5.05957
 30
0.0
 10
-1.4666
 20
5.05957
 30
0.0
 10
-1.51039
 20
5.10336
 30
0.0
 10
-1.51039
 20
5.15737
 30
0.0
 10
-1.51039
 20
5.21138
 30
0.0
 10
-1.4666
 20
5.25517
 30
0.0
 10
-1.41259
 20
5.25517
 30
0.0
  0
SPLINE
  5
8E
330
1F
100
AcDbEntity
  8
Layer 1
370
    18
100
AcDbSpline
210
0.0
220
0.0
230
1.0
 70
    11
 71
     3
 72
    17
 73
    13
 74
     0
 42
0.0000000001
 43
0.0000000001
 40
0.0
 40
0.0
 40
0.0
 40
0.0
 40
0.25
 40
0.25
 40
0.25
 40
0.5
 40
0.5
 40
0.5
 40
0.75
 40
0.75
 40
0.75
 40
1.0
 40
1.0
 40
1.0
 40
1.0
 10
-0.14939
 20
5.25517
 30
0.0
 10
-0.09538
 20
5.25517
 30
0.0
 10
-0.05159
 20
5.21138
 30
0.0
 10
-0.05159
 20
5.15737
 30
0.0
 10
-0.05159
 20
5.10336
 30
0.0
 10
-0.09538
 20
5.05957
 30
0.0
 10
-0.14939
 20
5.05957
 30
0.0
 10
-0.2034
 20
5.05957
 30
0.0
 10
-0.24719
 20
5.10336
 30
0.0
 10
-0.24719
 20
5.15737
 30
0.0
 10
-0.24719
 20
5.21138
 30
0.0
 10
-0.2034
 20
5.25517
 30
0.0
 10
-0.14939
 20
5.25517
 30
0.0
  0
SPLINE
  5
8F
330
1F
100
AcDbEntity
  8
Layer 1
370
    18
100
AcDbSpline
210
0.0
220
0.0
230
1.0
 70
    11
 71
     3
 72
    17
 73
    13
 74
     0
 42
0.0000000001
 43
0.0000000001
 40
0.0
 40
0.0
 40
0.0
 40
0.0
 40
0.25
 40
0.25
 40
0.25
 40
0.5
 40
0.5
 40
0.5
 40
0.75
 40
0.75
 40
0.75
 40
1.0
 40
1.0
 40
1.0
 40
1.0
 10
1.09223
 20
5.25517
 30
0.0
 10
1.14624
 20
5.25517
 30
0.0
 10
1.19003
 20
5.21138
 30
0.0
 10
1.19003
 20
5.15737
 30
0.0
 10
1.19003
 20
5.10336
 30
0.0
 10
1.14624
 20
5.05957
 30
0.0
 10
1.09223
 20
5.05957
 30
0.0
 10
1.03822
 20
5.05957
 30
0.0
 10
0.99443
 20
5.10336
 30
0.0
 10
0.99443
 20
5.15737
 30
0.0
 10
0.99443
 20
5.21138
 30
0.0
 10
1.03822
 20
5.25517
 30
0.0
 10
1.09223
 20
5.25517
 30
0.0
  0
SPLINE
  5
90
330
1F
100
AcDbEntity
  8
Layer 1
370
    18
100
AcDbSpline
210
0.0
220
0.0
230
1.0
 70
    11
 71
     3
 72
    17
 73
    13
 74
     0
 42
0.0000000001
 43
0.0000000001
 40
0.0
 40
0.0
 40
0.0
 40
0.0
 40
0.25
 40
0.25
 40
0.25
 40
0.5
 40
0.5
 40
0.5
 40
0.75
 40
0.75
 40
0.75
 40
1.0
 40
1.0
 40
1.0
 40
1.0
 10
2.36623
 20
5.25517
 30
0.0
 10
2.42024
 20
5.25517
 30
0.0
 10
2.46403
 20
5.21138
 30
0.0
 10
2.46403
 20
5.15737
 30
0.0
 10
2.46403
 20
5.10336
 30
0.0
 10
2.42024
 20
5.05957
 30
0.0
 10
2.36623
 20
5.05957
 30
0.0
 10
2.31222
 20
5.05957
 30
0.0
 10
2.26843
 20
5.10336
 30
0.0
 10
2.26843
 20
5.15737
 30
0.0
 10
2.26843
 20
5.21138
 30
0.0
 10
2.31222
 20
5.25517
 30
0.0
 10
2.36623
 20
5.25517
 30
0.0
  0
SPLINE
  5
91
330
1F
100
AcDbEntity
  8
Layer 1
370
    18
100
AcDbSpline
210
0.0
220
0.0
230
1.0
 70
    11
 71
     3
 72
    17
 73
    13
 74
     0
 42
0.0000000001
 43
0.0000000001
 40
0.0
 40
0.0
 40
0.0
 40
0.0
 40
0.25
 40
0.25
 40
0.25
 40
0.5
 40
0.5
 40
0.5
 40
0.75
 40
0.75
 40
0.75
 40
1.0
 40
1.0
 40
1.0
 40
1.0
 10
3.77778
 20
5.25517
 30
0.0
 10
3.83179
 20
5.25517
 30
0.0
 10
3.87558
 20
5.21138
 30
0.0
 10
3.87558
 20
5.15737
 30
0.0
 10
3.87558
 20
5.10336
 30
0.0
 10
3.83179
 20
5.05957
 30
0.0
 10
3.77778
 20
5.05957
 30
0.0
 10
3.72377
 20
5.05957
 30
0.0
 10
3.67998
 20
5.10336
 30
0.0
 10
3.67998
 20
5.15737
 30
0.0
 10
3.67998
 20
5.21138
 30
0.0
 10
3.72377
 20
5.25517
 30
0.0
 10
3.77778
 20
5.25517
 30
0.0
  0
SPLINE
  5
92
330
1F
100
AcDbEntity
  8
Layer 1
370
    18
100
AcDbSpline
210
0.0
220
0.0
230
1.0
 70
    11
 71
     3
 72
    17
 73
    13
 74
     0
 42
0.0000000001
 43
0.0000000001
 40
0.0
 40
0.0
 40
0.0
 40
0.0
 40
0.25
 40
0.25
 40
0.25
 40
0.5
 40
0.5
 40
0.5
 40
0.75
 40
0.75
 40
0.75
 40
1.0
 40
1.0
 40
1.0
 40
1.0
 10
5.01561
 20
5.25517
 30
0.0
 10
5.06962
 20
5.25517
 30
0.0
 10
5.11341
 20
5.21138
 30
0.0
 10
5.11341
 20
5.15737
 30
0.0
 10
5.11341
 20
5.10336
 30
0.0
 10
5.06962
 20
5.05957
 30
0.0
 10
5.01561
 20
5.05957
 30
0.0
 10
4.9616
 20
5.05957
 30
0.0
 10
4.91781
 20
5.10336
 30
0.0
 10
4.91781
 20
5.15737
 30
0.0
 10
4.91781
 20
5.21138
 30
0.0
 10
4.9616
 20
5.25517
 30
0.0
 10
5.01561
 20
5.25517
 30
0.0
  0
SPLINE
  5
93
330
1F
100
AcDbEntity
  8
Layer 1
370
    18
100
AcDbSpline
210
0.0
220
0.0
230
1.0
 70
    11
 71
     3
 72
    17
 73
    13
 74
     0
 42
0.0000000001
 43
0.0000000001
 40
0.0
 40
0.0
 40
0.0
 40
0.0
 40
0.25
 40
0.25
 40
0.25
 40
0.5
 40
0.5
 40
0.5
 40
0.75
 40
0.75
 40
0.75
 40
1.0
 40
1.0
 40
1.0
 40
1.0
 10
6.25343
 20
5.25517
 30
0.0
 10
6.30744
 20
5.25517
 30
0.0
 10
6.35123
 20
5.21138
 30
0.0
 10
6.35123
 20
5.15737
 30
0.0
 10
6.35123
 20
5.10336
 30
0.0
 10
6.30744
 20
5.05957
 30
0.0
 10
6.25343
 20
5.05957
 30
0.0
 10
6.19942
 20
5.05957
 30
0.0
 10
6.15563
 20
5.10336
 30
0.0
 10
6.15563
 20
5.15737
 30
0.0
 10
6.15563
 20
5.21138
 30
0.0
 10
6.19942
 20
5.25517
 30
0.0
 10
6.25343
 20
5.25517
 30
0.0
  0
SPLINE
  5
94
330
1F
100
AcDbEntity
  8
Layer 1
370
    18
100
AcDbSpline
210
0.0
220
0.0
230
1.0
 70
    11
 71
     3
 72
    17
 73
    13
 74
     0
 42
0.0000000001
 43
0.0000000001
 40
0.0
 40
0.0
 40
0.0
 40
0.0
 40
0.25
 40
0.25
 40
0.25
 40
0.5
 40
0.5
 40
0.5
 40
0.75
 40
0.75
 40
0.75
 40
1.0
 40
1.0
 40
1.0
 40
1.0
 10
-5.23459
 20
3.95218
 30
0.0
 10
-5.18058
 20
3.95218
 30
0.0
 10
-5.13679
 20
3.90839
 30
0.0
 10
-5.13679
 20
3.85438
 30
0.0
 10
-5.13679
 20
3.80037
 30
0.0
 10
-5.18058
 20
3.75658
 30
0.0
 10
-5.23459
 20
3.75658
 30
0.0
 10
-5.2886
 20
3.75658
 30
0.0
 10
-5.33239
 20
3.80037
 30
0.0
 10
-5.33239
 20
3.85438
 30
0.0
 10
-5.33239
 20
3.90839
 30
0.0
 10
-5.2886
 20
3.95218
 30
0.0
 10
-5.23459
 20
3.95218
 30
0.0
  0
SPLINE
  5
95
330
1F
100
AcDbEntity
  8
Layer 1
370
    18
100
AcDbSpline
210
0.0
220
0.0
230
1.0
 70
    11
 71
     3
 72
    17
 73
    13
 74
     0
 42
0.0000000001
 43
0.0000000001
 40
0.0
 40
0.0
 40
0.0
 40
0.0
 40
0.25
 40
0.25
 40
0.25
 40
0.5
 40
0.5
 40
0.5
 40
0.75
 40
0.75
 40
0.75
 40
1.0
 40
1.0
 40
1.0
 40
1.0
 10
-3.97139
 20
3.95218
 30
0.0
 10
-3.91738
 20
3.95218
 30
0.0
 10
-3.87359
 20
3.90839
 30
0.0
 10
-3.87359
 20
3.85438
 30
0.0
 10
-3.87359
 20
3.80037
 30
0.0
 10
-3.91738
 20
3.75658
 30
0.0
 10
-3.97139
 20
3.75658
 30
0.0
 10
-4.0254
 20
3.75658
 30
0.0
 10
-4.06919
 20
3.80037
 30
0.0
 10
-4.06919
 20
3.85438
 30
0.0
 10
-4.06919
 20
3.90839
 30
0.0
 10
-4.0254
 20
3.95218
 30
0.0
 10
-3.97139
 20
3.95218
 30
0.0
  0
SPLINE
  5
96
330
1F
100
AcDbEntity
  8
Layer 1
370
    18
100
AcDbSpline
210
0.0
220
0.0
230
1.0
 70
    11
 71
     3
 72
    17
 73
    13
 74
     0
 42
0.0000000001
 43
0.0000000001
 40
0.0
 40
0.0
 40
0.0
 40
0.0
 40
0.25
 40
0.25
 40
0.25
 40
0.5
 40
0.5
 40
0.5
 40
0.75
 40
0.75
 40
0.75
 40
1.0
 40
1.0
 40
1.0
 40
1.0
 10
-2.72977
 20
3.95218
 30
0.0
 10
-2.67576
 20
3.95218
 30
0.0
 10
-2.63197
 20
3.90839
 30
0.0
 10
-2.63197
 20
3.85438
 30
0.0
 10
-2.63197
 20
3.80037
 30
0.0
 10
-2.67576
 20
3.75658
 30
0.0
 10
-2.72977
 20
3.75658
 30
0.0
 10
-2.78378
 20
3.75658
 30
0.0
 10
-2.82757
 20
3.80037
 30
0.0
 10
-2.82757
 20
3.85438
 30
0.0
 10
-2.82757
 20
3.90839
 30
0.0
 10
-2.78378
 20
3.95218
 30
0.0
 10
-2.72977
 20
3.95218
 30
0.0
  0
SPLINE
  5
97
330
1F
100
AcDbEntity
  8
Layer 1
370
    18
100
AcDbSpline
210
0.0
220
0.0
230
1.0
 70
    11
 71
     3
 72
    17
 73
    13
 74
     0
 42
0.0000000001
 43
0.0000000001
 40
0.0
 40
0.0
 40
0.0
 40
0.0
 40
0.25
 40
0.25
 40
0.25
 40
0.5
 40
0.5
 40
0.5
 40
0.75
 40
0.75
 40
0.75
 40
1.0
 40
1.0
 40
1.0
 40
1.0
 10
-1.45577
 20
3.95218
 30
0.0
 10
-1.40176
 20
3.95218
 30
0.0
 10
-1.35797
 20
3.90839
 30
0.0
 10
-1.35797
 20
3.85438
 30
0.0
 10
-1.35797
 20
3.80037
 30
0.0
 10
-1.40176
 20
3.75658
 30
0.0
 10
-1.45577
 20
3.75658
 30
0.0
 10
-1.50978
 20
3.75658
 30
0.0
 10
-1.55357
 20
3.80037
 30
0.0
 10
-1.55357
 20
3.85438
 30
0.0
 10
-1.55357
 20
3.90839
 30
0.0
 10
-1.50978
 20
3.95218
 30
0.0
 10
-1.45577
 20
3.95218
 30
0.0
  0
SPLINE
  5
98
330
1F
100
AcDbEntity
  8
Layer 1
370
    18
100
AcDbSpline
210
0.0
220
0.0
230
1.0
 70
    11
 71
     3
 72
    17
 73
    13
 74
     0
 42
0.0000000001
 43
0.0000000001
 40
0.0
 40
0.0
 40
0.0
 40
0.0
 40
0.25
 40
0.25
 40
0.25
 40
0.5
 40
0.5
 40
0.5
 40
0.75
 40
0.75
 40
0.75
 40
1.0
 40
1.0
 40
1.0
 40
1.0
 10
-0.20336
 20
3.95218
 30
0.0
 10
-0.14935
 20
3.95218
 30
0.0
 10
-0.10556
 20
3.90839
 30
0.0
 10
-0.10556
 20
3.85438
 30
0.0
 10
-0.10556
 20
3.80037
 30
0.0
 10
-0.14935
 20
3.75658
 30
0.0
 10
-0.20336
 20
3.75658
 30
0.0
 10
-0.25737
 20
3.75658
 30
0.0
 10
-0.30116
 20
3.80037
 30
0.0
 10
-0.30116
 20
3.85438
 30
0.0
 10
-0.30116
 20
3.90839
 30
0.0
 10
-0.25737
 20
3.95218
 30
0.0
 10
-0.20336
 20
3.95218
 30
0.0
  0
SPLINE
  5
99
330
1F
100
AcDbEntity
  8
Layer 1
370
    18
100
AcDbSpline
210
0.0
220
0.0
230
1.0
 70
    11
 71
     3
 72
    17
 73
    13
 74
     0
 42
0.0000000001
 43
0.0000000001
 40
0.0
 40
0.0
 40
0.0
 40
0.0
 40
0.25
 40
0.25
 40
0.25
 40
0.5
 40
0.5
 40
0.5
 40
0.75
 40
0.75
 40
0.75
 40
1.0
 40
1.0
 40
1.0
 40
1.0
 10
1.09961
 20
3.95218
 30
0.0
 10
1.15362
 20
3.95218
 30
0.0
 10
1.19741
 20
3.90839
 30
0.0
 10
1.19741
 20
3.85438
 30
0.0
 10
1.19741
 20
3.80037
 30
0.0
 10
1.15362
 20
3.75658
 30
0.0
 10
1.09961
 20
3.75658
 30
0.0
 10
1.0456
 20
3.75658
 30
0.0
 10
1.00181
 20
3.80037
 30
0.0
 10
1.00181
 20
3.85438
 30
0.0
 10
1.00181
 20
3.90839
 30
0.0
 10
1.0456
 20
3.95218
 30
0.0
 10
1.09961
 20
3.95218
 30
0.0
  0
SPLINE
  5
9A
330
1F
100
AcDbEntity
  8
Layer 1
370
    18
100
AcDbSpline
210
0.0
220
0.0
230
1.0
 70
    11
 71
     3
 72
    17
 73
    13
 74
     0
 42
0.0000000001
 43
0.0000000001
 40
0.0
 40
0.0
 40
0.0
 40
0.0
 40
0.25
 40
0.25
 40
0.25
 40
0.5
 40
0.5
 40
0.5
 40
0.75
 40
0.75
 40
0.75
 40
1.0
 40
1.0
 40
1.0
 40
1.0
 10
2.38779
 20
3.95218
 30
0.0
 10
2.4418
 20
3.95218
 30
0.0
 10
2.48559
 20
3.90839
 30
0.0
 10
2.48559
 20
3.85438
 30
0.0
 10
2.48559
 20
3.80037
 30
0.0
 10
2.4418
 20
3.75658
 30
0.0
 10
2.38779
 20
3.75658
 30
0.0
 10
2.33378
 20
3.75658
 30
0.0
 10
2.28999
 20
3.80037
 30
0.0
 10
2.28999
 20
3.85438
 30
0.0
 10
2.28999
 20
3.90839
 30
0.0
 10
2.33378
 20
3.95218
 30
0.0
 10
2.38779
 20
3.95218
 30
0.0
  0
SPLINE
  5
9B
330
1F
100
AcDbEntity
  8
Layer 1
370
    18
100
AcDbSpline
210
0.0
220
0.0
230
1.0
 70
    11
 71
     3
 72
    17
 73
    13
 74
     0
 42
0.0000000001
 43
0.0000000001
 40
0.0
 40
0.0
 40
0.0
 40
0.0
 40
0.25
 40
0.25
 40
0.25
 40
0.5
 40
0.5
 40
0.5
 40
0.75
 40
0.75
 40
0.75
 40
1.0
 40
1.0
 40
1.0
 40
1.0
 10
3.65099
 20
3.95218
 30
0.0
 10
3.705
 20
3.95218
 30
0.0
 10
3.74879
 20
3.90839
 30
0.0
 10
3.74879
 20
3.85438
 30
0.0
 10
3.74879
 20
3.80037
 30
0.0
 10
3.705
 20
3.75658
 30
0.0
 10
3.65099
 20
3.75658
 30
0.0
 10
3.59698
 20
3.75658
 30
0.0
 10
3.55319
 20
3.80037
 30
0.0
 10
3.55319
 20
3.85438
 30
0.0
 10
3.55319
 20
3.90839
 30
0.0
 10
3.59698
 20
3.95218
 30
0.0
 10
3.65099
 20
3.95218
 30
0.0
  0
SPLINE
  5
9C
330
1F
100
AcDbEntity
  8
Layer 1
370
    18
100
AcDbSpline
210
0.0
220
0.0
230
1.0
 70
    11
 71
     3
 72
    17
 73
    13
 74
     0
 42
0.0000000001
 43
0.0000000001
 40
0.0
 40
0.0
 40
0.0
 40
0.0
 40
0.25
 40
0.25
 40
0.25
 40
0.5
 40
0.5
 40
0.5
 40
0.75
 40
0.75
 40
0.75
 40
1.0
 40
1.0
 40
1.0
 40
1.0
 10
4.89261
 20
3.95218
 30
0.0
 10
4.94662
 20
3.95218
 30
0.0
 10
4.99041
 20
3.90839
 30
0.0
 10
4.99041
 20
3.85438
 30
0.0
 10
4.99041
 20
3.80037
 30
0.0
 10
4.94662
 20
3.75658
 30
0.0
 10
4.89261
 20
3.75658
 30
0.0
 10
4.8386
 20
3.75658
 30
0.0
 10
4.79481
 20
3.80037
 30
0.0
 10
4.79481
 20
3.85438
 30
0.0
 10
4.79481
 20
3.90839
 30
0.0
 10
4.8386
 20
3.95218
 30
0.0
 10
4.89261
 20
3.95218
 30
0.0
  0
SPLINE
  5
9D
330
1F
100
AcDbEntity
  8
Layer 1
370
    18
100
AcDbSpline
210
0.0
220
0.0
230
1.0
 70
    11
 71
     3
 72
    17
 73
    13
 74
     0
 42
0.0000000001
 43
0.0000000001
 40
0.0
 40
0.0
 40
0.0
 40
0.0
 40
0.25
 40
0.25
 40
0.25
 40
0.5
 40
0.5
 40
0.5
 40
0.75
 40
0.75
 40
0.75
 40
1.0
 40
1.0
 40
1.0
 40
1.0
 10
6.16661
 20
3.95218
 30
0.0
 10
6.22062
 20
3.95218
 30
0.0
 10
6.26441
 20
3.90839
 30
0.0
 10
6.26441
 20
3.85438
 30
0.0
 10
6.26441
 20
3.80037
 30
0.0
 10
6.22062
 20
3.75658
 30
0.0
 10
6.16661
 20
3.75658
 30
0.0
 10
6.1126
 20
3.75658
 30
0.0
 10
6.06881
 20
3.80037
 30
0.0
 10
6.06881
 20
3.85438
 30
0.0
 10
6.06881
 20
3.90839
 30
0.0
 10
6.1126
 20
3.95218
 30
0.0
 10
6.16661
 20
3.95218
 30
0.0
  0
SPLINE
  5
9E
330
1F
100
AcDbEntity
  8
Layer 1
370
    18
100
AcDbSpline
210
0.0
220
0.0
230
1.0
 70
    11
 71
     3
 72
    17
 73
    13
 74
     0
 42
0.0000000001
 43
0.0000000001
 40
0.0
 40
0.0
 40
0.0
 40
0.0
 40
0.25
 40
0.25
 40
0.25
 40
0.5
 40
0.5
 40
0.5
 40
0.75
 40
0.75
 40
0.75
 40
1.0
 40
1.0
 40
1.0
 40
1.0
 10
7.57816
 20
3.95218
 30
0.0
 10
7.63217
 20
3.95218
 30
0.0
 10
7.67596
 20
3.90839
 30
0.0
 10
7.67596
 20
3.85438
 30
0.0
 10
7.67596
 20
3.80037
 30
0.0
 10
7.63217
 20
3.75658
 30
0.0
 10
7.57816
 20
3.75658
 30
0.0
 10
7.52415
 20
3.75658
 30
0.0
 10
7.48036
 20
3.80037
 30
0.0
 10
7.48036
 20
3.85438
 30
0.0
 10
7.48036
 20
3.90839
 30
0.0
 10
7.52415
 20
3.95218
 30
0.0
 10
7.57816
 20
3.95218
 30
0.0
  0
SPLINE
  5
9F
330
1F
100
AcDbEntity
  8
Layer 1
370
    18
100
AcDbSpline
210
0.0
220
0.0
230
1.0
 70
    11
 71
     3
 72
    17
 73
    13
 74
     0
 42
0.0000000001
 43
0.0000000001
 40
0.0
 40
0.0
 40
0.0
 40
0.0
 40
0.25
 40
0.25
 40
0.25
 40
0.5
 40
0.5
 40
0.5
 40
0.75
 40
0.75
 40
0.75
 40
1.0
 40
1.0
 40
1.0
 40
1.0
 10
-5.25631
 20
2.71433
 30
0.0
 10
-5.2023
 20
2.71433
 30
0.0
 10
-5.15851
 20
2.67054
 30
0.0
 10
-5.15851
 20
2.61653
 30
0.0
 10
-5.15851
 20
2.56252
 30
0.0
 10
-5.2023
 20
2.51873
 30
0.0
 10
-5.25631
 20
2.51873
 30
0.0
 10
-5.31032
 20
2.51873
 30
0.0
 10
-5.35411
 20
2.56252
 30
0.0
 10
-5.35411
 20
2.61653
 30
0.0
 10
-5.35411
 20
2.67054
 30
0.0
 10
-5.31032
 20
2.71433
 30
0.0
 10
-5.25631
 20
2.71433
 30
0.0
  0
SPLINE
  5
A0
330
1F
100
AcDbEntity
  8
Layer 1
370
    18
100
AcDbSpline
210
0.0
220
0.0
230
1.0
 70
    11
 71
     3
 72
    17
 73
    13
 74
     0
 42
0.0000000001
 43
0.0000000001
 40
0.0
 40
0.0
 40
0.0
 40
0.0
 40
0.25
 40
0.25
 40
0.25
 40
0.5
 40
0.5
 40
0.5
 40
0.75
 40
0.75
 40
0.75
 40
1.0
 40
1.0
 40
1.0
 40
1.0
 10
-3.99311
 20
2.71433
 30
0.0
 10
-3.9391
 20
2.71433
 30
0.0
 10
-3.89531
 20
2.67054
 30
0.0
 10
-3.89531
 20
2.61653
 30
0.0
 10
-3.89531
 20
2.56252
 30
0.0
 10
-3.9391
 20
2.51873
 30
0.0
 10
-3.99311
 20
2.51873
 30
0.0
 10
-4.04712
 20
2.51873
 30
0.0
 10
-4.09091
 20
2.56252
 30
0.0
 10
-4.09091
 20
2.61653
 30
0.0
 10
-4.09091
 20
2.67054
 30
0.0
 10
-4.04712
 20
2.71433
 30
0.0
 10
-3.99311
 20
2.71433
 30
0.0
  0
SPLINE
  5
A1
330
1F
100
AcDbEntity
  8
Layer 1
370
    18
100
AcDbSpline
210
0.0
220
0.0
230
1.0
 70
    11
 71
     3
 72
    17
 73
    13
 74
     0
 42
0.0000000001
 43
0.0000000001
 40
0.0
 40
0.0
 40
0.0
 40
0.0
 40
0.25
 40
0.25
 40
0.25
 40
0.5
 40
0.5
 40
0.5
 40
0.75
 40
0.75
 40
0.75
 40
1.0
 40
1.0
 40
1.0
 40
1.0
 10
-2.75149
 20
2.71433
 30
0.0
 10
-2.69748
 20
2.71433
 30
0.0
 10
-2.65369
 20
2.67054
 30
0.0
 10
-2.65369
 20
2.61653
 30
0.0
 10
-2.65369
 20
2.56252
 30
0.0
 10
-2.69748
 20
2.51873
 30
0.0
 10
-2.75149
 20
2.51873
 30
0.0
 10
-2.8055
 20
2.51873
 30
0.0
 10
-2.84929
 20
2.56252
 30
0.0
 10
-2.84929
 20
2.61653
 30
0.0
 10
-2.84929
 20
2.67054
 30
0.0
 10
-2.8055
 20
2.71433
 30
0.0
 10
-2.75149
 20
2.71433
 30
0.0
  0
SPLINE
  5
A2
330
1F
100
AcDbEntity
  8
Layer 1
370
    18
100
AcDbSpline
210
0.0
220
0.0
230
1.0
 70
    11
 71
     3
 72
    17
 73
    13
 74
     0
 42
0.0000000001
 43
0.0000000001
 40
0.0
 40
0.0
 40
0.0
 40
0.0
 40
0.25
 40
0.25
 40
0.25
 40
0.5
 40
0.5
 40
0.5
 40
0.75
 40
0.75
 40
0.75
 40
1.0
 40
1.0
 40
1.0
 40
1.0
 10
-1.47749
 20
2.71433
 30
0.0
 10
-1.42348
 20
2.71433
 30
0.0
 10
-1.37969
 20
2.67054
 30
0.0
 10
-1.37969
 20
2.61653
 30
0.0
 10
-1.37969
 20
2.56252
 30
0.0
 10
-1.42348
 20
2.51873
 30
0.0
 10
-1.47749
 20
2.51873
 30
0.0
 10
-1.5315
 20
2.51873
 30
0.0
 10
-1.57529
 20
2.56252
 30
0.0
 10
-1.57529
 20
2.61653
 30
0.0
 10
-1.57529
 20
2.67054
 30
0.0
 10
-1.5315
 20
2.71433
 30
0.0
 10
-1.47749
 20
2.71433
 30
0.0
  0
SPLINE
  5
A3
330
1F
100
AcDbEntity
  8
Layer 1
370
    18
100
AcDbSpline
210
0.0
220
0.0
230
1.0
 70
    11
 71
     3
 72
    17
 73
    13
 74
     0
 42
0.0000000001
 43
0.0000000001
 40
0.0
 40
0.0
 40
0.0
 40
0.0
 40
0.25
 40
0.25
 40
0.25
 40
0.5
 40
0.5
 40
0.5
 40
0.75
 40
0.75
 40
0.75
 40
1.0
 40
1.0
 40
1.0
 40
1.0
 10
-0.22508
 20
2.71433
 30
0.0
 10
-0.17107
 20
2.71433
 30
0.0
 10
-0.12728
 20
2.67054
 30
0.0
 10
-0.12728
 20
2.61653
 30
0.0
 10
-0.12728
 20
2.56252
 30
0.0
 10
-0.17107
 20
2.51873
 30
0.0
 10
-0.22508
 20
2.51873
 30
0.0
 10
-0.27909
 20
2.51873
 30
0.0
 10
-0.32288
 20
2.56252
 30
0.0
 10
-0.32288
 20
2.61653
 30
0.0
 10
-0.32288
 20
2.67054
 30
0.0
 10
-0.27909
 20
2.71433
 30
0.0
 10
-0.22508
 20
2.71433
 30
0.0
  0
SPLINE
  5
A4
330
1F
100
AcDbEntity
  8
Layer 1
370
    18
100
AcDbSpline
210
0.0
220
0.0
230
1.0
 70
    11
 71
     3
 72
    17
 73
    13
 74
     0
 42
0.0000000001
 43
0.0000000001
 40
0.0
 40
0.0
 40
0.0
 40
0.0
 40
0.25
 40
0.25
 40
0.25
 40
0.5
 40
0.5
 40
0.5
 40
0.75
 40
0.75
 40
0.75
 40
1.0
 40
1.0
 40
1.0
 40
1.0
 10
1.07789
 20
2.71433
 30
0.0
 10
1.1319
 20
2.71433
 30
0.0
 10
1.17569
 20
2.67054
 30
0.0
 10
1.17569
 20
2.61653
 30
0.0
 10
1.17569
 20
2.56252
 30
0.0
 10
1.1319
 20
2.51873
 30
0.0
 10
1.07789
 20
2.51873
 30
0.0
 10
1.02388
 20
2.51873
 30
0.0
 10
0.98009
 20
2.56252
 30
0.0
 10
0.98009
 20
2.61653
 30
0.0
 10
0.98009
 20
2.67054
 30
0.0
 10
1.02388
 20
2.71433
 30
0.0
 10
1.07789
 20
2.71433
 30
0.0
  0
SPLINE
  5
A5
330
1F
100
AcDbEntity
  8
Layer 1
370
    18
100
AcDbSpline
210
0.0
220
0.0
230
1.0
 70
    11
 71
     3
 72
    17
 73
    13
 74
     0
 42
0.0000000001
 43
0.0000000001
 40
0.0
 40
0.0
 40
0.0
 40
0.0
 40
0.25
 40
0.25
 40
0.25
 40
0.5
 40
0.5
 40
0.5
 40
0.75
 40
0.75
 40
0.75
 40
1.0
 40
1.0
 40
1.0
 40
1.0
 10
2.36607
 20
2.71433
 30
0.0
 10
2.42008
 20
2.71433
 30
0.0
 10
2.46387
 20
2.67054
 30
0.0
 10
2.46387
 20
2.61653
 30
0.0
 10
2.46387
 20
2.56252
 30
0.0
 10
2.42008
 20
2.51873
 30
0.0
 10
2.36607
 20
2.51873
 30
0.0
 10
2.31206
 20
2.51873
 30
0.0
 10
2.26827
 20
2.56252
 30
0.0
 10
2.26827
 20
2.61653
 30
0.0
 10
2.26827
 20
2.67054
 30
0.0
 10
2.31206
 20
2.71433
 30
0.0
 10
2.36607
 20
2.71433
 30
0.0
  0
SPLINE
  5
A6
330
1F
100
AcDbEntity
  8
Layer 1
370
    18
100
AcDbSpline
210
0.0
220
0.0
230
1.0
 70
    11
 71
     3
 72
    17
 73
    13
 74
     0
 42
0.0000000001
 43
0.0000000001
 40
0.0
 40
0.0
 40
0.0
 40
0.0
 40
0.25
 40
0.25
 40
0.25
 40
0.5
 40
0.5
 40
0.5
 40
0.75
 40
0.75
 40
0.75
 40
1.0
 40
1.0
 40
1.0
 40
1.0
 10
3.62927
 20
2.71433
 30
0.0
 10
3.68328
 20
2.71433
 30
0.0
 10
3.72707
 20
2.67054
 30
0.0
 10
3.72707
 20
2.61653
 30
0.0
 10
3.72707
 20
2.56252
 30
0.0
 10
3.68328
 20
2.51873
 30
0.0
 10
3.62927
 20
2.51873
 30
0.0
 10
3.57526
 20
2.51873
 30
0.0
 10
3.53147
 20
2.56252
 30
0.0
 10
3.53147
 20
2.61653
 30
0.0
 10
3.53147
 20
2.67054
 30
0.0
 10
3.57526
 20
2.71433
 30
0.0
 10
3.62927
 20
2.71433
 30
0.0
  0
SPLINE
  5
A7
330
1F
100
AcDbEntity
  8
Layer 1
370
    18
100
AcDbSpline
210
0.0
220
0.0
230
1.0
 70
    11
 71
     3
 72
    17
 73
    13
 74
     0
 42
0.0000000001
 43
0.0000000001
 40
0.0
 40
0.0
 40
0.0
 40
0.0
 40
0.25
 40
0.25
 40
0.25
 40
0.5
 40
0.5
 40
0.5
 40
0.75
 40
0.75
 40
0.75
 40
1.0
 40
1.0
 40
1.0
 40
1.0
 10
4.87089
 20
2.71433
 30
0.0
 10
4.9249
 20
2.71433
 30
0.0
 10
4.96869
 20
2.67054
 30
0.0
 10
4.96869
 20
2.61653
 30
0.0
 10
4.96869
 20
2.56252
 30
0.0
 10
4.9249
 20
2.51873
 30
0.0
 10
4.87089
 20
2.51873
 30
0.0
 10
4.81688
 20
2.51873
 30
0.0
 10
4.77309
 20
2.56252
 30
0.0
 10
4.77309
 20
2.61653
 30
0.0
 10
4.77309
 20
2.67054
 30
0.0
 10
4.81688
 20
2.71433
 30
0.0
 10
4.87089
 20
2.71433
 30
0.0
  0
SPLINE
  5
A8
330
1F
100
AcDbEntity
  8
Layer 1
370
    18
100
AcDbSpline
210
0.0
220
0.0
230
1.0
 70
    11
 71
     3
 72
    17
 73
    13
 74
     0
 42
0.0000000001
 43
0.0000000001
 40
0.0
 40
0.0
 40
0.0
 40
0.0
 40
0.25
 40
0.25
 40
0.25
 40
0.5
 40
0.5
 40
0.5
 40
0.75
 40
0.75
 40
0.75
 40
1.0
 40
1.0
 40
1.0
 40
1.0
 10
6.14489
 20
2.71433
 30
0.0
 10
6.1989
 20
2.71433
 30
0.0
 10
6.24269
 20
2.67054
 30
0.0
 10
6.24269
 20
2.61653
 30
0.0
 10
6.24269
 20
2.56252
 30
0.0
 10
6.1989
 20
2.51873
 30
0.0
 10
6.14489
 20
2.51873
 30
0.0
 10
6.09088
 20
2.51873
 30
0.0
 10
6.04709
 20
2.56252
 30
0.0
 10
6.04709
 20
2.61653
 30
0.0
 10
6.04709
 20
2.67054
 30
0.0
 10
6.09088
 20
2.71433
 30
0.0
 10
6.14489
 20
2.71433
 30
0.0
  0
SPLINE
  5
A9
330
1F
100
AcDbEntity
  8
Layer 1
370
    18
100
AcDbSpline
210
0.0
220
0.0
230
1.0
 70
    11
 71
     3
 72
    17
 73
    13
 74
     0
 42
0.0000000001
 43
0.0000000001
 40
0.0
 40
0.0
 40
0.0
 40
0.0
 40
0.25
 40
0.25
 40
0.25
 40
0.5
 40
0.5
 40
0.5
 40
0.75
 40
0.75
 40
0.75
 40
1.0
 40
1.0
 40
1.0
 40
1.0
 10
7.55644
 20
2.71433
 30
0.0
 10
7.61045
 20
2.71433
 30
0.0
 10
7.65424
 20
2.67054
 30
0.0
 10
7.65424
 20
2.61653
 30
0.0
 10
7.65424
 20
2.56252
 30
0.0
 10
7.61045
 20
2.51873
 30
0.0
 10
7.55644
 20
2.51873
 30
0.0
 10
7.50243
 20
2.51873
 30
0.0
 10
7.45864
 20
2.56252
 30
0.0
 10
7.45864
 20
2.61653
 30
0.0
 10
7.45864
 20
2.67054
 30
0.0
 10
7.50243
 20
2.71433
 30
0.0
 10
7.55644
 20
2.71433
 30
0.0
  0
SPLINE
  5
AA
330
1F
100
AcDbEntity
  8
Layer 1
370
    18
100
AcDbSpline
210
0.0
220
0.0
230
1.0
 70
    11
 71
     3
 72
    17
 73
    13
 74
     0
 42
0.0000000001
 43
0.0000000001
 40
0.0
 40
0.0
 40
0.0
 40
0.0
 40
0.25
 40
0.25
 40
0.25
 40
0.5
 40
0.5
 40
0.5
 40
0.75
 40
0.75
 40
0.75
 40
1.0
 40
1.0
 40
1.0
 40
1.0
 10
-5.21287
 20
1.38962
 30
0.0
 10
-5.15886
 20
1.38962
 30
0.0
 10
-5.11507
 20
1.34583
 30
0.0
 10
-5.11507
 20
1.29182
 30
0.0
 10
-5.11507
 20
1.23781
 30
0.0
 10
-5.15886
 20
1.19402
 30
0.0
 10
-5.21287
 20
1.19402
 30
0.0
 10
-5.26688
 20
1.19402
 30
0.0
 10
-5.31067
 20
1.23781
 30
0.0
 10
-5.31067
 20
1.29182
 30
0.0
 10
-5.31067
 20
1.34583
 30
0.0
 10
-5.26688
 20
1.38962
 30
0.0
 10
-5.21287
 20
1.38962
 30
0.0
  0
SPLINE
  5
AB
330
1F
100
AcDbEntity
  8
Layer 1
370
    18
100
AcDbSpline
210
0.0
220
0.0
230
1.0
 70
    11
 71
     3
 72
    17
 73
    13
 74
     0
 42
0.0000000001
 43
0.0000000001
 40
0.0
 40
0.0
 40
0.0
 40
0.0
 40
0.25
 40
0.25
 40
0.25
 40
0.5
 40
0.5
 40
0.5
 40
0.75
 40
0.75
 40
0.75
 40
1.0
 40
1.0
 40
1.0
 40
1.0
 10
-3.94967
 20
1.38962
 30
0.0
 10
-3.89566
 20
1.38962
 30
0.0
 10
-3.85187
 20
1.34583
 30
0.0
 10
-3.85187
 20
1.29182
 30
0.0
 10
-3.85187
 20
1.23781
 30
0.0
 10
-3.89566
 20
1.19402
 30
0.0
 10
-3.94967
 20
1.19402
 30
0.0
 10
-4.00368
 20
1.19402
 30
0.0
 10
-4.04747
 20
1.23781
 30
0.0
 10
-4.04747
 20
1.29182
 30
0.0
 10
-4.04747
 20
1.34583
 30
0.0
 10
-4.00368
 20
1.38962
 30
0.0
 10
-3.94967
 20
1.38962
 30
0.0
  0
SPLINE
  5
AC
330
1F
100
AcDbEntity
  8
Layer 1
370
    18
100
AcDbSpline
210
0.0
220
0.0
230
1.0
 70
    11
 71
     3
 72
    17
 73
    13
 74
     0
 42
0.0000000001
 43
0.0000000001
 40
0.0
 40
0.0
 40
0.0
 40
0.0
 40
0.25
 40
0.25
 40
0.25
 40
0.5
 40
0.5
 40
0.5
 40
0.75
 40
0.75
 40
0.75
 40
1.0
 40
1.0
 40
1.0
 40
1.0
 10
-2.70805
 20
1.38962
 30
0.0
 10
-2.65404
 20
1.38962
 30
0.0
 10
-2.61025
 20
1.34583
 30
0.0
 10
-2.61025
 20
1.29182
 30
0.0
 10
-2.61025
 20
1.23781
 30
0.0
 10
-2.65404
 20
1.19402
 30
0.0
 10
-2.70805
 20
1.19402
 30
0.0
 10
-2.76206
 20
1.19402
 30
0.0
 10
-2.80585
 20
1.23781
 30
0.0
 10
-2.80585
 20
1.29182
 30
0.0
 10
-2.80585
 20
1.34583
 30
0.0
 10
-2.76206
 20
1.38962
 30
0.0
 10
-2.70805
 20
1.38962
 30
0.0
  0
SPLINE
  5
AD
330
1F
100
AcDbEntity
  8
Layer 1
370
    18
100
AcDbSpline
210
0.0
220
0.0
230
1.0
 70
    11
 71
     3
 72
    17
 73
    13
 74
     0
 42
0.0000000001
 43
0.0000000001
 40
0.0
 40
0.0
 40
0.0
 40
0.0
 40
0.25
 40
0.25
 40
0.25
 40
0.5
 40
0.5
 40
0.5
 40
0.75
 40
0.75
 40
0.75
 40
1.0
 40
1.0
 40
1.0
 40
1.0
 10
-1.43405
 20
1.38962
 30
0.0
 10
-1.38004
 20
1.38962
 30
0.0
 10
-1.33625
 20
1.34583
 30
0.0
 10
-1.33625
 20
1.29182
 30
0.0
 10
-1.33625
 20
1.23781
 30
0.0
 10
-1.38004
 20
1.19402
 30
0.0
 10
-1.43405
 20
1.19402
 30
0.0
 10
-1.48806
 20
1.19402
 30
0.0
 10
-1.53185
 20
1.23781
 30
0.0
 10
-1.53185
 20
1.29182
 30
0.0
 10
-1.53185
 20
1.34583
 30
0.0
 10
-1.48806
 20
1.38962
 30
0.0
 10
-1.43405
 20
1.38962
 30
0.0
  0
SPLINE
  5
AE
330
1F
100
AcDbEntity
  8
Layer 1
370
    18
100
AcDbSpline
210
0.0
220
0.0
230
1.0
 70
    11
 71
     3
 72
    17
 73
    13
 74
     0
 42
0.0000000001
 43
0.0000000001
 40
0.0
 40
0.0
 40
0.0
 40
0.0
 40
0.25
 40
0.25
 40
0.25
 40
0.5
 40
0.5
 40
0.5
 40
0.75
 40
0.75
 40
0.75
 40
1.0
 40
1.0
 40
1.0
 40
1.0
 10
-0.18164
 20
1.38962
 30
0.0
 10
-0.12763
 20
1.38962
 30
0.0
 10
-0.08384
 20
1.34583
 30
0.0
 10
-0.08384
 20
1.29182
 30
0.0
 10
-0.08384
 20
1.23781
 30
0.0
 10
-0.12763
 20
1.19402
 30
0.0
 10
-0.18164
 20
1.19402
 30
0.0
 10
-0.23565
 20
1.19402
 30
0.0
 10
-0.27944
 20
1.23781
 30
0.0
 10
-0.27944
 20
1.29182
 30
0.0
 10
-0.27944
 20
1.34583
 30
0.0
 10
-0.23565
 20
1.38962
 30
0.0
 10
-0.18164
 20
1.38962
 30
0.0
  0
SPLINE
  5
AF
330
1F
100
AcDbEntity
  8
Layer 1
370
    18
100
AcDbSpline
210
0.0
220
0.0
230
1.0
 70
    11
 71
     3
 72
    17
 73
    13
 74
     0
 42
0.0000000001
 43
0.0000000001
 40
0.0
 40
0.0
 40
0.0
 40
0.0
 40
0.25
 40
0.25
 40
0.25
 40
0.5
 40
0.5
 40
0.5
 40
0.75
 40
0.75
 40
0.75
 40
1.0
 40
1.0
 40
1.0
 40
1.0
 10
1.12133
 20
1.38962
 30
0.0
 10
1.17534
 20
1.38962
 30
0.0
 10
1.21913
 20
1.34583
 30
0.0
 10
1.21913
 20
1.29182
 30
0.0
 10
1.21913
 20
1.23781
 30
0.0
 10
1.17534
 20
1.19402
 30
0.0
 10
1.12133
 20
1.19402
 30
0.0
 10
1.06732
 20
1.19402
 30
0.0
 10
1.02353
 20
1.23781
 30
0.0
 10
1.02353
 20
1.29182
 30
0.0
 10
1.02353
 20
1.34583
 30
0.0
 10
1.06732
 20
1.38962
 30
0.0
 10
1.12133
 20
1.38962
 30
0.0
  0
SPLINE
  5
B0
330
1F
100
AcDbEntity
  8
Layer 1
370
    18
100
AcDbSpline
210
0.0
220
0.0
230
1.0
 70
    11
 71
     3
 72
    17
 73
    13
 74
     0
 42
0.0000000001
 43
0.0000000001
 40
0.0
 40
0.0
 40
0.0
 40
0.0
 40
0.25
 40
0.25
 40
0.25
 40
0.5
 40
0.5
 40
0.5
 40
0.75
 40
0.75
 40
0.75
 40
1.0
 40
1.0
 40
1.0
 40
1.0
 10
2.40951
 20
1.38962
 30
0.0
 10
2.46352
 20
1.38962
 30
0.0
 10
2.50731
 20
1.34583
 30
0.0
 10
2.50731
 20
1.29182
 30
0.0
 10
2.50731
 20
1.23781
 30
0.0
 10
2.46352
 20
1.19402
 30
0.0
 10
2.40951
 20
1.19402
 30
0.0
 10
2.3555
 20
1.19402
 30
0.0
 10
2.31171
 20
1.23781
 30
0.0
 10
2.31171
 20
1.29182
 30
0.0
 10
2.31171
 20
1.34583
 30
0.0
 10
2.3555
 20
1.38962
 30
0.0
 10
2.40951
 20
1.38962
 30
0.0
  0
SPLINE
  5
B1
330
1F
100
AcDbEntity
  8
Layer 1
370
    18
100
AcDbSpline
210
0.0
220
0.0
230
1.0
 70
    11
 71
     3
 72
    17
 73
    13
 74
     0
 42
0.0000000001
 43
0.0000000001
 40
0.0
 40
0.0
 40
0.0
 40
0.0
 40
0.25
 40
0.25
 40
0.25
 40
0.5
 40
0.5
 40
0.5
 40
0.75
 40
0.75
 40
0.75
 40
1.0
 40
1.0
 40
1.0
 40
1.0
 10
3.67271
 20
1.38962
 30
0.0
 10
3.72672
 20
1.38962
 30
0.0
 10
3.77051
 20
1.34583
 30
0.0
 10
3.77051
 20
1.29182
 30
0.0
 10
3.77051
 20
1.23781
 30
0.0
 10
3.72672
 20
1.19402
 30
0.0
 10
3.67271
 20
1.19402
 30
0.0
 10
3.6187
 20
1.19402
 30
0.0
 10
3.57491
 20
1.23781
 30
0.0
 10
3.57491
 20
1.29182
 30
0.0
 10
3.57491
 20
1.34583
 30
0.0
 10
3.6187
 20
1.38962
 30
0.0
 10
3.67271
 20
1.38962
 30
0.0
  0
SPLINE
  5
B2
330
1F
100
AcDbEntity
  8
Layer 1
370
    18
100
AcDbSpline
210
0.0
220
0.0
230
1.0
 70
    11
 71
     3
 72
    17
 73
    13
 74
     0
 42
0.0000000001
 43
0.0000000001
 40
0.0
 40
0.0
 40
0.0
 40
0.0
 40
0.25
 40
0.25
 40
0.25
 40
0.5
 40
0.5
 40
0.5
 40
0.75
 40
0.75
 40
0.75
 40
1.0
 40
1.0
 40
1.0
 40
1.0
 10
4.91433
 20
1.38962
 30
0.0
 10
4.96834
 20
1.38962
 30
0.0
 10
5.01213
 20
1.34583
 30
0.0
 10
5.01213
 20
1.29182
 30
0.0
 10
5.01213
 20
1.23781
 30
0.0
 10
4.96834
 20
1.19402
 30
0.0
 10
4.91433
 20
1.19402
 30
0.0
 10
4.86032
 20
1.19402
 30
0.0
 10
4.81653
 20
1.23781
 30
0.0
 10
4.81653
 20
1.29182
 30
0.0
 10
4.81653
 20
1.34583
 30
0.0
 10
4.86032
 20
1.38962
 30
0.0
 10
4.91433
 20
1.38962
 30
0.0
  0
SPLINE
  5
B3
330
1F
100
AcDbEntity
  8
Layer 1
370
    18
100
AcDbSpline
210
0.0
220
0.0
230
1.0
 70
    11
 71
     3
 72
    17
 73
    13
 74
     0
 42
0.0000000001
 43
0.0000000001
 40
0.0
 40
0.0
 40
0.0
 40
0.0
 40
0.25
 40
0.25
 40
0.25
 40
0.5
 40
0.5
 40
0.5
 40
0.75
 40
0.75
 40
0.75
 40
1.0
 40
1.0
 40
1.0
 40
1.0
 10
6.18833
 20
1.38962
 30
0.0
 10
6.24234
 20
1.38962
 30
0.0
 10
6.28613
 20
1.34583
 30
0.0
 10
6.28613
 20
1.29182
 30
0.0
 10
6.28613
 20
1.23781
 30
0.0
 10
6.24234
 20
1.19402
 30
0.0
 10
6.18833
 20
1.19402
 30
0.0
 10
6.13432
 20
1.19402
 30
0.0
 10
6.09053
 20
1.23781
 30
0.0
 10
6.09053
 20
1.29182
 30
0.0
 10
6.09053
 20
1.34583
 30
0.0
 10
6.13432
 20
1.38962
 30
0.0
 10
6.18833
 20
1.38962
 30
0.0
  0
SPLINE
  5
B4
330
1F
100
AcDbEntity
  8
Layer 1
370
    18
100
AcDbSpline
210
0.0
220
0.0
230
1.0
 70
    11
 71
     3
 72
    17
 73
    13
 74
     0
 42
0.0000000001
 43
0.0000000001
 40
0.0
 40
0.0
 40
0.0
 40
0.0
 40
0.25
 40
0.25
 40
0.25
 40
0.5
 40
0.5
 40
0.5
 40
0.75
 40
0.75
 40
0.75
 40
1.0
 40
1.0
 40
1.0
 40
1.0
 10
7.59988
 20
1.38962
 30
0.0
 10
7.65389
 20
1.38962
 30
0.0
 10
7.69768
 20
1.34583
 30
0.0
 10
7.69768
 20
1.29182
 30
0.0
 10
7.69768
 20
1.23781
 30
0.0
 10
7.65389
 20
1.19402
 30
0.0
 10
7.59988
 20
1.19402
 30
0.0
 10
7.54587
 20
1.19402
 30
0.0
 10
7.50208
 20
1.23781
 30
0.0
 10
7.50208
 20
1.29182
 30
0.0
 10
7.50208
 20
1.34583
 30
0.0
 10
7.54587
 20
1.38962
 30
0.0
 10
7.59988
 20
1.38962
 30
0.0
  0
SPLINE
  5
B5
330
1F
100
AcDbEntity
  8
Layer 1
370
    18
100
AcDbSpline
210
0.0
220
0.0
230
1.0
 70
    11
 71
     3
 72
    17
 73
    13
 74
     0
 42
0.0000000001
 43
0.0000000001
 40
0.0
 40
0.0
 40
0.0
 40
0.0
 40
0.25
 40
0.25
 40
0.25
 40
0.5
 40
0.5
 40
0.5
 40
0.75
 40
0.75
 40
0.75
 40
1.0
 40
1.0
 40
1.0
 40
1.0
 10
-5.14772
 20
0.17349
 30
0.0
 10
-5.09371
 20
0.17349
 30
0.0
 10
-5.04992
 20
0.1297
 30
0.0
 10
-5.04992
 20
0.07569
 30
0.0
 10
-5.04992
 20
0.02168
 30
0.0
 10
-5.09371
 20
-0.02211
 30
0.0
 10
-5.14772
 20
-0.02211
 30
0.0
 10
-5.20173
 20
-0.02211
 30
0.0
 10
-5.24552
 20
0.02168
 30
0.0
 10
-5.24552
 20
0.07569
 30
0.0
 10
-5.24552
 20
0.1297
 30
0.0
 10
-5.20173
 20
0.17349
 30
0.0
 10
-5.14772
 20
0.17349
 30
0.0
  0
SPLINE
  5
B6
330
1F
100
AcDbEntity
  8
Layer 1
370
    18
100
AcDbSpline
210
0.0
220
0.0
230
1.0
 70
    11
 71
     3
 72
    17
 73
    13
 74
     0
 42
0.0000000001
 43
0.0000000001
 40
0.0
 40
0.0
 40
0.0
 40
0.0
 40
0.25
 40
0.25
 40
0.25
 40
0.5
 40
0.5
 40
0.5
 40
0.75
 40
0.75
 40
0.75
 40
1.0
 40
1.0
 40
1.0
 40
1.0
 10
-3.88452
 20
0.17349
 30
0.0
 10
-3.83051
 20
0.17349
 30
0.0
 10
-3.78672
 20
0.1297
 30
0.0
 10
-3.78672
 20
0.07569
 30
0.0
 10
-3.78672
 20
0.02168
 30
0.0
 10
-3.83051
 20
-0.02211
 30
0.0
 10
-3.88452
 20
-0.02211
 30
0.0
 10
-3.93853
 20
-0.02211
 30
0.0
 10
-3.98232
 20
0.02168
 30
0.0
 10
-3.98232
 20
0.07569
 30
0.0
 10
-3.98232
 20
0.1297
 30
0.0
 10
-3.93853
 20
0.17349
 30
0.0
 10
-3.88452
 20
0.17349
 30
0.0
  0
SPLINE
  5
B7
330
1F
100
AcDbEntity
  8
Layer 1
370
    18
100
AcDbSpline
210
0.0
220
0.0
230
1.0
 70
    11
 71
     3
 72
    17
 73
    13
 74
     0
 42
0.0000000001
 43
0.0000000001
 40
0.0
 40
0.0
 40
0.0
 40
0.0
 40
0.25
 40
0.25
 40
0.25
 40
0.5
 40
0.5
 40
0.5
 40
0.75
 40
0.75
 40
0.75
 40
1.0
 40
1.0
 40
1.0
 40
1.0
 10
-2.6429
 20
0.17349
 30
0.0
 10
-2.58889
 20
0.17349
 30
0.0
 10
-2.5451
 20
0.1297
 30
0.0
 10
-2.5451
 20
0.07569
 30
0.0
 10
-2.5451
 20
0.02168
 30
0.0
 10
-2.58889
 20
-0.02211
 30
0.0
 10
-2.6429
 20
-0.02211
 30
0.0
 10
-2.69691
 20
-0.02211
 30
0.0
 10
-2.7407
 20
0.02168
 30
0.0
 10
-2.7407
 20
0.07569
 30
0.0
 10
-2.7407
 20
0.1297
 30
0.0
 10
-2.69691
 20
0.17349
 30
0.0
 10
-2.6429
 20
0.17349
 30
0.0
  0
SPLINE
  5
B8
330
1F
100
AcDbEntity
  8
Layer 1
370
    18
100
AcDbSpline
210
0.0
220
0.0
230
1.0
 70
    11
 71
     3
 72
    17
 73
    13
 74
     0
 42
0.0000000001
 43
0.0000000001
 40
0.0
 40
0.0
 40
0.0
 40
0.0
 40
0.25
 40
0.25
 40
0.25
 40
0.5
 40
0.5
 40
0.5
 40
0.75
 40
0.75
 40
0.75
 40
1.0
 40
1.0
 40
1.0
 40
1.0
 10
-1.3689
 20
0.17349
 30
0.0
 10
-1.31489
 20
0.17349
 30
0.0
 10
-1.2711
 20
0.1297
 30
0.0
 10
-1.2711
 20
0.07569
 30
0.0
 10
-1.2711
 20
0.02168
 30
0.0
 10
-1.31489
 20
-0.02211
 30
0.0
 10
-1.3689
 20
-0.02211
 30
0.0
 10
-1.42291
 20
-0.02211
 30
0.0
 10
-1.4667
 20
0.02168
 30
0.0
 10
-1.4667
 20
0.07569
 30
0.0
 10
-1.4667
 20
0.1297
 30
0.0
 10
-1.42291
 20
0.17349
 30
0.0
 10
-1.3689
 20
0.17349
 30
0.0
  0
SPLINE
  5
B9
330
1F
100
AcDbEntity
  8
Layer 1
370
    18
100
AcDbSpline
210
0.0
220
0.0
230
1.0
 70
    11
 71
     3
 72
    17
 73
    13
 74
     0
 42
0.0000000001
 43
0.0000000001
 40
0.0
 40
0.0
 40
0.0
 40
0.0
 40
0.25
 40
0.25
 40
0.25
 40
0.5
 40
0.5
 40
0.5
 40
0.75
 40
0.75
 40
0.75
 40
1.0
 40
1.0
 40
1.0
 40
1.0
 10
-0.11649
 20
0.17349
 30
0.0
 10
-0.06248
 20
0.17349
 30
0.0
 10
-0.01869
 20
0.1297
 30
0.0
 10
-0.01869
 20
0.07569
 30
0.0
 10
-0.01869
 20
0.02168
 30
0.0
 10
-0.06248
 20
-0.02211
 30
0.0
 10
-0.11649
 20
-0.02211
 30
0.0
 10
-0.1705
 20
-0.02211
 30
0.0
 10
-0.21429
 20
0.02168
 30
0.0
 10
-0.21429
 20
0.07569
 30
0.0
 10
-0.21429
 20
0.1297
 30
0.0
 10
-0.1705
 20
0.17349
 30
0.0
 10
-0.11649
 20
0.17349
 30
0.0
  0
SPLINE
  5
BA
330
1F
100
AcDbEntity
  8
Layer 1
370
    18
100
AcDbSpline
210
0.0
220
0.0
230
1.0
 70
    11
 71
     3
 72
    17
 73
    13
 74
     0
 42
0.0000000001
 43
0.0000000001
 40
0.0
 40
0.0
 40
0.0
 40
0.0
 40
0.25
 40
0.25
 40
0.25
 40
0.5
 40
0.5
 40
0.5
 40
0.75
 40
0.75
 40
0.75
 40
1.0
 40
1.0
 40
1.0
 40
1.0
 10
1.18648
 20
0.17349
 30
0.0
 10
1.24049
 20
0.17349
 30
0.0
 10
1.28428
 20
0.1297
 30
0.0
 10
1.28428
 20
0.07569
 30
0.0
 10
1.28428
 20
0.02168
 30
0.0
 10
1.24049
 20
-0.02211
 30
0.0
 10
1.18648
 20
-0.02211
 30
0.0
 10
1.13247
 20
-0.02211
 30
0.0
 10
1.08868
 20
0.02168
 30
0.0
 10
1.08868
 20
0.07569
 30
0.0
 10
1.08868
 20
0.1297
 30
0.0
 10
1.13247
 20
0.17349
 30
0.0
 10
1.18648
 20
0.17349
 30
0.0
  0
SPLINE
  5
BB
330
1F
100
AcDbEntity
  8
Layer 1
370
    18
100
AcDbSpline
210
0.0
220
0.0
230
1.0
 70
    11
 71
     3
 72
    17
 73
    13
 74
     0
 42
0.0000000001
 43
0.0000000001
 40
0.0
 40
0.0
 40
0.0
 40
0.0
 40
0.25
 40
0.25
 40
0.25
 40
0.5
 40
0.5
 40
0.5
 40
0.75
 40
0.75
 40
0.75
 40
1.0
 40
1.0
 40
1.0
 40
1.0
 10
2.47466
 20
0.17349
 30
0.0
 10
2.52867
 20
0.17349
 30
0.0
 10
2.57246
 20
0.1297
 30
0.0
 10
2.57246
 20
0.07569
 30
0.0
 10
2.57246
 20
0.02168
 30
0.0
 10
2.52867
 20
-0.02211
 30
0.0
 10
2.47466
 20
-0.02211
 30
0.0
 10
2.42065
 20
-0.02211
 30
0.0
 10
2.37686
 20
0.02168
 30
0.0
 10
2.37686
 20
0.07569
 30
0.0
 10
2.37686
 20
0.1297
 30
0.0
 10
2.42065
 20
0.17349
 30
0.0
 10
2.47466
 20
0.17349
 30
0.0
  0
SPLINE
  5
BC
330
1F
100
AcDbEntity
  8
Layer 1
370
    18
100
AcDbSpline
210
0.0
220
0.0
230
1.0
 70
    11
 71
     3
 72
    17
 73
    13
 74
     0
 42
0.0000000001
 43
0.0000000001
 40
0.0
 40
0.0
 40
0.0
 40
0.0
 40
0.25
 40
0.25
 40
0.25
 40
0.5
 40
0.5
 40
0.5
 40
0.75
 40
0.75
 40
0.75
 40
1.0
 40
1.0
 40
1.0
 40
1.0
 10
3.73786
 20
0.17349
 30
0.0
 10
3.79187
 20
0.17349
 30
0.0
 10
3.83566
 20
0.1297
 30
0.0
 10
3.83566
 20
0.07569
 30
0.0
 10
3.83566
 20
0.02168
 30
0.0
 10
3.79187
 20
-0.02211
 30
0.0
 10
3.73786
 20
-0.02211
 30
0.0
 10
3.68385
 20
-0.02211
 30
0.0
 10
3.64006
 20
0.02168
 30
0.0
 10
3.64006
 20
0.07569
 30
0.0
 10
3.64006
 20
0.1297
 30
0.0
 10
3.68385
 20
0.17349
 30
0.0
 10
3.73786
 20
0.17349
 30
0.0
  0
SPLINE
  5
BD
330
1F
100
AcDbEntity
  8
Layer 1
370
    18
100
AcDbSpline
210
0.0
220
0.0
230
1.0
 70
    11
 71
     3
 72
    17
 73
    13
 74
     0
 42
0.0000000001
 43
0.0000000001
 40
0.0
 40
0.0
 40
0.0
 40
0.0
 40
0.25
 40
0.25
 40
0.25
 40
0.5
 40
0.5
 40
0.5
 40
0.75
 40
0.75
 40
0.75
 40
1.0
 40
1.0
 40
1.0
 40
1.0
 10
4.97948
 20
0.17349
 30
0.0
 10
5.03349
 20
0.17349
 30
0.0
 10
5.07728
 20
0.1297
 30
0.0
 10
5.07728
 20
0.07569
 30
0.0
 10
5.07728
 20
0.02168
 30
0.0
 10
5.03349
 20
-0.02211
 30
0.0
 10
4.97948
 20
-0.02211
 30
0.0
 10
4.92547
 20
-0.02211
 30
0.0
 10
4.88168
 20
0.02168
 30
0.0
 10
4.88168
 20
0.07569
 30
0.0
 10
4.88168
 20
0.1297
 30
0.0
 10
4.92547
 20
0.17349
 30
0.0
 10
4.97948
 20
0.17349
 30
0.0
  0
SPLINE
  5
BE
330
1F
100
AcDbEntity
  8
Layer 1
370
    18
100
AcDbSpline
210
0.0
220
0.0
230
1.0
 70
    11
 71
     3
 72
    17
 73
    13
 74
     0
 42
0.0000000001
 43
0.0000000001
 40
0.0
 40
0.0
 40
0.0
 40
0.0
 40
0.25
 40
0.25
 40
0.25
 40
0.5
 40
0.5
 40
0.5
 40
0.75
 40
0.75
 40
0.75
 40
1.0
 40
1.0
 40
1.0
 40
1.0
 10
6.25348
 20
0.17349
 30
0.0
 10
6.30749
 20
0.17349
 30
0.0
 10
6.35128
 20
0.1297
 30
0.0
 10
6.35128
 20
0.07569
 30
0.0
 10
6.35128
 20
0.02168
 30
0.0
 10
6.30749
 20
-0.02211
 30
0.0
 10
6.25348
 20
-0.02211
 30
0.0
 10
6.19947
 20
-0.02211
 30
0.0
 10
6.15568
 20
0.02168
 30
0.0
 10
6.15568
 20
0.07569
 30
0.0
 10
6.15568
 20
0.1297
 30
0.0
 10
6.19947
 20
0.17349
 30
0.0
 10
6.25348
 20
0.17349
 30
0.0
  0
SPLINE
  5
BF
330
1F
100
AcDbEntity
  8
Layer 1
370
    18
100
AcDbSpline
210
0.0
220
0.0
230
1.0
 70
    11
 71
     3
 72
    17
 73
    13
 74
     0
 42
0.0000000001
 43
0.0000000001
 40
0.0
 40
0.0
 40
0.0
 40
0.0
 40
0.25
 40
0.25
 40
0.25
 40
0.5
 40
0.5
 40
0.5
 40
0.75
 40
0.75
 40
0.75
 40
1.0
 40
1.0
 40
1.0
 40
1.0
 10
7.66503
 20
0.17349
 30
0.0
 10
7.71904
 20
0.17349
 30
0.0
 10
7.76283
 20
0.1297
 30
0.0
 10
7.76283
 20
0.07569
 30
0.0
 10
7.76283
 20
0.02168
 30
0.0
 10
7.71904
 20
-0.02211
 30
0.0
 10
7.66503
 20
-0.02211
 30
0.0
 10
7.61102
 20
-0.02211
 30
0.0
 10
7.56723
 20
0.02168
 30
0.0
 10
7.56723
 20
0.07569
 30
0.0
 10
7.56723
 20
0.1297
 30
0.0
 10
7.61102
 20
0.17349
 30
0.0
 10
7.66503
 20
0.17349
 30
0.0
  0
SPLINE
  5
C0
330
1F
100
AcDbEntity
  8
Layer 1
370
    18
100
AcDbSpline
210
0.0
220
0.0
230
1.0
 70
    11
 71
     3
 72
    17
 73
    13
 74
     0
 42
0.0000000001
 43
0.0000000001
 40
0.0
 40
0.0
 40
0.0
 40
0.0
 40
0.25
 40
0.25
 40
0.25
 40
0.5
 40
0.5
 40
0.5
 40
0.75
 40
0.75
 40
0.75
 40
1.0
 40
1.0
 40
1.0
 40
1.0
 10
-5.06086
 20
-1.04264
 30
0.0
 10
-5.00685
 20
-1.04264
 30
0.0
 10
-4.96306
 20
-1.08643
 30
0.0
 10
-4.96306
 20
-1.14044
 30
0.0
 10
-4.96306
 20
-1.19445
 30
0.0
 10
-5.00685
 20
-1.23824
 30
0.0
 10
-5.06086
 20
-1.23824
 30
0.0
 10
-5.11487
 20
-1.23824
 30
0.0
 10
-5.15866
 20
-1.19445
 30
0.0
 10
-5.15866
 20
-1.14044
 30
0.0
 10
-5.15866
 20
-1.08643
 30
0.0
 10
-5.11487
 20
-1.04264
 30
0.0
 10
-5.06086
 20
-1.04264
 30
0.0
  0
SPLINE
  5
C1
330
1F
100
AcDbEntity
  8
Layer 1
370
    18
100
AcDbSpline
210
0.0
220
0.0
230
1.0
 70
    11
 71
     3
 72
    17
 73
    13
 74
     0
 42
0.0000000001
 43
0.0000000001
 40
0.0
 40
0.0
 40
0.0
 40
0.0
 40
0.25
 40
0.25
 40
0.25
 40
0.5
 40
0.5
 40
0.5
 40
0.75
 40
0.75
 40
0.75
 40
1.0
 40
1.0
 40
1.0
 40
1.0
 10
-3.79766
 20
-1.04264
 30
0.0
 10
-3.74365
 20
-1.04264
 30
0.0
 10
-3.69986
 20
-1.08643
 30
0.0
 10
-3.69986
 20
-1.14044
 30
0.0
 10
-3.69986
 20
-1.19445
 30
0.0
 10
-3.74365
 20
-1.23824
 30
0.0
 10
-3.79766
 20
-1.23824
 30
0.0
 10
-3.85167
 20
-1.23824
 30
0.0
 10
-3.89546
 20
-1.19445
 30
0.0
 10
-3.89546
 20
-1.14044
 30
0.0
 10
-3.89546
 20
-1.08643
 30
0.0
 10
-3.85167
 20
-1.04264
 30
0.0
 10
-3.79766
 20
-1.04264
 30
0.0
  0
SPLINE
  5
C2
330
1F
100
AcDbEntity
  8
Layer 1
370
    18
100
AcDbSpline
210
0.0
220
0.0
230
1.0
 70
    11
 71
     3
 72
    17
 73
    13
 74
     0
 42
0.0000000001
 43
0.0000000001
 40
0.0
 40
0.0
 40
0.0
 40
0.0
 40
0.25
 40
0.25
 40
0.25
 40
0.5
 40
0.5
 40
0.5
 40
0.75
 40
0.75
 40
0.75
 40
1.0
 40
1.0
 40
1.0
 40
1.0
 10
-2.55604
 20
-1.04264
 30
0.0
 10
-2.50203
 20
-1.04264
 30
0.0
 10
-2.45824
 20
-1.08643
 30
0.0
 10
-2.45824
 20
-1.14044
 30
0.0
 10
-2.45824
 20
-1.19445
 30
0.0
 10
-2.50203
 20
-1.23824
 30
0.0
 10
-2.55604
 20
-1.23824
 30
0.0
 10
-2.61005
 20
-1.23824
 30
0.0
 10
-2.65384
 20
-1.19445
 30
0.0
 10
-2.65384
 20
-1.14044
 30
0.0
 10
-2.65384
 20
-1.08643
 30
0.0
 10
-2.61005
 20
-1.04264
 30
0.0
 10
-2.55604
 20
-1.04264
 30
0.0
  0
SPLINE
  5
C3
330
1F
100
AcDbEntity
  8
Layer 1
370
    18
100
AcDbSpline
210
0.0
220
0.0
230
1.0
 70
    11
 71
     3
 72
    17
 73
    13
 74
     0
 42
0.0000000001
 43
0.0000000001
 40
0.0
 40
0.0
 40
0.0
 40
0.0
 40
0.25
 40
0.25
 40
0.25
 40
0.5
 40
0.5
 40
0.5
 40
0.75
 40
0.75
 40
0.75
 40
1.0
 40
1.0
 40
1.0
 40
1.0
 10
-1.28204
 20
-1.04264
 30
0.0
 10
-1.22803
 20
-1.04264
 30
0.0
 10
-1.18424
 20
-1.08643
 30
0.0
 10
-1.18424
 20
-1.14044
 30
0.0
 10
-1.18424
 20
-1.19445
 30
0.0
 10
-1.22803
 20
-1.23824
 30
0.0
 10
-1.28204
 20
-1.23824
 30
0.0
 10
-1.33605
 20
-1.23824
 30
0.0
 10
-1.37984
 20
-1.19445
 30
0.0
 10
-1.37984
 20
-1.14044
 30
0.0
 10
-1.37984
 20
-1.08643
 30
0.0
 10
-1.33605
 20
-1.04264
 30
0.0
 10
-1.28204
 20
-1.04264
 30
0.0
  0
SPLINE
  5
C4
330
1F
100
AcDbEntity
  8
Layer 1
370
    18
100
AcDbSpline
210
0.0
220
0.0
230
1.0
 70
    11
 71
     3
 72
    17
 73
    13
 74
     0
 42
0.0000000001
 43
0.0000000001
 40
0.0
 40
0.0
 40
0.0
 40
0.0
 40
0.25
 40
0.25
 40
0.25
 40
0.5
 40
0.5
 40
0.5
 40
0.75
 40
0.75
 40
0.75
 40
1.0
 40
1.0
 40
1.0
 40
1.0
 10
-0.02963
 20
-1.04264
 30
0.0
 10
0.02438
 20
-1.04264
 30
0.0
 10
0.06817
 20
-1.08643
 30
0.0
 10
0.06817
 20
-1.14044
 30
0.0
 10
0.06817
 20
-1.19445
 30
0.0
 10
0.02438
 20
-1.23824
 30
0.0
 10
-0.02963
 20
-1.23824
 30
0.0
 10
-0.08364
 20
-1.23824
 30
0.0
 10
-0.12743
 20
-1.19445
 30
0.0
 10
-0.12743
 20
-1.14044
 30
0.0
 10
-0.12743
 20
-1.08643
 30
0.0
 10
-0.08364
 20
-1.04264
 30
0.0
 10
-0.02963
 20
-1.04264
 30
0.0
  0
SPLINE
  5
C5
330
1F
100
AcDbEntity
  8
Layer 1
370
    18
100
AcDbSpline
210
0.0
220
0.0
230
1.0
 70
    11
 71
     3
 72
    17
 73
    13
 74
     0
 42
0.0000000001
 43
0.0000000001
 40
0.0
 40
0.0
 40
0.0
 40
0.0
 40
0.25
 40
0.25
 40
0.25
 40
0.5
 40
0.5
 40
0.5
 40
0.75
 40
0.75
 40
0.75
 40
1.0
 40
1.0
 40
1.0
 40
1.0
 10
1.27334
 20
-1.04264
 30
0.0
 10
1.32735
 20
-1.04264
 30
0.0
 10
1.37114
 20
-1.08643
 30
0.0
 10
1.37114
 20
-1.14044
 30
0.0
 10
1.37114
 20
-1.19445
 30
0.0
 10
1.32735
 20
-1.23824
 30
0.0
 10
1.27334
 20
-1.23824
 30
0.0
 10
1.21933
 20
-1.23824
 30
0.0
 10
1.17554
 20
-1.19445
 30
0.0
 10
1.17554
 20
-1.14044
 30
0.0
 10
1.17554
 20
-1.08643
 30
0.0
 10
1.21933
 20
-1.04264
 30
0.0
 10
1.27334
 20
-1.04264
 30
0.0
  0
SPLINE
  5
C6
330
1F
100
AcDbEntity
  8
Layer 1
370
    18
100
AcDbSpline
210
0.0
220
0.0
230
1.0
 70
    11
 71
     3
 72
    17
 73
    13
 74
     0
 42
0.0000000001
 43
0.0000000001
 40
0.0
 40
0.0
 40
0.0
 40
0.0
 40
0.25
 40
0.25
 40
0.25
 40
0.5
 40
0.5
 40
0.5
 40
0.75
 40
0.75
 40
0.75
 40
1.0
 40
1.0
 40
1.0
 40
1.0
 10
2.56152
 20
-1.04264
 30
0.0
 10
2.61553
 20
-1.04264
 30
0.0
 10
2.65932
 20
-1.08643
 30
0.0
 10
2.65932
 20
-1.14044
 30
0.0
 10
2.65932
 20
-1.19445
 30
0.0
 10
2.61553
 20
-1.23824
 30
0.0
 10
2.56152
 20
-1.23824
 30
0.0
 10
2.50751
 20
-1.23824
 30
0.0
 10
2.46372
 20
-1.19445
 30
0.0
 10
2.46372
 20
-1.14044
 30
0.0
 10
2.46372
 20
-1.08643
 30
0.0
 10
2.50751
 20
-1.04264
 30
0.0
 10
2.56152
 20
-1.04264
 30
0.0
  0
SPLINE
  5
C7
330
1F
100
AcDbEntity
  8
Layer 1
370
    18
100
AcDbSpline
210
0.0
220
0.0
230
1.0
 70
    11
 71
     3
 72
    17
 73
    13
 74
     0
 42
0.0000000001
 43
0.0000000001
 40
0.0
 40
0.0
 40
0.0
 40
0.0
 40
0.25
 40
0.25
 40
0.25
 40
0.5
 40
0.5
 40
0.5
 40
0.75
 40
0.75
 40
0.75
 40
1.0
 40
1.0
 40
1.0
 40
1.0
 10
3.82472
 20
-1.04264
 30
0.0
 10
3.87873
 20
-1.04264
 30
0.0
 10
3.92252
 20
-1.08643
 30
0.0
 10
3.92252
 20
-1.14044
 30
0.0
 10
3.92252
 20
-1.19445
 30
0.0
 10
3.87873
 20
-1.23824
 30
0.0
 10
3.82472
 20
-1.23824
 30
0.0
 10
3.77071
 20
-1.23824
 30
0.0
 10
3.72692
 20
-1.19445
 30
0.0
 10
3.72692
 20
-1.14044
 30
0.0
 10
3.72692
 20
-1.08643
 30
0.0
 10
3.77071
 20
-1.04264
 30
0.0
 10
3.82472
 20
-1.04264
 30
0.0
  0
SPLINE
  5
C8
330
1F
100
AcDbEntity
  8
Layer 1
370
    18
100
AcDbSpline
210
0.0
220
0.0
230
1.0
 70
    11
 71
     3
 72
    17
 73
    13
 74
     0
 42
0.0000000001
 43
0.0000000001
 40
0.0
 40
0.0
 40
0.0
 40
0.0
 40
0.25
 40
0.25
 40
0.25
 40
0.5
 40
0.5
 40
0.5
 40
0.75
 40
0.75
 40
0.75
 40
1.0
 40
1.0
 40
1.0
 40
1.0
 10
5.06634
 20
-1.04264
 30
0.0
 10
5.12035
 20
-1.04264
 30
0.0
 10
5.16414
 20
-1.08643
 30
0.0
 10
5.16414
 20
-1.14044
 30
0.0
 10
5.16414
 20
-1.19445
 30
0.0
 10
5.12035
 20
-1.23824
 30
0.0
 10
5.06634
 20
-1.23824
 30
0.0
 10
5.01233
 20
-1.23824
 30
0.0
 10
4.96854
 20
-1.19445
 30
0.0
 10
4.96854
 20
-1.14044
 30
0.0
 10
4.96854
 20
-1.08643
 30
0.0
 10
5.01233
 20
-1.04264
 30
0.0
 10
5.06634
 20
-1.04264
 30
0.0
  0
SPLINE
  5
C9
330
1F
100
AcDbEntity
  8
Layer 1
370
    18
100
AcDbSpline
210
0.0
220
0.0
230
1.0
 70
    11
 71
     3
 72
    17
 73
    13
 74
     0
 42
0.0000000001
 43
0.0000000001
 40
0.0
 40
0.0
 40
0.0
 40
0.0
 40
0.25
 40
0.25
 40
0.25
 40
0.5
 40
0.5
 40
0.5
 40
0.75
 40
0.75
 40
0.75
 40
1.0
 40
1.0
 40
1.0
 40
1.0
 10
6.34034
 20
-1.04264
 30
0.0
 10
6.39435
 20
-1.04264
 30
0.0
 10
6.43814
 20
-1.08643
 30
0.0
 10
6.43814
 20
-1.14044
 30
0.0
 10
6.43814
 20
-1.19445
 30
0.0
 10
6.39435
 20
-1.23824
 30
0.0
 10
6.34034
 20
-1.23824
 30
0.0
 10
6.28633
 20
-1.23824
 30
0.0
 10
6.24254
 20
-1.19445
 30
0.0
 10
6.24254
 20
-1.14044
 30
0.0
 10
6.24254
 20
-1.08643
 30
0.0
 10
6.28633
 20
-1.04264
 30
0.0
 10
6.34034
 20
-1.04264
 30
0.0
  0
SPLINE
  5
CA
330
1F
100
AcDbEntity
  8
Layer 1
370
    18
100
AcDbSpline
210
0.0
220
0.0
230
1.0
 70
    11
 71
     3
 72
    17
 73
    13
 74
     0
 42
0.0000000001
 43
0.0000000001
 40
0.0
 40
0.0
 40
0.0
 40
0.0
 40
0.25
 40
0.25
 40
0.25
 40
0.5
 40
0.5
 40
0.5
 40
0.75
 40
0.75
 40
0.75
 40
1.0
 40
1.0
 40
1.0
 40
1.0
 10
7.75189
 20
-1.04264
 30
0.0
 10
7.8059
 20
-1.04264
 30
0.0
 10
7.84969
 20
-1.08643
 30
0.0
 10
7.84969
 20
-1.14044
 30
0.0
 10
7.84969
 20
-1.19445
 30
0.0
 10
7.8059
 20
-1.23824
 30
0.0
 10
7.75189
 20
-1.23824
 30
0.0
 10
7.69788
 20
-1.23824
 30
0.0
 10
7.65409
 20
-1.19445
 30
0.0
 10
7.65409
 20
-1.14044
 30
0.0
 10
7.65409
 20
-1.08643
 30
0.0
 10
7.69788
 20
-1.04264
 30
0.0
 10
7.75189
 20
-1.04264
 30
0.0
  0
SPLINE
  5
CB
330
1F
100
AcDbEntity
  8
Layer 1
370
    18
100
AcDbSpline
210
0.0
220
0.0
230
1.0
 70
    11
 71
     3
 72
    17
 73
    13
 74
     0
 42
0.0000000001
 43
0.0000000001
 40
0.0
 40
0.0
 40
0.0
 40
0.0
 40
0.25
 40
0.25
 40
0.25
 40
0.5
 40
0.5
 40
0.5
 40
0.75
 40
0.75
 40
0.75
 40
1.0
 40
1.0
 40
1.0
 40
1.0
 10
8.98972
 20
-1.04264
 30
0.0
 10
9.04373
 20
-1.04264
 30
0.0
 10
9.08752
 20
-1.08643
 30
0.0
 10
9.08752
 20
-1.14044
 30
0.0
 10
9.08752
 20
-1.19445
 30
0.0
 10
9.04373
 20
-1.23824
 30
0.0
 10
8.98972
 20
-1.23824
 30
0.0
 10
8.93571
 20
-1.23824
 30
0.0
 10
8.89192
 20
-1.19445
 30
0.0
 10
8.89192
 20
-1.14044
 30
0.0
 10
8.89192
 20
-1.08643
 30
0.0
 10
8.93571
 20
-1.04264
 30
0.0
 10
8.98972
 20
-1.04264
 30
0.0
  0
SPLINE
  5
CC
330
1F
100
AcDbEntity
  8
Layer 1
370
    18
100
AcDbSpline
210
0.0
220
0.0
230
1.0
 70
    11
 71
     3
 72
    17
 73
    13
 74
     0
 42
0.0000000001
 43
0.0000000001
 40
0.0
 40
0.0
 40
0.0
 40
0.0
 40
0.25
 40
0.25
 40
0.25
 40
0.5
 40
0.5
 40
0.5
 40
0.75
 40
0.75
 40
0.75
 40
1.0
 40
1.0
 40
1.0
 40
1.0
 10
-3.92781
 20
-2.47127
 30
0.0
 10
-3.8738
 20
-2.47127
 30
0.0
 10
-3.83001
 20
-2.51506
 30
0.0
 10
-3.83001
 20
-2.56907
 30
0.0
 10
-3.83001
 20
-2.62308
 30
0.0
 10
-3.8738
 20
-2.66687
 30
0.0
 10
-3.92781
 20
-2.66687
 30
0.0
 10
-3.98182
 20
-2.66687
 30
0.0
 10
-4.02561
 20
-2.62308
 30
0.0
 10
-4.02561
 20
-2.56907
 30
0.0
 10
-4.02561
 20
-2.51506
 30
0.0
 10
-3.98182
 20
-2.47127
 30
0.0
 10
-3.92781
 20
-2.47127
 30
0.0
  0
SPLINE
  5
CD
330
1F
100
AcDbEntity
  8
Layer 1
370
    18
100
AcDbSpline
210
0.0
220
0.0
230
1.0
 70
    11
 71
     3
 72
    17
 73
    13
 74
     0
 42
0.0000000001
 43
0.0000000001
 40
0.0
 40
0.0
 40
0.0
 40
0.0
 40
0.25
 40
0.25
 40
0.25
 40
0.5
 40
0.5
 40
0.5
 40
0.75
 40
0.75
 40
0.75
 40
1.0
 40
1.0
 40
1.0
 40
1.0
 10
-2.66461
 20
-2.47127
 30
0.0
 10
-2.6106
 20
-2.47127
 30
0.0
 10
-2.56681
 20
-2.51506
 30
0.0
 10
-2.56681
 20
-2.56907
 30
0.0
 10
-2.56681
 20
-2.62308
 30
0.0
 10
-2.6106
 20
-2.66687
 30
0.0
 10
-2.66461
 20
-2.66687
 30
0.0
 10
-2.71862
 20
-2.66687
 30
0.0
 10
-2.76241
 20
-2.62308
 30
0.0
 10
-2.76241
 20
-2.56907
 30
0.0
 10
-2.76241
 20
-2.51506
 30
0.0
 10
-2.71862
 20
-2.47127
 30
0.0
 10
-2.66461
 20
-2.47127
 30
0.0
  0
SPLINE
  5
CE
330
1F
100
AcDbEntity
  8
Layer 1
370
    18
100
AcDbSpline
210
0.0
220
0.0
230
1.0
 70
    11
 71
     3
 72
    17
 73
    13
 74
     0
 42
0.0000000001
 43
0.0000000001
 40
0.0
 40
0.0
 40
0.0
 40
0.0
 40
0.25
 40
0.25
 40
0.25
 40
0.5
 40
0.5
 40
0.5
 40
0.75
 40
0.75
 40
0.75
 40
1.0
 40
1.0
 40
1.0
 40
1.0
 10
-1.42299
 20
-2.47127
 30
0.0
 10
-1.36898
 20
-2.47127
 30
0.0
 10
-1.32519
 20
-2.51506
 30
0.0
 10
-1.32519
 20
-2.56907
 30
0.0
 10
-1.32519
 20
-2.62308
 30
0.0
 10
-1.36898
 20
-2.66687
 30
0.0
 10
-1.42299
 20
-2.66687
 30
0.0
 10
-1.477
 20
-2.66687
 30
0.0
 10
-1.52079
 20
-2.62308
 30
0.0
 10
-1.52079
 20
-2.56907
 30
0.0
 10
-1.52079
 20
-2.51506
 30
0.0
 10
-1.477
 20
-2.47127
 30
0.0
 10
-1.42299
 20
-2.47127
 30
0.0
  0
SPLINE
  5
CF
330
1F
100
AcDbEntity
  8
Layer 1
370
    18
100
AcDbSpline
210
0.0
220
0.0
230
1.0
 70
    11
 71
     3
 72
    17
 73
    13
 74
     0
 42
0.0000000001
 43
0.0000000001
 40
0.0
 40
0.0
 40
0.0
 40
0.0
 40
0.25
 40
0.25
 40
0.25
 40
0.5
 40
0.5
 40
0.5
 40
0.75
 40
0.75
 40
0.75
 40
1.0
 40
1.0
 40
1.0
 40
1.0
 10
-0.14899
 20
-2.47127
 30
0.0
 10
-0.09498
 20
-2.47127
 30
0.0
 10
-0.05119
 20
-2.51506
 30
0.0
 10
-0.05119
 20
-2.56907
 30
0.0
 10
-0.05119
 20
-2.62308
 30
0.0
 10
-0.09498
 20
-2.66687
 30
0.0
 10
-0.14899
 20
-2.66687
 30
0.0
 10
-0.203
 20
-2.66687
 30
0.0
 10
-0.24679
 20
-2.62308
 30
0.0
 10
-0.24679
 20
-2.56907
 30
0.0
 10
-0.24679
 20
-2.51506
 30
0.0
 10
-0.203
 20
-2.47127
 30
0.0
 10
-0.14899
 20
-2.47127
 30
0.0
  0
SPLINE
  5
D0
330
1F
100
AcDbEntity
  8
Layer 1
370
    18
100
AcDbSpline
210
0.0
220
0.0
230
1.0
 70
    11
 71
     3
 72
    17
 73
    13
 74
     0
 42
0.0000000001
 43
0.0000000001
 40
0.0
 40
0.0
 40
0.0
 40
0.0
 40
0.25
 40
0.25
 40
0.25
 40
0.5
 40
0.5
 40
0.5
 40
0.75
 40
0.75
 40
0.75
 40
1.0
 40
1.0
 40
1.0
 40
1.0
 10
1.10342
 20
-2.47127
 30
0.0
 10
1.15743
 20
-2.47127
 30
0.0
 10
1.20122
 20
-2.51506
 30
0.0
 10
1.20122
 20
-2.56907
 30
0.0
 10
1.20122
 20
-2.62308
 30
0.0
 10
1.15743
 20
-2.66687
 30
0.0
 10
1.10342
 20
-2.66687
 30
0.0
 10
1.04941
 20
-2.66687
 30
0.0
 10
1.00562
 20
-2.62308
 30
0.0
 10
1.00562
 20
-2.56907
 30
0.0
 10
1.00562
 20
-2.51506
 30
0.0
 10
1.04941
 20
-2.47127
 30
0.0
 10
1.10342
 20
-2.47127
 30
0.0
  0
SPLINE
  5
D1
330
1F
100
AcDbEntity
  8
Layer 1
370
    18
100
AcDbSpline
210
0.0
220
0.0
230
1.0
 70
    11
 71
     3
 72
    17
 73
    13
 74
     0
 42
0.0000000001
 43
0.0000000001
 40
0.0
 40
0.0
 40
0.0
 40
0.0
 40
0.25
 40
0.25
 40
0.25
 40
0.5
 40
0.5
 40
0.5
 40
0.75
 40
0.75
 40
0.75
 40
1.0
 40
1.0
 40
1.0
 40
1.0
 10
2.40639
 20
-2.47127
 30
0.0
 10
2.4604
 20
-2.47127
 30
0.0
 10
2.50419
 20
-2.51506
 30
0.0
 10
2.50419
 20
-2.56907
 30
0.0
 10
2.50419
 20
-2.62308
 30
0.0
 10
2.4604
 20
-2.66687
 30
0.0
 10
2.40639
 20
-2.66687
 30
0.0
 10
2.35238
 20
-2.66687
 30
0.0
 10
2.30859
 20
-2.62308
 30
0.0
 10
2.30859
 20
-2.56907
 30
0.0
 10
2.30859
 20
-2.51506
 30
0.0
 10
2.35238
 20
-2.47127
 30
0.0
 10
2.40639
 20
-2.47127
 30
0.0
  0
SPLINE
  5
D2
330
1F
100
AcDbEntity
  8
Layer 1
370
    18
100
AcDbSpline
210
0.0
220
0.0
230
1.0
 70
    11
 71
     3
 72
    17
 73
    13
 74
     0
 42
0.0000000001
 43
0.0000000001
 40
0.0
 40
0.0
 40
0.0
 40
0.0
 40
0.25
 40
0.25
 40
0.25
 40
0.5
 40
0.5
 40
0.5
 40
0.75
 40
0.75
 40
0.75
 40
1.0
 40
1.0
 40
1.0
 40
1.0
 10
3.69457
 20
-2.47127
 30
0.0
 10
3.74858
 20
-2.47127
 30
0.0
 10
3.79237
 20
-2.51506
 30
0.0
 10
3.79237
 20
-2.56907
 30
0.0
 10
3.79237
 20
-2.62308
 30
0.0
 10
3.74858
 20
-2.66687
 30
0.0
 10
3.69457
 20
-2.66687
 30
0.0
 10
3.64056
 20
-2.66687
 30
0.0
 10
3.59677
 20
-2.62308
 30
0.0
 10
3.59677
 20
-2.56907
 30
0.0
 10
3.59677
 20
-2.51506
 30
0.0
 10
3.64056
 20
-2.47127
 30
0.0
 10
3.69457
 20
-2.47127
 30
0.0
  0
SPLINE
  5
D3
330
1F
100
AcDbEntity
  8
Layer 1
370
    18
100
AcDbSpline
210
0.0
220
0.0
230
1.0
 70
    11
 71
     3
 72
    17
 73
    13
 74
     0
 42
0.0000000001
 43
0.0000000001
 40
0.0
 40
0.0
 40
0.0
 40
0.0
 40
0.25
 40
0.25
 40
0.25
 40
0.5
 40
0.5
 40
0.5
 40
0.75
 40
0.75
 40
0.75
 40
1.0
 40
1.0
 40
1.0
 40
1.0
 10
4.95777
 20
-2.47127
 30
0.0
 10
5.01178
 20
-2.47127
 30
0.0
 10
5.05557
 20
-2.51506
 30
0.0
 10
5.05557
 20
-2.56907
 30
0.0
 10
5.05557
 20
-2.62308
 30
0.0
 10
5.01178
 20
-2.66687
 30
0.0
 10
4.95777
 20
-2.66687
 30
0.0
 10
4.90376
 20
-2.66687
 30
0.0
 10
4.85997
 20
-2.62308
 30
0.0
 10
4.85997
 20
-2.56907
 30
0.0
 10
4.85997
 20
-2.51506
 30
0.0
 10
4.90376
 20
-2.47127
 30
0.0
 10
4.95777
 20
-2.47127
 30
0.0
  0
SPLINE
  5
D4
330
1F
100
AcDbEntity
  8
Layer 1
370
    18
100
AcDbSpline
210
0.0
220
0.0
230
1.0
 70
    11
 71
     3
 72
    17
 73
    13
 74
     0
 42
0.0000000001
 43
0.0000000001
 40
0.0
 40
0.0
 40
0.0
 40
0.0
 40
0.25
 40
0.25
 40
0.25
 40
0.5
 40
0.5
 40
0.5
 40
0.75
 40
0.75
 40
0.75
 40
1.0
 40
1.0
 40
1.0
 40
1.0
 10
6.19939
 20
-2.47127
 30
0.0
 10
6.2534
 20
-2.47127
 30
0.0
 10
6.29719
 20
-2.51506
 30
0.0
 10
6.29719
 20
-2.56907
 30
0.0
 10
6.29719
 20
-2.62308
 30
0.0
 10
6.2534
 20
-2.66687
 30
0.0
 10
6.19939
 20
-2.66687
 30
0.0
 10
6.14538
 20
-2.66687
 30
0.0
 10
6.10159
 20
-2.62308
 30
0.0
 10
6.10159
 20
-2.56907
 30
0.0
 10
6.10159
 20
-2.51506
 30
0.0
 10
6.14538
 20
-2.47127
 30
0.0
 10
6.19939
 20
-2.47127
 30
0.0
  0
SPLINE
  5
D5
330
1F
100
AcDbEntity
  8
Layer 1
370
    18
100
AcDbSpline
210
0.0
220
0.0
230
1.0
 70
    11
 71
     3
 72
    17
 73
    13
 74
     0
 42
0.0000000001
 43
0.0000000001
 40
0.0
 40
0.0
 40
0.0
 40
0.0
 40
0.25
 40
0.25
 40
0.25
 40
0.5
 40
0.5
 40
0.5
 40
0.75
 40
0.75
 40
0.75
 40
1.0
 40
1.0
 40
1.0
 40
1.0
 10
7.47339
 20
-2.47127
 30
0.0
 10
7.5274
 20
-2.47127
 30
0.0
 10
7.57119
 20
-2.51506
 30
0.0
 10
7.57119
 20
-2.56907
 30
0.0
 10
7.57119
 20
-2.62308
 30
0.0
 10
7.5274
 20
-2.66687
 30
0.0
 10
7.47339
 20
-2.66687
 30
0.0
 10
7.41938
 20
-2.66687
 30
0.0
 10
7.37559
 20
-2.62308
 30
0.0
 10
7.37559
 20
-2.56907
 30
0.0
 10
7.37559
 20
-2.51506
 30
0.0
 10
7.41938
 20
-2.47127
 30
0.0
 10
7.47339
 20
-2.47127
 30
0.0
  0
SPLINE
  5
D6
330
1F
100
AcDbEntity
  8
Layer 1
370
    18
100
AcDbSpline
210
0.0
220
0.0
230
1.0
 70
    11
 71
     3
 72
    17
 73
    13
 74
     0
 42
0.0000000001
 43
0.0000000001
 40
0.0
 40
0.0
 40
0.0
 40
0.0
 40
0.25
 40
0.25
 40
0.25
 40
0.5
 40
0.5
 40
0.5
 40
0.75
 40
0.75
 40
0.75
 40
1.0
 40
1.0
 40
1.0
 40
1.0
 10
8.88494
 20
-2.47127
 30
0.0
 10
8.93895
 20
-2.47127
 30
0.0
 10
8.98274
 20
-2.51506
 30
0.0
 10
8.98274
 20
-2.56907
 30
0.0
 10
8.98274
 20
-2.62308
 30
0.0
 10
8.93895
 20
-2.66687
 30
0.0
 10
8.88494
 20
-2.66687
 30
0.0
 10
8.83093
 20
-2.66687
 30
0.0
 10
8.78714
 20
-2.62308
 30
0.0
 10
8.78714
 20
-2.56907
 30
0.0
 10
8.78714
 20
-2.51506
 30
0.0
 10
8.83093
 20
-2.47127
 30
0.0
 10
8.88494
 20
-2.47127
 30
0.0
  0
SPLINE
  5
D7
330
1F
100
AcDbEntity
  8
Layer 1
370
    18
100
AcDbSpline
210
0.0
220
0.0
230
1.0
 70
    11
 71
     3
 72
    17
 73
    13
 74
     0
 42
0.0000000001
 43
0.0000000001
 40
0.0
 40
0.0
 40
0.0
 40
0.0
 40
0.25
 40
0.25
 40
0.25
 40
0.5
 40
0.5
 40
0.5
 40
0.75
 40
0.75
 40
0.75
 40
1.0
 40
1.0
 40
1.0
 40
1.0
 10
-2.67981
 20
-3.73569
 30
0.0
 10
-2.6258
 20
-3.73569
 30
0.0
 10
-2.58201
 20
-3.77948
 30
0.0
 10
-2.58201
 20
-3.83349
 30
0.0
 10
-2.58201
 20
-3.8875
 30
0.0
 10
-2.6258
 20
-3.93129
 30
0.0
 10
-2.67981
 20
-3.93129
 30
0.0
 10
-2.73382
 20
-3.93129
 30
0.0
 10
-2.77761
 20
-3.8875
 30
0.0
 10
-2.77761
 20
-3.83349
 30
0.0
 10
-2.77761
 20
-3.77948
 30
0.0
 10
-2.73382
 20
-3.73569
 30
0.0
 10
-2.67981
 20
-3.73569
 30
0.0
  0
SPLINE
  5
D8
330
1F
100
AcDbEntity
  8
Layer 1
370
    18
100
AcDbSpline
210
0.0
220
0.0
230
1.0
 70
    11
 71
     3
 72
    17
 73
    13
 74
     0
 42
0.0000000001
 43
0.0000000001
 40
0.0
 40
0.0
 40
0.0
 40
0.0
 40
0.25
 40
0.25
 40
0.25
 40
0.5
 40
0.5
 40
0.5
 40
0.75
 40
0.75
 40
0.75
 40
1.0
 40
1.0
 40
1.0
 40
1.0
 10
-1.41661
 20
-3.73569
 30
0.0
 10
-1.3626
 20
-3.73569
 30
0.0
 10
-1.31881
 20
-3.77948
 30
0.0
 10
-1.31881
 20
-3.83349
 30
0.0
 10
-1.31881
 20
-3.8875
 30
0.0
 10
-1.3626
 20
-3.93129
 30
0.0
 10
-1.41661
 20
-3.93129
 30
0.0
 10
-1.47062
 20
-3.93129
 30
0.0
 10
-1.51441
 20
-3.8875
 30
0.0
 10
-1.51441
 20
-3.83349
 30
0.0
 10
-1.51441
 20
-3.77948
 30
0.0
 10
-1.47062
 20
-3.73569
 30
0.0
 10
-1.41661
 20
-3.73569
 30
0.0
  0
SPLINE
  5
D9
330
1F
100
AcDbEntity
  8
Layer 1
370
    18
100
AcDbSpline
210
0.0
220
0.0
230
1.0
 70
    11
 71
     3
 72
    17
 73
    13
 74
     0
 42
0.0000000001
 43
0.0000000001
 40
0.0
 40
0.0
 40
0.0
 40
0.0
 40
0.25
 40
0.25
 40
0.25
 40
0.5
 40
0.5
 40
0.5
 40
0.75
 40
0.75
 40
0.75
 40
1.0
 40
1.0
 40
1.0
 40
1.0
 10
-0.17499
 20
-3.73569
 30
0.0
 10
-0.12098
 20
-3.73569
 30
0.0
 10
-0.07719
 20
-3.77948
 30
0.0
 10
-0.07719
 20
-3.83349
 30
0.0
 10
-0.07719
 20
-3.8875
 30
0.0
 10
-0.12098
 20
-3.93129
 30
0.0
 10
-0.17499
 20
-3.93129
 30
0.0
 10
-0.229
 20
-3.93129
 30
0.0
 10
-0.27279
 20
-3.8875
 30
0.0
 10
-0.27279
 20
-3.83349
 30
0.0
 10
-0.27279
 20
-3.77948
 30
0.0
 10
-0.229
 20
-3.73569
 30
0.0
 10
-0.17499
 20
-3.73569
 30
0.0
  0
SPLINE
  5
DA
330
1F
100
AcDbEntity
  8
Layer 1
370
    18
100
AcDbSpline
210
0.0
220
0.0
230
1.0
 70
    11
 71
     3
 72
    17
 73
    13
 74
     0
 42
0.0000000001
 43
0.0000000001
 40
0.0
 40
0.0
 40
0.0
 40
0.0
 40
0.25
 40
0.25
 40
0.25
 40
0.5
 40
0.5
 40
0.5
 40
0.75
 40
0.75
 40
0.75
 40
1.0
 40
1.0
 40
1.0
 40
1.0
 10
1.09901
 20
-3.73569
 30
0.0
 10
1.15302
 20
-3.73569
 30
0.0
 10
1.19681
 20
-3.77948
 30
0.0
 10
1.19681
 20
-3.83349
 30
0.0
 10
1.19681
 20
-3.8875
 30
0.0
 10
1.15302
 20
-3.93129
 30
0.0
 10
1.09901
 20
-3.93129
 30
0.0
 10
1.045
 20
-3.93129
 30
0.0
 10
1.00121
 20
-3.8875
 30
0.0
 10
1.00121
 20
-3.83349
 30
0.0
 10
1.00121
 20
-3.77948
 30
0.0
 10
1.045
 20
-3.73569
 30
0.0
 10
1.09901
 20
-3.73569
 30
0.0
  0
SPLINE
  5
DB
330
1F
100
AcDbEntity
  8
Layer 1
370
    18
100
AcDbSpline
210
0.0
220
0.0
230
1.0
 70
    11
 71
     3
 72
    17
 73
    13
 74
     0
 42
0.0000000001
 43
0.0000000001
 40
0.0
 40
0.0
 40
0.0
 40
0.0
 40
0.25
 40
0.25
 40
0.25
 40
0.5
 40
0.5
 40
0.5
 40
0.75
 40
0.75
 40
0.75
 40
1.0
 40
1.0
 40
1.0
 40
1.0
 10
2.35142
 20
-3.73569
 30
0.0
 10
2.40543
 20
-3.73569
 30
0.0
 10
2.44922
 20
-3.77948
 30
0.0
 10
2.44922
 20
-3.83349
 30
0.0
 10
2.44922
 20
-3.8875
 30
0.0
 10
2.40543
 20
-3.93129
 30
0.0
 10
2.35142
 20
-3.93129
 30
0.0
 10
2.29741
 20
-3.93129
 30
0.0
 10
2.25362
 20
-3.8875
 30
0.0
 10
2.25362
 20
-3.83349
 30
0.0
 10
2.25362
 20
-3.77948
 30
0.0
 10
2.29741
 20
-3.73569
 30
0.0
 10
2.35142
 20
-3.73569
 30
0.0
  0
SPLINE
  5
DC
330
1F
100
AcDbEntity
  8
Layer 1
370
    18
100
AcDbSpline
210
0.0
220
0.0
230
1.0
 70
    11
 71
     3
 72
    17
 73
    13
 74
     0
 42
0.0000000001
 43
0.0000000001
 40
0.0
 40
0.0
 40
0.0
 40
0.0
 40
0.25
 40
0.25
 40
0.25
 40
0.5
 40
0.5
 40
0.5
 40
0.75
 40
0.75
 40
0.75
 40
1.0
 40
1.0
 40
1.0
 40
1.0
 10
3.65439
 20
-3.73569
 30
0.0
 10
3.7084
 20
-3.73569
 30
0.0
 10
3.75219
 20
-3.77948
 30
0.0
 10
3.75219
 20
-3.83349
 30
0.0
 10
3.75219
 20
-3.8875
 30
0.0
 10
3.7084
 20
-3.93129
 30
0.0
 10
3.65439
 20
-3.93129
 30
0.0
 10
3.60038
 20
-3.93129
 30
0.0
 10
3.55659
 20
-3.8875
 30
0.0
 10
3.55659
 20
-3.83349
 30
0.0
 10
3.55659
 20
-3.77948
 30
0.0
 10
3.60038
 20
-3.73569
 30
0.0
 10
3.65439
 20
-3.73569
 30
0.0
  0
SPLINE
  5
DD
330
1F
100
AcDbEntity
  8
Layer 1
370
    18
100
AcDbSpline
210
0.0
220
0.0
230
1.0
 70
    11
 71
     3
 72
    17
 73
    13
 74
     0
 42
0.0000000001
 43
0.0000000001
 40
0.0
 40
0.0
 40
0.0
 40
0.0
 40
0.25
 40
0.25
 40
0.25
 40
0.5
 40
0.5
 40
0.5
 40
0.75
 40
0.75
 40
0.75
 40
1.0
 40
1.0
 40
1.0
 40
1.0
 10
4.94257
 20
-3.73569
 30
0.0
 10
4.99658
 20
-3.73569
 30
0.0
 10
5.04037
 20
-3.77948
 30
0.0
 10
5.04037
 20
-3.83349
 30
0.0
 10
5.04037
 20
-3.8875
 30
0.0
 10
4.99658
 20
-3.93129
 30
0.0
 10
4.94257
 20
-3.93129
 30
0.0
 10
4.88856
 20
-3.93129
 30
0.0
 10
4.84477
 20
-3.8875
 30
0.0
 10
4.84477
 20
-3.83349
 30
0.0
 10
4.84477
 20
-3.77948
 30
0.0
 10
4.88856
 20
-3.73569
 30
0.0
 10
4.94257
 20
-3.73569
 30
0.0
  0
SPLINE
  5
DE
330
1F
100
AcDbEntity
  8
Layer 1
370
    18
100
AcDbSpline
210
0.0
220
0.0
230
1.0
 70
    11
 71
     3
 72
    17
 73
    13
 74
     0
 42
0.0000000001
 43
0.0000000001
 40
0.0
 40
0.0
 40
0.0
 40
0.0
 40
0.25
 40
0.25
 40
0.25
 40
0.5
 40
0.5
 40
0.5
 40
0.75
 40
0.75
 40
0.75
 40
1.0
 40
1.0
 40
1.0
 40
1.0
 10
6.20577
 20
-3.73569
 30
0.0
 10
6.25978
 20
-3.73569
 30
0.0
 10
6.30357
 20
-3.77948
 30
0.0
 10
6.30357
 20
-3.83349
 30
0.0
 10
6.30357
 20
-3.8875
 30
0.0
 10
6.25978
 20
-3.93129
 30
0.0
 10
6.20577
 20
-3.93129
 30
0.0
 10
6.15176
 20
-3.93129
 30
0.0
 10
6.10797
 20
-3.8875
 30
0.0
 10
6.10797
 20
-3.83349
 30
0.0
 10
6.10797
 20
-3.77948
 30
0.0
 10
6.15176
 20
-3.73569
 30
0.0
 10
6.20577
 20
-3.73569
 30
0.0
  0
SPLINE
  5
DF
330
1F
100
AcDbEntity
  8
Layer 1
370
    18
100
AcDbSpline
210
0.0
220
0.0
230
1.0
 70
    11
 71
     3
 72
    17
 73
    13
 74
     0
 42
0.0000000001
 43
0.0000000001
 40
0.0
 40
0.0
 40
0.0
 40
0.0
 40
0.25
 40
0.25
 40
0.25
 40
0.5
 40
0.5
 40
0.5
 40
0.75
 40
0.75
 40
0.75
 40
1.0
 40
1.0
 40
1.0
 40
1.0
 10
7.44739
 20
-3.73569
 30
0.0
 10
7.5014
 20
-3.73569
 30
0.0
 10
7.54519
 20
-3.77948
 30
0.0
 10
7.54519
 20
-3.83349
 30
0.0
 10
7.54519
 20
-3.8875
 30
0.0
 10
7.5014
 20
-3.93129
 30
0.0
 10
7.44739
 20
-3.93129
 30
0.0
 10
7.39338
 20
-3.93129
 30
0.0
 10
7.34959
 20
-3.8875
 30
0.0
 10
7.34959
 20
-3.83349
 30
0.0
 10
7.34959
 20
-3.77948
 30
0.0
 10
7.39338
 20
-3.73569
 30
0.0
 10
7.44739
 20
-3.73569
 30
0.0
  0
SPLINE
  5
E0
330
1F
100
AcDbEntity
  8
Layer 1
370
    18
100
AcDbSpline
210
0.0
220
0.0
230
1.0
 70
    11
 71
     3
 72
    17
 73
    13
 74
     0
 42
0.0000000001
 43
0.0000000001
 40
0.0
 40
0.0
 40
0.0
 40
0.0
 40
0.25
 40
0.25
 40
0.25
 40
0.5
 40
0.5
 40
0.5
 40
0.75
 40
0.75
 40
0.75
 40
1.0
 40
1.0
 40
1.0
 40
1.0
 10
8.72139
 20
-3.73569
 30
0.0
 10
8.7754
 20
-3.73569
 30
0.0
 10
8.81919
 20
-3.77948
 30
0.0
 10
8.81919
 20
-3.83349
 30
0.0
 10
8.81919
 20
-3.8875
 30
0.0
 10
8.7754
 20
-3.93129
 30
0.0
 10
8.72139
 20
-3.93129
 30
0.0
 10
8.66738
 20
-3.93129
 30
0.0
 10
8.62359
 20
-3.8875
 30
0.0
 10
8.62359
 20
-3.83349
 30
0.0
 10
8.62359
 20
-3.77948
 30
0.0
 10
8.66738
 20
-3.73569
 30
0.0
 10
8.72139
 20
-3.73569
 30
0.0
  0
SPLINE
  5
E1
330
1F
100
AcDbEntity
  8
Layer 1
370
    18
100
AcDbSpline
210
0.0
220
0.0
230
1.0
 70
    11
 71
     3
 72
    17
 73
    13
 74
     0
 42
0.0000000001
 43
0.0000000001
 40
0.0
 40
0.0
 40
0.0
 40
0.0
 40
0.25
 40
0.25
 40
0.25
 40
0.5
 40
0.5
 40
0.5
 40
0.75
 40
0.75
 40
0.75
 40
1.0
 40
1.0
 40
1.0
 40
1.0
 10
0.01324
 20
-4.98368
 30
0.0
 10
0.06725
 20
-4.98368
 30
0.0
 10
0.11104
 20
-5.02747
 30
0.0
 10
0.11104
 20
-5.08148
 30
0.0
 10
0.11104
 20
-5.13549
 30
0.0
 10
0.06725
 20
-5.17928
 30
0.0
 10
0.01324
 20
-5.17928
 30
0.0
 10
-0.04077
 20
-5.17928
 30
0.0
 10
-0.08456
 20
-5.13549
 30
0.0
 10
-0.08456
 20
-5.08148
 30
0.0
 10
-0.08456
 20
-5.02747
 30
0.0
 10
-0.04077
 20
-4.98368
 30
0.0
 10
0.01324
 20
-4.98368
 30
0.0
  0
SPLINE
  5
E2
330
1F
100
AcDbEntity
  8
Layer 1
370
    18
100
AcDbSpline
210
0.0
220
0.0
230
1.0
 70
    11
 71
     3
 72
    17
 73
    13
 74
     0
 42
0.0000000001
 43
0.0000000001
 40
0.0
 40
0.0
 40
0.0
 40
0.0
 40
0.25
 40
0.25
 40
0.25
 40
0.5
 40
0.5
 40
0.5
 40
0.75
 40
0.75
 40
0.75
 40
1.0
 40
1.0
 40
1.0
 40
1.0
 10
1.27644
 20
-4.98368
 30
0.0
 10
1.33045
 20
-4.98368
 30
0.0
 10
1.37424
 20
-5.02747
 30
0.0
 10
1.37424
 20
-5.08148
 30
0.0
 10
1.37424
 20
-5.13549
 30
0.0
 10
1.33045
 20
-5.17928
 30
0.0
 10
1.27644
 20
-5.17928
 30
0.0
 10
1.22243
 20
-5.17928
 30
0.0
 10
1.17864
 20
-5.13549
 30
0.0
 10
1.17864
 20
-5.08148
 30
0.0
 10
1.17864
 20
-5.02747
 30
0.0
 10
1.22243
 20
-4.98368
 30
0.0
 10
1.27644
 20
-4.98368
 30
0.0
  0
SPLINE
  5
E3
330
1F
100
AcDbEntity
  8
Layer 1
370
    18
100
AcDbSpline
210
0.0
220
0.0
230
1.0
 70
    11
 71
     3
 72
    17
 73
    13
 74
     0
 42
0.0000000001
 43
0.0000000001
 40
0.0
 40
0.0
 40
0.0
 40
0.0
 40
0.25
 40
0.25
 40
0.25
 40
0.5
 40
0.5
 40
0.5
 40
0.75
 40
0.75
 40
0.75
 40
1.0
 40
1.0
 40
1.0
 40
1.0
 10
2.51806
 20
-4.98368
 30
0.0
 10
2.57207
 20
-4.98368
 30
0.0
 10
2.61586
 20
-5.02747
 30
0.0
 10
2.61586
 20
-5.08148
 30
0.0
 10
2.61586
 20
-5.13549
 30
0.0
 10
2.57207
 20
-5.17928
 30
0.0
 10
2.51806
 20
-5.17928
 30
0.0
 10
2.46405
 20
-5.17928
 30
0.0
 10
2.42026
 20
-5.13549
 30
0.0
 10
2.42026
 20
-5.08148
 30
0.0
 10
2.42026
 20
-5.02747
 30
0.0
 10
2.46405
 20
-4.98368
 30
0.0
 10
2.51806
 20
-4.98368
 30
0.0
  0
SPLINE
  5
E4
330
1F
100
AcDbEntity
  8
Layer 1
370
    18
100
AcDbSpline
210
0.0
220
0.0
230
1.0
 70
    11
 71
     3
 72
    17
 73
    13
 74
     0
 42
0.0000000001
 43
0.0000000001
 40
0.0
 40
0.0
 40
0.0
 40
0.0
 40
0.25
 40
0.25
 40
0.25
 40
0.5
 40
0.5
 40
0.5
 40
0.75
 40
0.75
 40
0.75
 40
1.0
 40
1.0
 40
1.0
 40
1.0
 10
3.79206
 20
-4.98368
 30
0.0
 10
3.84607
 20
-4.98368
 30
0.0
 10
3.88986
 20
-5.02747
 30
0.0
 10
3.88986
 20
-5.08148
 30
0.0
 10
3.88986
 20
-5.13549
 30
0.0
 10
3.84607
 20
-5.17928
 30
0.0
 10
3.79206
 20
-5.17928
 30
0.0
 10
3.73805
 20
-5.17928
 30
0.0
 10
3.69426
 20
-5.13549
 30
0.0
 10
3.69426
 20
-5.08148
 30
0.0
 10
3.69426
 20
-5.02747
 30
0.0
 10
3.73805
 20
-4.98368
 30
0.0
 10
3.79206
 20
-4.98368
 30
0.0
  0
SPLINE
  5
E5
330
1F
100
AcDbEntity
  8
Layer 1
370
    18
100
AcDbSpline
210
0.0
220
0.0
230
1.0
 70
    11
 71
     3
 72
    17
 73
    13
 74
     0
 42
0.0000000001
 43
0.0000000001
 40
0.0
 40
0.0
 40
0.0
 40
0.0
 40
0.25
 40
0.25
 40
0.25
 40
0.5
 40
0.5
 40
0.5
 40
0.75
 40
0.75
 40
0.75
 40
1.0
 40
1.0
 40
1.0
 40
1.0
 10
5.04447
 20
-4.98368
 30
0.0
 10
5.09848
 20
-4.98368
 30
0.0
 10
5.14227
 20
-5.02747
 30
0.0
 10
5.14227
 20
-5.08148
 30
0.0
 10
5.14227
 20
-5.13549
 30
0.0
 10
5.09848
 20
-5.17928
 30
0.0
 10
5.04447
 20
-5.17928
 30
0.0
 10
4.99046
 20
-5.17928
 30
0.0
 10
4.94667
 20
-5.13549
 30
0.0
 10
4.94667
 20
-5.08148
 30
0.0
 10
4.94667
 20
-5.02747
 30
0.0
 10
4.99046
 20
-4.98368
 30
0.0
 10
5.04447
 20
-4.98368
 30
0.0
  0
SPLINE
  5
E6
330
1F
100
AcDbEntity
  8
Layer 1
370
    18
100
AcDbSpline
210
0.0
220
0.0
230
1.0
 70
    11
 71
     3
 72
    17
 73
    13
 74
     0
 42
0.0000000001
 43
0.0000000001
 40
0.0
 40
0.0
 40
0.0
 40
0.0
 40
0.25
 40
0.25
 40
0.25
 40
0.5
 40
0.5
 40
0.5
 40
0.75
 40
0.75
 40
0.75
 40
1.0
 40
1.0
 40
1.0
 40
1.0
 10
6.34744
 20
-4.98368
 30
0.0
 10
6.40145
 20
-4.98368
 30
0.0
 10
6.44524
 20
-5.02747
 30
0.0
 10
6.44524
 20
-5.08148
 30
0.0
 10
6.44524
 20
-5.13549
 30
0.0
 10
6.40145
 20
-5.17928
 30
0.0
 10
6.34744
 20
-5.17928
 30
0.0
 10
6.29343
 20
-5.17928
 30
0.0
 10
6.24964
 20
-5.13549
 30
0.0
 10
6.24964
 20
-5.08148
 30
0.0
 10
6.24964
 20
-5.02747
 30
0.0
 10
6.29343
 20
-4.98368
 30
0.0
 10
6.34744
 20
-4.98368
 30
0.0
  0
SPLINE
  5
E7
330
1F
100
AcDbEntity
  8
Layer 1
370
    18
100
AcDbSpline
210
0.0
220
0.0
230
1.0
 70
    11
 71
     3
 72
    17
 73
    13
 74
     0
 42
0.0000000001
 43
0.0000000001
 40
0.0
 40
0.0
 40
0.0
 40
0.0
 40
0.25
 40
0.25
 40
0.25
 40
0.5
 40
0.5
 40
0.5
 40
0.75
 40
0.75
 40
0.75
 40
1.0
 40
1.0
 40
1.0
 40
1.0
 10
7.63562
 20
-4.98368
 30
0.0
 10
7.68963
 20
-4.98368
 30
0.0
 10
7.73342
 20
-5.02747
 30
0.0
 10
7.73342
 20
-5.08148
 30
0.0
 10
7.73342
 20
-5.13549
 30
0.0
 10
7.68963
 20
-5.17928
 30
0.0
 10
7.63562
 20
-5.17928
 30
0.0
 10
7.58161
 20
-5.17928
 30
0.0
 10
7.53782
 20
-5.13549
 30
0.0
 10
7.53782
 20
-5.08148
 30
0.0
 10
7.53782
 20
-5.02747
 30
0.0
 10
7.58161
 20
-4.98368
 30
0.0
 10
7.63562
 20
-4.98368
 30
0.0
  0
SPLINE
  5
E8
330
1F
100
AcDbEntity
  8
Layer 1
370
    18
100
AcDbSpline
210
0.0
220
0.0
230
1.0
 70
    11
 71
     3
 72
    17
 73
    13
 74
     0
 42
0.0000000001
 43
0.0000000001
 40
0.0
 40
0.0
 40
0.0
 40
0.0
 40
0.25
 40
0.25
 40
0.25
 40
0.5
 40
0.5
 40
0.5
 40
0.75
 40
0.75
 40
0.75
 40
1.0
 40
1.0
 40
1.0
 40
1.0
 10
0.17745
 20
-6.28094
 30
0.0
 10
0.23146
 20
-6.28094
 30
0.0
 10
0.27525
 20
-6.32473
 30
0.0
 10
0.27525
 20
-6.37874
 30
0.0
 10
0.27525
 20
-6.43275
 30
0.0
 10
0.23146
 20
-6.47654
 30
0.0
 10
0.17745
 20
-6.47654
 30
0.0
 10
0.12344
 20
-6.47654
 30
0.0
 10
0.07965
 20
-6.43275
 30
0.0
 10
0.07965
 20
-6.37874
 30
0.0
 10
0.07965
 20
-6.32473
 30
0.0
 10
0.12344
 20
-6.28094
 30
0.0
 10
0.17745
 20
-6.28094
 30
0.0
  0
SPLINE
  5
E9
330
1F
100
AcDbEntity
  8
Layer 1
370
    18
100
AcDbSpline
210
0.0
220
0.0
230
1.0
 70
    11
 71
     3
 72
    17
 73
    13
 74
     0
 42
0.0000000001
 43
0.0000000001
 40
0.0
 40
0.0
 40
0.0
 40
0.0
 40
0.25
 40
0.25
 40
0.25
 40
0.5
 40
0.5
 40
0.5
 40
0.75
 40
0.75
 40
0.75
 40
1.0
 40
1.0
 40
1.0
 40
1.0
 10
1.44065
 20
-6.28094
 30
0.0
 10
1.49466
 20
-6.28094
 30
0.0
 10
1.53845
 20
-6.32473
 30
0.0
 10
1.53845
 20
-6.37874
 30
0.0
 10
1.53845
 20
-6.43275
 30
0.0
 10
1.49466
 20
-6.47654
 30
0.0
 10
1.44065
 20
-6.47654
 30
0.0
 10
1.38664
 20
-6.47654
 30
0.0
 10
1.34285
 20
-6.43275
 30
0.0
 10
1.34285
 20
-6.37874
 30
0.0
 10
1.34285
 20
-6.32473
 30
0.0
 10
1.38664
 20
-6.28094
 30
0.0
 10
1.44065
 20
-6.28094
 30
0.0
  0
SPLINE
  5
EA
330
1F
100
AcDbEntity
  8
Layer 1
370
    18
100
AcDbSpline
210
0.0
220
0.0
230
1.0
 70
    11
 71
     3
 72
    17
 73
    13
 74
     0
 42
0.0000000001
 43
0.0000000001
 40
0.0
 40
0.0
 40
0.0
 40
0.0
 40
0.25
 40
0.25
 40
0.25
 40
0.5
 40
0.5
 40
0.5
 40
0.75
 40
0.75
 40
0.75
 40
1.0
 40
1.0
 40
1.0
 40
1.0
 10
2.68227
 20
-6.28094
 30
0.0
 10
2.73628
 20
-6.28094
 30
0.0
 10
2.78007
 20
-6.32473
 30
0.0
 10
2.78007
 20
-6.37874
 30
0.0
 10
2.78007
 20
-6.43275
 30
0.0
 10
2.73628
 20
-6.47654
 30
0.0
 10
2.68227
 20
-6.47654
 30
0.0
 10
2.62826
 20
-6.47654
 30
0.0
 10
2.58447
 20
-6.43275
 30
0.0
 10
2.58447
 20
-6.37874
 30
0.0
 10
2.58447
 20
-6.32473
 30
0.0
 10
2.62826
 20
-6.28094
 30
0.0
 10
2.68227
 20
-6.28094
 30
0.0
  0
SPLINE
  5
EB
330
1F
100
AcDbEntity
  8
Layer 1
370
    18
100
AcDbSpline
210
0.0
220
0.0
230
1.0
 70
    11
 71
     3
 72
    17
 73
    13
 74
     0
 42
0.0000000001
 43
0.0000000001
 40
0.0
 40
0.0
 40
0.0
 40
0.0
 40
0.25
 40
0.25
 40
0.25
 40
0.5
 40
0.5
 40
0.5
 40
0.75
 40
0.75
 40
0.75
 40
1.0
 40
1.0
 40
1.0
 40
1.0
 10
3.95627
 20
-6.28094
 30
0.0
 10
4.01028
 20
-6.28094
 30
0.0
 10
4.05407
 20
-6.32473
 30
0.0
 10
4.05407
 20
-6.37874
 30
0.0
 10
4.05407
 20
-6.43275
 30
0.0
 10
4.01028
 20
-6.47654
 30
0.0
 10
3.95627
 20
-6.47654
 30
0.0
 10
3.90226
 20
-6.47654
 30
0.0
 10
3.85847
 20
-6.43275
 30
0.0
 10
3.85847
 20
-6.37874
 30
0.0
 10
3.85847
 20
-6.32473
 30
0.0
 10
3.90226
 20
-6.28094
 30
0.0
 10
3.95627
 20
-6.28094
 30
0.0
  0
ENDSEC
  0
SECTION
  2
OBJECTS
  0
DICTIONARY
  5
C
330
0
100
AcDbDictionary
281
     1
  3
ACAD_DETAILVIEWSTYLE
350
F3
  3
ACAD_GROUP
350
D
  3
ACAD_LAYOUT
350
1A
  3
ACAD_MATERIAL
350
43
  3
ACAD_MLEADERSTYLE
350
5B
  3
ACAD_MLINESTYLE
350
17
  3
ACAD_PLOTSETTINGS
350
19
  3
ACAD_PLOTSTYLENAME
350
E
  3
ACAD_SCALELIST
350
47
  3
ACAD_SECTIONVIEWSTYLE
350
F4
  3
ACAD_TABLESTYLE
350
59
  3
ACAD_VISUALSTYLE
350
2A
  3
ACDB_RECOMPOSE_DATA
350
F0
  3
AcDbVariableDictionary
350
EC
  0
SUN
  5
5D
330
29
100
AcDbSun
 90
        1
290
     0
 63
     7
421
 16777215
 40
1.0
291
     1
 91
  2455826
 92
 54000000
292
     0
 70
     2
 71
   256
280
     1
  0
DICTIONARY
  5
F3
102
{ACAD_REACTORS
330
C
102
}
330
C
100
AcDbDictionary
281
     1
  0
DICTIONARY
  5
D
102
{ACAD_REACTORS
330
C
102
}
330
C
100
AcDbDictionary
281
     1
  0
DICTIONARY
  5
1A
102
{ACAD_REACTORS
330
C
102
}
330
C
100
AcDbDictionary
281
     1
  3
Layout1
350
1E
  3
Layout2
350
26
  3
Model
350
22
  0
DICTIONARY
  5
43
102
{ACAD_REACTORS
330
C
102
}
330
C
100
AcDbDictionary
281
     1
  3
ByBlock
350
45
  3
ByLayer
350
44
  3
Global
350
46
  0
DICTIONARY
  5
5B
102
{ACAD_REACTORS
330
C
102
}
330
C
100
AcDbDictionary
281
     1
  3
Standard
350
5C
  0
DICTIONARY
  5
17
102
{ACAD_REACTORS
330
C
102
}
330
C
100
AcDbDictionary
281
     1
  3
Standard
350
18
  0
DICTIONARY
  5
19
102
{ACAD_REACTORS
330
C
102
}
330
C
100
AcDbDictionary
281
     1
  0
ACDBDICTIONARYWDFLT
  5
E
102
{ACAD_REACTORS
330
C
102
}
330
C
100
AcDbDictionary
281
     1
  3
Normal
350
F
100
AcDbDictionaryWithDefault
340
F
  0
DICTIONARY
  5
47
102
{ACAD_REACTORS
330
C
102
}
330
C
100
AcDbDictionary
281
     1
  3
A0
350
48
  3
A1
350
49
  3
A2
350
4A
  3
A3
350
4B
  3
A4
350
4C
  3
A5
350
4D
  3
A6
350
4E
  3
A7
350
4F
  3
A8
350
50
  3
A9
350
51
  3
B1
350
52
  3
B2
350
53
  3
B3
350
54
  3
B4
350
55
  3
B5
350
56
  3
B6
350
57
  3
B7
350
58
  0
DICTIONARY
  5
F4
102
{ACAD_REACTORS
330
C
102
}
330
C
100
AcDbDictionary
281
     1
  0
DICTIONARY
  5
59
102
{ACAD_REACTORS
330
C
102
}
330
C
100
AcDbDictionary
281
     1
  3
Standard
350
5A
  0
DICTIONARY
  5
2A
102
{ACAD_REACTORS
330
C
102
}
330
C
100
AcDbDictionary
281
     1
  3
2dWireframe
350
2F
  3
Basic
350
32
  3
Brighten
350
36
  3
ColorChange
350
3A
  3
Conceptual
350
34
  3
Dim
350
35
  3
EdgeColorOff
350
3D
  3
Facepattern
350
39
  3
Flat
350
2B
  3
FlatWithEdges
350
2C
  3
Gouraud
350
2D
  3
GouraudWithEdges
350
2E
  3
Hidden
350
31
  3
JitterOff
350
3B
  3
Linepattern
350
38
  3
OverhangOff
350
3C
  3
Realistic
350
33
  3
Shaded
350
42
  3
Shaded with edges
350
41
  3
Shades of Gray
350
3E
  3
Sketchy
350
3F
  3
Thicken
350
37
  3
Wireframe
350
30
  3
X-Ray
350
40
  0
XRECORD
  5
F0
102
{ACAD_REACTORS
330
C
102
}
330
C
100
AcDbXrecord
280
     1
 90
        1
330
5A
  0
DICTIONARY
  5
EC
102
{ACAD_REACTORS
330
C
102
}
330
C
100
AcDbDictionary
281
     1
  3
CANNOSCALE
350
ED
  3
CMLEADERSTYLE
350
F2
  3
CTABLESTYLE
350
F1
  0
LAYOUT
  5
1E
102
{ACAD_REACTORS
330
1A
102
}
330
1A
100
AcDbPlotSettings
  1

  2
none_device
  4

  6

 40
0.0
 41
0.0
 42
0.0
 43
0.0
 44
0.0
 45
0.0
 46
0.0
 47
0.0
 48
0.0
 49
0.0
140
0.0
141
0.0
142
1.0
143
1.0
 70
   688
 72
     0
 73
     0
 74
     5
  7

 75
    16
 76
     0
 77
     2
 78
   300
147
1.0
148
0.0
149
0.0
100
AcDbLayout
  1
Layout1
 70
     1
 71
     1
 10
0.0
 20
0.0
 11
12.0
 21
9.0
 12
0.0
 22
0.0
 32
0.0
 14
1.000000000000000E+20
 24
1.000000000000000E+20
 34
1.000000000000000E+20
 15
-1.000000000000000E+20
 25
-1.000000000000000E+20
 35
-1.000000000000000E+20
146
0.0
 13
0.0
 23
0.0
 33
0.0
 16
1.0
 26
0.0
 36
0.0
 17
0.0
 27
1.0
 37
0.0
 76
     0
330
1B
  0
LAYOUT
  5
26
102
{ACAD_REACTORS
330
1A
102
}
330
1A
100
AcDbPlotSettings
  1

  2
none_device
  4

  6

 40
0.0
 41
0.0
 42
0.0
 43
0.0
 44
0.0
 45
0.0
 46
0.0
 47
0.0
 48
0.0
 49
0.0
140
0.0
141
0.0
142
1.0
143
1.0
 70
   688
 72
     0
 73
     0
 74
     5
  7

 75
    16
 76
     0
 77
     2
 78
   300
147
1.0
148
0.0
149
0.0
100
AcDbLayout
  1
Layout2
 70
     1
 71
     2
 10
0.0
 20
0.0
 11
0.0
 21
0.0
 12
0.0
 22
0.0
 32
0.0
 14
0.0
 24
0.0
 34
0.0
 15
0.0
 25
0.0
 35
0.0
146
0.0
 13
0.0
 23
0.0
 33
0.0
 16
1.0
 26
0.0
 36
0.0
 17
0.0
 27
1.0
 37
0.0
 76
     0
330
23
  0
LAYOUT
  5
22
102
{ACAD_REACTORS
330
1A
102
}
330
1A
100
AcDbPlotSettings
  1

  2
none_device
  4
Letter_(8.50_x_11.00_Inches)
  6

 40
6.35
 41
6.35
 42
6.35000508
 43
6.35000508
 44
215.9
 45
279.4
 46
0.0
 47
0.0
 48
0.0
 49
0.0
140
0.0
141
0.0
142
1.0
143
1.0
 70
  1712
 72
     0
 73
     0
 74
     0
  7

 75
     0
 76
     0
 77
     2
 78
   300
147
1.0
148
0.0
149
0.0
100
AcDbLayout
  1
Model
 70
     1
 71
     0
 10
0.0
 20
0.0
 11
12.0
 21
9.0
 12
0.0
 22
0.0
 32
0.0
 14
-10.15544
 24
-12.27324
 34
0.0
 15
10.15544
 25
12.27324
 35
0.0
146
0.0
 13
0.0
 23
0.0
 33
0.0
 16
1.0
 26
0.0
 36
0.0
 17
0.0
 27
1.0
 37
0.0
 76
     0
330
1F
331
29
  0
MATERIAL
  5
45
102
{ACAD_REACTORS
330
43
102
}
330
43
100
AcDbMaterial
  1
ByBlock
 72
     1
 94
      127
  0
MATERIAL
  5
44
102
{ACAD_REACTORS
330
43
102
}
330
43
100
AcDbMaterial
  1
ByLayer
 72
     1
 94
      127
  0
MATERIAL
  5
46
102
{ACAD_REACTORS
330
43
102
}
330
43
100
AcDbMaterial
  1
Global
 72
     1
 94
      127
  0
MLEADERSTYLE
  5
5C
102
{ACAD_REACTORS
330
5B
102
}
330
5B
100
AcDbMLeaderStyle
179
     2
170
     2
171
     1
172
     0
 90
        2
 40
0.0
 41
0.0
173
     1
 91
-1056964608
340
14
 92
       -2
290
     1
 42
0.09
291
     1
 43
0.36
  3
Standard
341
0
 44
0.18
300

342
11
174
     1
178
     6
175
     1
176
     0
 93
-1056964608
 45
0.18
292
     0
297
     0
 46
0.18
343
0
 94
-1056964608
 47
1.0
 49
1.0
140
1.0
293
     1
141
0.0
294
     1
177
     0
142
1.0
295
     0
296
     0
143
0.125
271
     0
272
     9
273
     9
298
     0
  0
MLINESTYLE
  5
18
102
{ACAD_REACTORS
330
17
102
}
330
17
100
AcDbMlineStyle
  2
Standard
 70
     0
  3

 62
   256
 51
90.0
 52
90.0
 71
     2
 49
0.5
 62
   256
  6
BYLAYER
 49
-0.5
 62
   256
  6
BYLAYER
  0
ACDBPLACEHOLDER
  5
F
102
{ACAD_REACTORS
330
E
102
}
330
E
  0
SCALE
  5
48
102
{ACAD_REACTORS
330
47
102
}
330
47
100
AcDbScale
 70
     0
300
1:1
140
1.0
141
1.0
290
     1
  0
SCALE
  5
49
102
{ACAD_REACTORS
330
47
102
}
330
47
100
AcDbScale
 70
     0
300
1/128" = 1'-0"
140
0.0078125
141
12.0
290
     0
  0
SCALE
  5
4A
102
{ACAD_REACTORS
330
47
102
}
330
47
100
AcDbScale
 70
     0
300
1/64" = 1'-0"
140
0.015625
141
12.0
290
     0
  0
SCALE
  5
4B
102
{ACAD_REACTORS
330
47
102
}
330
47
100
AcDbScale
 70
     0
300
1/32" = 1'-0"
140
0.03125
141
12.0
290
     0
  0
SCALE
  5
4C
102
{ACAD_REACTORS
330
47
102
}
330
47
100
AcDbScale
 70
     0
300
1/16" = 1'-0"
140
0.0625
141
12.0
290
     0
  0
SCALE
  5
4D
102
{ACAD_REACTORS
330
47
102
}
330
47
100
AcDbScale
 70
     0
300
3/32" = 1'-0"
140
0.09375
141
12.0
290
     0
  0
SCALE
  5
4E
102
{ACAD_REACTORS
330
47
102
}
330
47
100
AcDbScale
 70
     0
300
1/8" = 1'-0"
140
0.125
141
12.0
290
     0
  0
SCALE
  5
4F
102
{ACAD_REACTORS
330
47
102
}
330
47
100
AcDbScale
 70
     0
300
3/16" = 1'-0"
140
0.1875
141
12.0
290
     0
  0
SCALE
  5
50
102
{ACAD_REACTORS
330
47
102
}
330
47
100
AcDbScale
 70
     0
300
1/4" = 1'-0"
140
0.25
141
12.0
290
     0
  0
SCALE
  5
51
102
{ACAD_REACTORS
330
47
102
}
330
47
100
AcDbScale
 70
     0
300
3/8" = 1'-0"
140
0.375
141
12.0
290
     0
  0
SCALE
  5
52
102
{ACAD_REACTORS
330
47
102
}
330
47
100
AcDbScale
 70
     0
300
1/2" = 1'-0"
140
0.5
141
12.0
290
     0
  0
SCALE
  5
53
102
{ACAD_REACTORS
330
47
102
}
330
47
100
AcDbScale
 70
     0
300
3/4" = 1'-0"
140
0.75
141
12.0
290
     0
  0
SCALE
  5
54
102
{ACAD_REACTORS
330
47
102
}
330
47
100
AcDbScale
 70
     0
300
1" = 1'-0"
140
1.0
141
12.0
290
     0
  0
SCALE
  5
55
102
{ACAD_REACTORS
330
47
102
}
330
47
100
AcDbScale
 70
     0
300
1-1/2" = 1'-0"
140
1.5
141
12.0
290
     0
  0
SCALE
  5
56
102
{ACAD_REACTORS
330
47
102
}
330
47
100
AcDbScale
 70
     0
300
3" = 1'-0"
140
3.0
141
12.0
290
     0
  0
SCALE
  5
57
102
{ACAD_REACTORS
330
47
102
}
330
47
100
AcDbScale
 70
     0
300
6" = 1'-0"
140
6.0
141
12.0
290
     0
  0
SCALE
  5
58
102
{ACAD_REACTORS
330
47
102
}
330
47
100
AcDbScale
 70
     0
300
1'-0" = 1'-0"
140
12.0
141
12.0
290
     0
  0
TABLESTYLE
  5
5A
102
{ACAD_REACTORS
330
59
102
}
102
{ACAD_XDICTIONARY
360
EE
102
}
330
59
100
AcDbTableStyle
  3
Standard
 70
     0
 71
     0
 40
0.06
 41
0.06
280
     0
281
     0
  7
Standard
140
0.18
170
     2
 62
     0
 63
   257
283
     0
 90
        4
 91
        0
  1

274
    -2
284
     1
 64
     0
275
    -2
285
     1
 65
     0
276
    -2
286
     1
 66
     0
277
    -2
287
     1
 67
     0
278
    -2
288
     1
 68
     0
279
    -2
289
     1
 69
     0
  7
Standard
140
0.25
170
     5
 62
     0
 63
   257
283
     0
 90
        4
 91
        0
  1

274
    -2
284
     1
 64
     0
275
    -2
285
     1
 65
     0
276
    -2
286
     1
 66
     0
277
    -2
287
     1
 67
     0
278
    -2
288
     1
 68
     0
279
    -2
289
     1
 69
     0
  7
Standard
140
0.18
170
     5
 62
     0
 63
   257
283
     0
 90
        4
 91
        0
  1

274
    -2
284
     1
 64
     0
275
    -2
285
     1
 65
     0
276
    -2
286
     1
 66
     0
277
    -2
287
     1
 67
     0
278
    -2
288
     1
 68
     0
279
    -2
289
     1
 69
     0
  0
VISUALSTYLE
  5
2F
102
{ACAD_REACTORS
330
2A
102
}
330
2A
100
AcDbVisualStyle
  2
2dWireframe
 70
     4
177
     3
291
     0
 70
    58
 90
        0
176
     1
 90
        2
176
     1
 90
        0
176
     1
 90
        0
176
     1
 40
0.6
176
     1
 40
30.0
176
     1
 62
     7
420
 16777215
176
     1
 90
        1
176
     1
 90
        4
176
     1
 62
     7
176
     1
 62
   257
176
     1
 90
        1
176
     1
 90
        1
176
     1
 40
1.0
176
     1
 90
        0
176
     1
 62
   257
176
     1
 40
1.0
176
     1
 90
        1
176
     1
 90
        6
176
     1
 90
        2
176
     1
 62
     7
176
     1
 90
        5
176
     1
 90
        0
176
     1
 90
        0
176
     1
290
     0
176
     1
 90
        1
176
     1
 40
0.0
176
     1
 90
        0
176
     1
290
     1
176
     1
290
     1
176
     1
290
     0
176
     1
290
     0
176
     1
290
     0
176
     1
290
     0
176
     1
290
     0
176
     1
290
     0
176
     1
290
     0
176
     1
 90
       50
176
     1
 40
0.0
176
     1
 40
1.0
176
     1
 90
        0
176
     1
 62
    18
420
        0
176
     1
 90
       50
176
     1
 90
        3
176
     1
 62
     5
420
      255
176
     1
290
     0
176
     1
 90
       50
176
     1
 90
       50
176
     1
 90
       50
176
     1
290
     0
176
     1
 90
       50
176
     1
 62
   256
176
     0
 40
1.0
176
     0
 90
        2
176
     1
  1
strokes_ogs.tif
176
     1
290
     0
176
     1
 40
1.0
176
     1
 40
1.0
176
     1
  0
VISUALSTYLE
  5
32
102
{ACAD_REACTORS
330
2A
102
}
330
2A
100
AcDbVisualStyle
  2
Basic
 70
     7
177
     3
291
     1
 70
    58
 90
        1
176
     1
 90
        0
176
     1
 90
        1
176
     1
 90
        0
176
     1
 40
0.6
176
     1
 40
30.0
176
     1
 62
     7
420
 16777215
176
     1
 90
        0
176
     1
 90
        4
176
     1
 62
     7
176
     1
 62
   257
176
     1
 90
        1
176
     1
 90
        1
176
     1
 40
1.0
176
     1
 90
        8
176
     1
 62
     7
176
     1
 40
1.0
176
     1
 90
        1
176
     1
 90
        6
176
     1
 90
        2
176
     1
 62
     7
176
     1
 90
        5
176
     1
 90
        0
176
     1
 90
        0
176
     1
290
     0
176
     1
 90
        1
176
     1
 40
0.0
176
     1
 90
        0
176
     1
290
     0
176
     1
290
     1
176
     1
290
     1
176
     1
290
     0
176
     1
290
     0
176
     1
290
     0
176
     1
290
     0
176
     1
290
     0
176
     1
290
     0
176
     1
 90
       50
176
     1
 40
0.0
176
     1
 40
1.0
176
     1
 90
        0
176
     1
 62
    18
420
        0
176
     1
 90
       50
176
     1
 90
        3
176
     1
 62
     5
420
      255
176
     1
290
     0
176
     1
 90
       50
176
     1
 90
       50
176
     1
 90
       50
176
     1
290
     0
176
     1
 90
       50
176
     1
 62
   256
176
     0
 40
1.0
176
     0
 90
        2
176
     1
  1
strokes_ogs.tif
176
     1
290
     0
176
     1
 40
1.0
176
     1
 40
1.0
176
     1
  0
VISUALSTYLE
  5
36
102
{ACAD_REACTORS
330
2A
102
}
330
2A
100
AcDbVisualStyle
  2
Brighten
 70
    12
177
     3
291
     1
 70
    58
 90
        2
176
     1
 90
        2
176
     1
 90
        0
176
     1
 90
        0
176
     1
 40
0.6
176
     1
 40
30.0
176
     1
 62
     7
420
 16777215
176
     1
 90
        1
176
     1
 90
        4
176
     1
 62
     7
176
     1
 62
   257
176
     1
 90
        1
176
     1
 90
        1
176
     1
 40
1.0
176
     1
 90
        8
176
     1
 62
     7
176
     1
 40
1.0
176
     1
 90
        1
176
     1
 90
        6
176
     1
 90
        2
176
     1
 62
     7
176
     1
 90
        5
176
     1
 90
        0
176
     1
 90
        0
176
     1
290
     0
176
     1
 90
        1
176
     1
 40
50.0
176
     1
 90
        0
176
     1
290
     0
176
     1
290
     1
176
     1
290
     1
176
     1
290
     0
176
     1
290
     0
176
     1
290
     0
176
     1
290
     0
176
     1
290
     0
176
     1
290
     0
176
     1
 90
       50
176
     1
 40
0.0
176
     1
 40
1.0
176
     1
 90
        0
176
     1
 62
    18
420
        0
176
     1
 90
       50
176
     1
 90
        3
176
     1
 62
     5
420
      255
176
     1
290
     0
176
     1
 90
       50
176
     1
 90
       50
176
     1
 90
       50
176
     1
290
     0
176
     1
 90
       50
176
     1
 62
   256
176
     0
 40
1.0
176
     0
 90
        2
176
     1
  1
strokes_ogs.tif
176
     1
290
     0
176
     1
 40
1.0
176
     1
 40
1.0
176
     1
  0
VISUALSTYLE
  5
3A
102
{ACAD_REACTORS
330
2A
102
}
330
2A
100
AcDbVisualStyle
  2
ColorChange
 70
    16
177
     3
291
     1
 70
    58
 90
        2
176
     1
 90
        2
176
     1
 90
        3
176
     1
 90
        0
176
     1
 40
0.6
176
     1
 40
30.0
176
     1
 62
     8
420
  8421504
176
     1
 90
        1
176
     1
 90
        4
176
     1
 62
     7
176
     1
 62
   257
176
     1
 90
        1
176
     1
 90
        1
176
     1
 40
1.0
176
     1
 90
        8
176
     1
 62
     8
420
  8421504
176
     1
 40
1.0
176
     1
 90
        1
176
     1
 90
        6
176
     1
 90
        2
176
     1
 62
     7
176
     1
 90
        5
176
     1
 90
        0
176
     1
 90
        0
176
     1
290
     0
176
     1
 90
        1
176
     1
 40
0.0
176
     1
 90
        0
176
     1
290
     0
176
     1
290
     1
176
     1
290
     1
176
     1
290
     0
176
     1
290
     0
176
     1
290
     0
176
     1
290
     0
176
     1
290
     0
176
     1
290
     0
176
     1
 90
       50
176
     1
 40
0.0
176
     1
 40
1.0
176
     1
 90
        0
176
     1
 62
    18
420
        0
176
     1
 90
       50
176
     1
 90
        3
176
     1
 62
     5
420
      255
176
     1
290
     0
176
     1
 90
       50
176
     1
 90
       50
176
     1
 90
       50
176
     1
290
     0
176
     1
 90
       50
176
     1
 62
   256
176
     0
 40
1.0
176
     0
 90
        2
176
     1
  1
strokes_ogs.tif
176
     1
290
     0
176
     1
 40
1.0
176
     1
 40
1.0
176
     1
  0
VISUALSTYLE
  5
34
102
{ACAD_REACTORS
330
2A
102
}
330
2A
100
AcDbVisualStyle
  2
Conceptual
 70
     9
177
     3
291
     0
 70
    58
 90
        3
176
     1
 90
        2
176
     1
 90
        0
176
     1
 90
        0
176
     1
 40
0.6
176
     1
 40
30.0
176
     1
 62
     7
420
 16777215
176
     1
 90
        2
176
     1
 90
        2
176
     1
 62
     7
176
     1
 62
   257
176
     1
 90
        1
176
     1
 90
        1
176
     1
 40
179.0
176
     1
 90
        8
176
     1
 62
     7
176
     1
 40
1.0
176
     1
 90
        1
176
     1
 90
        6
176
     1
 90
        2
176
     1
 62
     7
176
     1
 90
        3
176
     1
 90
        0
176
     1
 90
        0
176
     1
290
     0
176
     1
 90
        1
176
     1
 40
0.0
176
     1
 90
        0
176
     1
290
     0
176
     1
290
     1
176
     1
290
     1
176
     1
290
     0
176
     1
290
     0
176
     1
290
     0
176
     1
290
     0
176
     1
290
     0
176
     1
290
     0
176
     1
 90
       50
176
     1
 40
0.0
176
     1
 40
1.0
176
     1
 90
        0
176
     1
 62
    18
420
        0
176
     1
 90
       50
176
     1
 90
        3
176
     1
 62
     5
420
      255
176
     1
290
     0
176
     1
 90
       50
176
     1
 90
       50
176
     1
 90
       50
176
     1
290
     0
176
     1
 90
       50
176
     1
 62
   256
176
     0
 40
1.0
176
     0
 90
        2
176
     1
  1
strokes_ogs.tif
176
     1
290
     0
176
     1
 40
1.0
176
     1
 40
1.0
176
     1
  0
VISUALSTYLE
  5
35
102
{ACAD_REACTORS
330
2A
102
}
330
2A
100
AcDbVisualStyle
  2
Dim
 70
    11
177
     3
291
     1
 70
    58
 90
        2
176
     1
 90
        2
176
     1
 90
        0
176
     1
 90
        0
176
     1
 40
0.6
176
     1
 40
30.0
176
     1
 62
     7
420
 16777215
176
     1
 90
        1
176
     1
 90
        4
176
     1
 62
     7
176
     1
 62
   257
176
     1
 90
        1
176
     1
 90
        1
176
     1
 40
1.0
176
     1
 90
        8
176
     1
 62
     7
176
     1
 40
1.0
176
     1
 90
        1
176
     1
 90
        6
176
     1
 90
        2
176
     1
 62
     7
176
     1
 90
        5
176
     1
 90
        0
176
     1
 90
        0
176
     1
290
     0
176
     1
 90
        1
176
     1
 40
-50.0
176
     1
 90
        0
176
     1
290
     0
176
     1
290
     1
176
     1
290
     1
176
     1
290
     0
176
     1
290
     0
176
     1
290
     0
176
     1
290
     0
176
     1
290
     0
176
     1
290
     0
176
     1
 90
       50
176
     1
 40
0.0
176
     1
 40
1.0
176
     1
 90
        0
176
     1
 62
    18
420
        0
176
     1
 90
       50
176
     1
 90
        3
176
     1
 62
     5
420
      255
176
     1
290
     0
176
     1
 90
       50
176
     1
 90
       50
176
     1
 90
       50
176
     1
290
     0
176
     1
 90
       50
176
     1
 62
   256
176
     0
 40
1.0
176
     0
 90
        2
176
     1
  1
strokes_ogs.tif
176
     1
290
     0
176
     1
 40
1.0
176
     1
 40
1.0
176
     1
  0
VISUALSTYLE
  5
3D
102
{ACAD_REACTORS
330
2A
102
}
330
2A
100
AcDbVisualStyle
  2
EdgeColorOff
 70
    22
177
     3
291
     1
 70
    58
 90
        2
176
     0
 90
        2
176
     0
 90
        0
176
     0
 90
        0
176
     0
 40
0.6
176
     0
 40
30.0
176
     0
 62
     7
420
 16777215
176
     0
 90
        1
176
     0
 90
        4
176
     0
 62
     7
176
     0
 62
   257
176
     0
 90
        1
176
     0
 90
        1
176
     0
 40
1.0
176
     0
 90
        8
176
     2
 62
     7
176
     0
 40
1.0
176
     0
 90
        1
176
     0
 90
        6
176
     0
 90
        2
176
     0
 62
     7
176
     0
 90
        5
176
     0
 90
        0
176
     0
 90
        0
176
     0
290
     0
176
     0
 90
        1
176
     0
 40
0.0
176
     0
 90
        0
176
     0
290
     0
176
     0
290
     1
176
     0
290
     1
176
     0
290
     0
176
     0
290
     0
176
     0
290
     0
176
     0
290
     0
176
     0
290
     0
176
     0
290
     0
176
     0
 90
       50
176
     0
 40
0.0
176
     0
 40
1.0
176
     0
 90
        0
176
     0
 62
    18
420
        0
176
     0
 90
       50
176
     0
 90
        3
176
     0
 62
     5
420
      255
176
     0
290
     0
176
     0
 90
       50
176
     0
 90
       50
176
     0
 90
       50
176
     0
290
     0
176
     0
 90
       50
176
     0
 62
   256
176
     0
 40
1.0
176
     0
 90
        2
176
     0
  1
strokes_ogs.tif
176
     0
290
     0
176
     0
 40
1.0
176
     0
 40
1.0
176
     0
  0
VISUALSTYLE
  5
39
102
{ACAD_REACTORS
330
2A
102
}
330
2A
100
AcDbVisualStyle
  2
Facepattern
 70
    15
177
     3
291
     1
 70
    58
 90
        2
176
     1
 90
        2
176
     1
 90
        0
176
     1
 90
        0
176
     1
 40
0.6
176
     1
 40
30.0
176
     1
 62
     7
420
 16777215
176
     1
 90
        1
176
     1
 90
        4
176
     1
 62
     7
176
     1
 62
   257
176
     1
 90
        1
176
     1
 90
        1
176
     1
 40
1.0
176
     1
 90
        8
176
     1
 62
     7
176
     1
 40
1.0
176
     1
 90
        1
176
     1
 90
        6
176
     1
 90
        2
176
     1
 62
     7
176
     1
 90
        5
176
     1
 90
        0
176
     1
 90
        0
176
     1
290
     0
176
     1
 90
        1
176
     1
 40
0.0
176
     1
 90
        0
176
     1
290
     0
176
     1
290
     1
176
     1
290
     1
176
     1
290
     0
176
     1
290
     0
176
     1
290
     0
176
     1
290
     0
176
     1
290
     0
176
     1
290
     0
176
     1
 90
       50
176
     1
 40
0.0
176
     1
 40
1.0
176
     1
 90
        0
176
     1
 62
    18
420
        0
176
     1
 90
       50
176
     1
 90
        3
176
     1
 62
     5
420
      255
176
     1
290
     0
176
     1
 90
       50
176
     1
 90
       50
176
     1
 90
       50
176
     1
290
     0
176
     1
 90
       50
176
     1
 62
   256
176
     0
 40
1.0
176
     0
 90
        2
176
     1
  1
strokes_ogs.tif
176
     1
290
     0
176
     1
 40
1.0
176
     1
 40
1.0
176
     1
  0
VISUALSTYLE
  5
2B
102
{ACAD_REACTORS
330
2A
102
}
330
2A
100
AcDbVisualStyle
  2
Flat
 70
     0
177
     3
291
     1
 70
    58
 90
        2
176
     1
 90
        1
176
     1
 90
        1
176
     1
 90
        2
176
     1
 40
0.6
176
     1
 40
30.0
176
     1
 62
     7
420
 16777215
176
     1
 90
        0
176
     1
 90
        0
176
     1
 62
     7
176
     1
 62
   257
176
     1
 90
        1
176
     1
 90
        1
176
     1
 40
1.0
176
     1
 90
        8
176
     1
 62
     7
176
     1
 40
1.0
176
     1
 90
        1
176
     1
 90
        6
176
     1
 90
        2
176
     1
 62
     7
176
     1
 90
        5
176
     1
 90
        0
176
     1
 90
        0
176
     1
290
     0
176
     1
 90
       13
176
     1
 40
0.0
176
     1
 90
        0
176
     1
290
     0
176
     1
290
     1
176
     1
290
     1
176
     1
290
     0
176
     1
290
     0
176
     1
290
     0
176
     1
290
     0
176
     1
290
     0
176
     1
290
     0
176
     1
 90
       50
176
     1
 40
0.0
176
     1
 40
1.0
176
     1
 90
        0
176
     1
 62
    18
420
        0
176
     1
 90
       50
176
     1
 90
        3
176
     1
 62
     5
420
      255
176
     1
290
     0
176
     1
 90
       50
176
     1
 90
       50
176
     1
 90
       50
176
     1
290
     0
176
     1
 90
       50
176
     1
 62
   256
176
     0
 40
1.0
176
     0
 90
        2
176
     1
  1
strokes_ogs.tif
176
     1
290
     0
176
     1
 40
1.0
176
     1
 40
1.0
176
     1
  0
VISUALSTYLE
  5
2C
102
{ACAD_REACTORS
330
2A
102
}
330
2A
100
AcDbVisualStyle
  2
FlatWithEdges
 70
     1
177
     3
291
     1
 70
    58
 90
        2
176
     1
 90
        1
176
     1
 90
        1
176
     1
 90
        2
176
     1
 40
0.6
176
     1
 40
30.0
176
     1
 62
     7
420
 16777215
176
     1
 90
        1
176
     1
 90
        0
176
     1
 62
     7
176
     1
 62
   257
176
     1
 90
        1
176
     1
 90
        1
176
     1
 40
1.0
176
     1
 90
        0
176
     1
 62
   257
176
     1
 40
1.0
176
     1
 90
        1
176
     1
 90
        6
176
     1
 90
        2
176
     1
 62
     7
176
     1
 90
        5
176
     1
 90
        0
176
     1
 90
        0
176
     1
290
     0
176
     1
 90
       13
176
     1
 40
0.0
176
     1
 90
        0
176
     1
290
     0
176
     1
290
     1
176
     1
290
     1
176
     1
290
     0
176
     1
290
     0
176
     1
290
     0
176
     1
290
     0
176
     1
290
     0
176
     1
290
     0
176
     1
 90
       50
176
     1
 40
0.0
176
     1
 40
1.0
176
     1
 90
        0
176
     1
 62
    18
420
        0
176
     1
 90
       50
176
     1
 90
        3
176
     1
 62
     5
420
      255
176
     1
290
     0
176
     1
 90
       50
176
     1
 90
       50
176
     1
 90
       50
176
     1
290
     0
176
     1
 90
       50
176
     1
 62
   256
176
     0
 40
1.0
176
     0
 90
        2
176
     1
  1
strokes_ogs.tif
176
     1
290
     0
176
     1
 40
1.0
176
     1
 40
1.0
176
     1
  0
VISUALSTYLE
  5
2D
102
{ACAD_REACTORS
330
2A
102
}
330
2A
100
AcDbVisualStyle
  2
Gouraud
 70
     2
177
     3
291
     1
 70
    58
 90
        2
176
     1
 90
        2
176
     1
 90
        1
176
     1
 90
        2
176
     1
 40
0.6
176
     1
 40
30.0
176
     1
 62
     7
420
 16777215
176
     1
 90
        0
176
     1
 90
        0
176
     1
 62
     7
176
     1
 62
   257
176
     1
 90
        1
176
     1
 90
        1
176
     1
 40
1.0
176
     1
 90
        0
176
     1
 62
     7
176
     1
 40
1.0
176
     1
 90
        1
176
     1
 90
        6
176
     1
 90
        2
176
     1
 62
     7
176
     1
 90
        5
176
     1
 90
        0
176
     1
 90
        0
176
     1
290
     0
176
     1
 90
       13
176
     1
 40
0.0
176
     1
 90
        0
176
     1
290
     0
176
     1
290
     1
176
     1
290
     1
176
     1
290
     0
176
     1
290
     0
176
     1
290
     0
176
     1
290
     0
176
     1
290
     0
176
     1
290
     0
176
     1
 90
       50
176
     1
 40
0.0
176
     1
 40
1.0
176
     1
 90
        0
176
     1
 62
    18
420
        0
176
     1
 90
       50
176
     1
 90
        3
176
     1
 62
     5
420
      255
176
     1
290
     0
176
     1
 90
       50
176
     1
 90
       50
176
     1
 90
       50
176
     1
290
     0
176
     1
 90
       50
176
     1
 62
   256
176
     0
 40
1.0
176
     0
 90
        2
176
     1
  1
strokes_ogs.tif
176
     1
290
     0
176
     1
 40
1.0
176
     1
 40
1.0
176
     1
  0
VISUALSTYLE
  5
2E
102
{ACAD_REACTORS
330
2A
102
}
330
2A
100
AcDbVisualStyle
  2
GouraudWithEdges
 70
     3
177
     3
291
     1
 70
    58
 90
        2
176
     1
 90
        2
176
     1
 90
        1
176
     1
 90
        2
176
     1
 40
0.6
176
     1
 40
30.0
176
     1
 62
     7
420
 16777215
176
     1
 90
        1
176
     1
 90
        0
176
     1
 62
     7
176
     1
 62
   257
176
     1
 90
        1
176
     1
 90
        1
176
     1
 40
1.0
176
     1
 90
        0
176
     1
 62
   257
176
     1
 40
1.0
176
     1
 90
        1
176
     1
 90
        6
176
     1
 90
        2
176
     1
 62
     7
176
     1
 90
        5
176
     1
 90
        0
176
     1
 90
        0
176
     1
290
     0
176
     1
 90
       13
176
     1
 40
0.0
176
     1
 90
        0
176
     1
290
     0
176
     1
290
     1
176
     1
290
     1
176
     1
290
     0
176
     1
290
     0
176
     1
290
     0
176
     1
290
     0
176
     1
290
     0
176
     1
290
     0
176
     1
 90
       50
176
     1
 40
0.0
176
     1
 40
1.0
176
     1
 90
        0
176
     1
 62
    18
420
        0
176
     1
 90
       50
176
     1
 90
        3
176
     1
 62
     5
420
      255
176
     1
290
     0
176
     1
 90
       50
176
     1
 90
       50
176
     1
 90
       50
176
     1
290
     0
176
     1
 90
       50
176
     1
 62
   256
176
     0
 40
1.0
176
     0
 90
        2
176
     1
  1
strokes_ogs.tif
176
     1
290
     0
176
     1
 40
1.0
176
     1
 40
1.0
176
     1
  0
VISUALSTYLE
  5
31
102
{ACAD_REACTORS
330
2A
102
}
330
2A
100
AcDbVisualStyle
  2
Hidden
 70
     6
177
     3
291
     0
 70
    58
 90
        1
176
     1
 90
        2
176
     1
 90
        2
176
     1
 90
        0
176
     1
 40
0.6
176
     1
 40
30.0
176
     1
 62
     7
420
 16777215
176
     1
 90
        2
176
     1
 90
        2
176
     1
 62
     7
176
     1
 62
   257
176
     1
 90
        2
176
     1
 90
        1
176
     1
 40
40.0
176
     1
 90
        0
176
     1
 62
   257
176
     1
 40
1.0
176
     1
 90
        1
176
     1
 90
        6
176
     1
 90
        2
176
     1
 62
     7
176
     1
 90
        3
176
     1
 90
        0
176
     1
 90
        0
176
     1
290
     0
176
     1
 90
        1
176
     1
 40
0.0
176
     1
 90
        0
176
     1
290
     0
176
     1
290
     1
176
     1
290
     1
176
     1
290
     0
176
     1
290
     0
176
     1
290
     0
176
     1
290
     0
176
     1
290
     0
176
     1
290
     0
176
     1
 90
       50
176
     1
 40
0.0
176
     1
 40
1.0
176
     1
 90
        0
176
     1
 62
    18
420
        0
176
     1
 90
       50
176
     1
 90
        3
176
     1
 62
     5
420
      255
176
     1
290
     0
176
     1
 90
       50
176
     1
 90
       50
176
     1
 90
       50
176
     1
290
     0
176
     1
 90
       50
176
     1
 62
   256
176
     0
 40
1.0
176
     0
 90
        2
176
     1
  1
strokes_ogs.tif
176
     1
290
     0
176
     1
 40
1.0
176
     1
 40
1.0
176
     1
  0
VISUALSTYLE
  5
3B
102
{ACAD_REACTORS
330
2A
102
}
330
2A
100
AcDbVisualStyle
  2
JitterOff
 70
    20
177
     3
291
     1
 70
    58
 90
        2
176
     0
 90
        2
176
     0
 90
        0
176
     0
 90
        0
176
     0
 40
0.6
176
     0
 40
30.0
176
     0
 62
     7
420
 16777215
176
     0
 90
        1
176
     0
 90
        4
176
     0
 62
     7
176
     0
 62
   257
176
     0
 90
        1
176
     0
 90
        1
176
     0
 40
1.0
176
     0
 90
       10
176
     2
 62
     7
176
     0
 40
1.0
176
     0
 90
        1
176
     0
 90
        6
176
     0
 90
        2
176
     0
 62
     7
176
     0
 90
        5
176
     0
 90
        0
176
     0
 90
        0
176
     0
290
     0
176
     0
 90
        1
176
     0
 40
0.0
176
     0
 90
        0
176
     0
290
     0
176
     0
290
     1
176
     0
290
     1
176
     0
290
     0
176
     0
290
     0
176
     0
290
     0
176
     0
290
     0
176
     0
290
     0
176
     0
290
     0
176
     0
 90
       50
176
     0
 40
0.0
176
     0
 40
1.0
176
     0
 90
        0
176
     0
 62
    18
420
        0
176
     0
 90
       50
176
     0
 90
        3
176
     0
 62
     5
420
      255
176
     0
290
     0
176
     0
 90
       50
176
     0
 90
       50
176
     0
 90
       50
176
     0
290
     0
176
     0
 90
       50
176
     0
 62
   256
176
     0
 40
1.0
176
     0
 90
        2
176
     0
  1
strokes_ogs.tif
176
     0
290
     0
176
     0
 40
1.0
176
     0
 40
1.0
176
     0
  0
VISUALSTYLE
  5
38
102
{ACAD_REACTORS
330
2A
102
}
330
2A
100
AcDbVisualStyle
  2
Linepattern
 70
    14
177
     3
291
     1
 70
    58
 90
        2
176
     1
 90
        2
176
     1
 90
        0
176
     1
 90
        0
176
     1
 40
0.6
176
     1
 40
30.0
176
     1
 62
     7
420
 16777215
176
     1
 90
        1
176
     1
 90
        4
176
     1
 62
     7
176
     1
 62
   257
176
     1
 90
        7
176
     1
 90
        7
176
     1
 40
1.0
176
     1
 90
        8
176
     1
 62
     7
176
     1
 40
1.0
176
     1
 90
        1
176
     1
 90
        6
176
     1
 90
        2
176
     1
 62
     7
176
     1
 90
        5
176
     1
 90
        0
176
     1
 90
        0
176
     1
290
     0
176
     1
 90
        1
176
     1
 40
0.0
176
     1
 90
        0
176
     1
290
     0
176
     1
290
     1
176
     1
290
     1
176
     1
290
     0
176
     1
290
     0
176
     1
290
     0
176
     1
290
     0
176
     1
290
     0
176
     1
290
     0
176
     1
 90
       50
176
     1
 40
0.0
176
     1
 40
1.0
176
     1
 90
        0
176
     1
 62
    18
420
        0
176
     1
 90
       50
176
     1
 90
        3
176
     1
 62
     5
420
      255
176
     1
290
     0
176
     1
 90
       50
176
     1
 90
       50
176
     1
 90
       50
176
     1
290
     0
176
     1
 90
       50
176
     1
 62
   256
176
     0
 40
1.0
176
     0
 90
        2
176
     1
  1
strokes_ogs.tif
176
     1
290
     0
176
     1
 40
1.0
176
     1
 40
1.0
176
     1
  0
VISUALSTYLE
  5
3C
102
{ACAD_REACTORS
330
2A
102
}
330
2A
100
AcDbVisualStyle
  2
OverhangOff
 70
    21
177
     3
291
     1
 70
    58
 90
        2
176
     0
 90
        2
176
     0
 90
        0
176
     0
 90
        0
176
     0
 40
0.6
176
     0
 40
30.0
176
     0
 62
     7
420
 16777215
176
     0
 90
        1
176
     0
 90
        4
176
     0
 62
     7
176
     0
 62
   257
176
     0
 90
        1
176
     0
 90
        1
176
     0
 40
1.0
176
     0
 90
        9
176
     2
 62
     7
176
     0
 40
1.0
176
     0
 90
        1
176
     0
 90
        6
176
     0
 90
        2
176
     0
 62
     7
176
     0
 90
        5
176
     0
 90
        0
176
     0
 90
        0
176
     0
290
     0
176
     0
 90
        1
176
     0
 40
0.0
176
     0
 90
        0
176
     0
290
     0
176
     0
290
     1
176
     0
290
     1
176
     0
290
     0
176
     0
290
     0
176
     0
290
     0
176
     0
290
     0
176
     0
290
     0
176
     0
290
     0
176
     0
 90
       50
176
     0
 40
0.0
176
     0
 40
1.0
176
     0
 90
        0
176
     0
 62
    18
420
        0
176
     0
 90
       50
176
     0
 90
        3
176
     0
 62
     5
420
      255
176
     0
290
     0
176
     0
 90
       50
176
     0
 90
       50
176
     0
 90
       50
176
     0
290
     0
176
     0
 90
       50
176
     0
 62
   256
176
     0
 40
1.0
176
     0
 90
        2
176
     0
  1
strokes_ogs.tif
176
     0
290
     0
176
     0
 40
1.0
176
     0
 40
1.0
176
     0
  0
VISUALSTYLE
  5
33
102
{ACAD_REACTORS
330
2A
102
}
330
2A
100
AcDbVisualStyle
  2
Realistic
 70
     8
177
     3
291
     0
 70
    58
 90
        2
176
     1
 90
        3
176
     1
 90
        0
176
     1
 90
        2
176
     1
 40
0.6
176
     1
 40
30.0
176
     1
 62
     7
420
 16777215
176
     1
 90
        0
176
     1
 90
        0
176
     1
 62
     7
176
     1
 62
   257
176
     1
 90
        1
176
     1
 90
        1
176
     1
 40
1.0
176
     1
 90
        8
176
     1
 62
   257
176
     1
 40
1.0
176
     1
 90
        1
176
     1
 90
        6
176
     1
 90
        2
176
     1
 62
     7
176
     1
 90
        3
176
     1
 90
        0
176
     1
 90
        0
176
     1
290
     0
176
     1
 90
       13
176
     1
 40
0.0
176
     1
 90
        0
176
     1
290
     0
176
     1
290
     1
176
     1
290
     1
176
     1
290
     0
176
     1
290
     0
176
     1
290
     0
176
     1
290
     0
176
     1
290
     0
176
     1
290
     0
176
     1
 90
       50
176
     1
 40
0.0
176
     1
 40
1.0
176
     1
 90
        0
176
     1
 62
    18
420
        0
176
     1
 90
       50
176
     1
 90
        3
176
     1
 62
     5
420
      255
176
     1
290
     0
176
     1
 90
       50
176
     1
 90
       50
176
     1
 90
       50
176
     1
290
     0
176
     1
 90
       50
176
     1
 62
   256
176
     0
 40
1.0
176
     0
 90
        2
176
     1
  1
strokes_ogs.tif
176
     1
290
     0
176
     1
 40
1.0
176
     1
 40
1.0
176
     1
  0
VISUALSTYLE
  5
42
102
{ACAD_REACTORS
330
2A
102
}
330
2A
100
AcDbVisualStyle
  2
Shaded
 70
    27
177
     3
291
     0
 70
    58
 90
        2
176
     1
 90
        2
176
     1
 90
        1
176
     1
 90
        2
176
     1
 40
0.6
176
     1
 40
30.0
176
     1
 62
     7
420
 16777215
176
     1
 90
        0
176
     1
 90
        4
176
     1
 62
     7
176
     1
 62
   257
176
     1
 90
        1
176
     1
 90
        1
176
     1
 40
1.0
176
     1
 90
        8
176
     1
 62
   257
176
     1
 40
1.0
176
     1
 90
        1
176
     1
 90
        6
176
     1
 90
        2
176
     1
 62
     8
420
  7895160
176
     1
 90
        3
176
     1
 90
        0
176
     1
 90
        0
176
     1
290
     0
176
     1
 90
        5
176
     1
 40
0.0
176
     1
 90
        0
176
     1
290
     0
176
     1
290
     1
176
     1
290
     1
176
     1
290
     0
176
     1
290
     0
176
     1
290
     0
176
     1
290
     0
176
     1
290
     0
176
     1
290
     0
176
     1
 90
       50
176
     1
 40
0.0
176
     1
 40
1.0
176
     1
 90
        0
176
     1
 62
    18
420
        0
176
     1
 90
       50
176
     1
 90
        3
176
     1
 62
     5
420
      255
176
     1
290
     0
176
     1
 90
       50
176
     1
 90
       50
176
     1
 90
       50
176
     1
290
     0
176
     1
 90
       50
176
     1
 62
   256
176
     0
 40
1.0
176
     0
 90
        2
176
     1
  1
strokes_ogs.tif
176
     1
290
     0
176
     1
 40
1.0
176
     1
 40
1.0
176
     1
  0
VISUALSTYLE
  5
41
102
{ACAD_REACTORS
330
2A
102
}
330
2A
100
AcDbVisualStyle
  2
Shaded with edges
 70
    26
177
     3
291
     0
 70
    58
 90
        2
176
     1
 90
        2
176
     1
 90
        1
176
     1
 90
        2
176
     1
 40
0.6
176
     1
 40
30.0
176
     1
 62
     7
420
 16777215
176
     1
 90
        1
176
     1
 90
       10
176
     1
 62
     7
176
     1
 62
   257
176
     1
 90
        2
176
     1
 90
        1
176
     1
 40
1.0
176
     1
 90
        8
176
     1
 62
   257
176
     1
 40
1.0
176
     1
 90
        1
176
     1
 90
        6
176
     1
 90
        2
176
     1
 62
     7
176
     1
 90
        3
176
     1
 90
        0
176
     1
 90
        0
176
     1
290
     0
176
     1
 90
        5
176
     1
 40
0.0
176
     1
 90
        0
176
     1
290
     0
176
     1
290
     1
176
     1
290
     1
176
     1
290
     0
176
     1
290
     0
176
     1
290
     0
176
     1
290
     0
176
     1
290
     0
176
     1
290
     0
176
     1
 90
       50
176
     1
 40
0.0
176
     1
 40
1.0
176
     1
 90
        0
176
     1
 62
    18
420
        0
176
     1
 90
       50
176
     1
 90
        3
176
     1
 62
     5
420
      255
176
     1
290
     0
176
     1
 90
       50
176
     1
 90
       50
176
     1
 90
       50
176
     1
290
     0
176
     1
 90
       50
176
     1
 62
   256
176
     0
 40
1.0
176
     0
 90
        2
176
     1
  1
strokes_ogs.tif
176
     1
290
     0
176
     1
 40
1.0
176
     1
 40
1.0
176
     1
  0
VISUALSTYLE
  5
3E
102
{ACAD_REACTORS
330
2A
102
}
330
2A
100
AcDbVisualStyle
  2
Shades of Gray
 70
    23
177
     3
291
     0
 70
    58
 90
        2
176
     1
 90
        2
176
     1
 90
        3
176
     1
 90
        0
176
     1
 40
0.6
176
     1
 40
30.0
176
     1
 62
     7
420
 16777215
176
     1
 90
        2
176
     1
 90
        2
176
     1
 62
     7
176
     1
 62
     7
176
     1
 90
        1
176
     1
 90
        1
176
     1
 40
40.0
176
     1
 90
        8
176
     1
 62
     7
176
     1
 40
1.0
176
     1
 90
        1
176
     1
 90
        6
176
     1
 90
        2
176
     1
 62
     7
176
     1
 90
        3
176
     1
 90
        0
176
     1
 90
        0
176
     1
290
     0
176
     1
 90
        1
176
     1
 40
0.0
176
     1
 90
        0
176
     1
290
     0
176
     1
290
     1
176
     1
290
     1
176
     1
290
     0
176
     1
290
     0
176
     1
290
     0
176
     1
290
     0
176
     1
290
     0
176
     1
290
     0
176
     1
 90
       50
176
     1
 40
0.0
176
     1
 40
1.0
176
     1
 90
        0
176
     1
 62
    18
420
        0
176
     1
 90
       50
176
     1
 90
        3
176
     1
 62
     5
420
      255
176
     1
290
     0
176
     1
 90
       50
176
     1
 90
       50
176
     1
 90
       50
176
     1
290
     0
176
     1
 90
       50
176
     1
 62
   256
176
     0
 40
1.0
176
     0
 90
        2
176
     1
  1
strokes_ogs.tif
176
     1
290
     0
176
     1
 40
1.0
176
     1
 40
1.0
176
     1
  0
VISUALSTYLE
  5
3F
102
{ACAD_REACTORS
330
2A
102
}
330
2A
100
AcDbVisualStyle
  2
Sketchy
 70
    24
177
     3
291
     0
 70
    58
 90
        1
176
     1
 90
        2
176
     1
 90
        2
176
     1
 90
        0
176
     1
 40
0.6
176
     1
 40
30.0
176
     1
 62
     7
420
 16777215
176
     1
 90
        2
176
     1
 90
        2
176
     1
 62
     7
176
     1
 62
     7
176
     1
 90
        1
176
     1
 90
        1
176
     1
 40
40.0
176
     1
 90
       11
176
     1
 62
     7
176
     1
 40
1.0
176
     1
 90
        1
176
     1
 90
        6
176
     1
 90
        2
176
     1
 62
     7
176
     1
 90
        6
176
     1
 90
        0
176
     1
 90
        0
176
     1
290
     0
176
     1
 90
        1
176
     1
 40
0.0
176
     1
 90
        0
176
     1
290
     0
176
     1
290
     1
176
     1
290
     1
176
     1
290
     0
176
     1
290
     0
176
     1
290
     0
176
     1
290
     0
176
     1
290
     0
176
     1
290
     0
176
     1
 90
       50
176
     1
 40
0.0
176
     1
 40
1.0
176
     1
 90
        0
176
     1
 62
    18
420
        0
176
     1
 90
       50
176
     1
 90
        3
176
     1
 62
     5
420
      255
176
     1
290
     0
176
     1
 90
       50
176
     1
 90
       50
176
     1
 90
       50
176
     1
290
     0
176
     1
 90
       50
176
     1
 62
   256
176
     0
 40
1.0
176
     0
 90
        2
176
     1
  1
strokes_ogs.tif
176
     1
290
     0
176
     1
 40
1.0
176
     1
 40
1.0
176
     1
  0
VISUALSTYLE
  5
37
102
{ACAD_REACTORS
330
2A
102
}
330
2A
100
AcDbVisualStyle
  2
Thicken
 70
    13
177
     3
291
     1
 70
    58
 90
        2
176
     1
 90
        2
176
     1
 90
        0
176
     1
 90
        0
176
     1
 40
0.6
176
     1
 40
30.0
176
     1
 62
     7
420
 16777215
176
     1
 90
        1
176
     1
 90
        4
176
     1
 62
     7
176
     1
 62
   257
176
     1
 90
        1
176
     1
 90
        1
176
     1
 40
1.0
176
     1
 90
       12
176
     1
 62
     7
176
     1
 40
1.0
176
     1
 90
        1
176
     1
 90
        6
176
     1
 90
        2
176
     1
 62
     7
176
     1
 90
        5
176
     1
 90
        0
176
     1
 90
        0
176
     1
290
     0
176
     1
 90
        1
176
     1
 40
0.0
176
     1
 90
        0
176
     1
290
     0
176
     1
290
     1
176
     1
290
     1
176
     1
290
     0
176
     1
290
     0
176
     1
290
     0
176
     1
290
     0
176
     1
290
     0
176
     1
290
     0
176
     1
 90
       50
176
     1
 40
0.0
176
     1
 40
1.0
176
     1
 90
        0
176
     1
 62
    18
420
        0
176
     1
 90
       50
176
     1
 90
        3
176
     1
 62
     5
420
      255
176
     1
290
     0
176
     1
 90
       50
176
     1
 90
       50
176
     1
 90
       50
176
     1
290
     0
176
     1
 90
       50
176
     1
 62
   256
176
     0
 40
1.0
176
     0
 90
        2
176
     1
  1
strokes_ogs.tif
176
     1
290
     0
176
     1
 40
1.0
176
     1
 40
1.0
176
     1
  0
VISUALSTYLE
  5
30
102
{ACAD_REACTORS
330
2A
102
}
330
2A
100
AcDbVisualStyle
  2
Wireframe
 70
     5
177
     3
291
     0
 70
    58
 90
        0
176
     1
 90
        2
176
     1
 90
        0
176
     1
 90
        0
176
     1
 40
0.6
176
     1
 40
30.0
176
     1
 62
     7
420
 16777215
176
     1
 90
        1
176
     1
 90
        4
176
     1
 62
     7
176
     1
 62
   257
176
     1
 90
        1
176
     1
 90
        1
176
     1
 40
1.0
176
     1
 90
        0
176
     1
 62
   257
176
     1
 40
1.0
176
     1
 90
        1
176
     1
 90
        6
176
     1
 90
        2
176
     1
 62
     7
176
     1
 90
        3
176
     1
 90
        0
176
     1
 90
        0
176
     1
290
     0
176
     1
 90
        1
176
     1
 40
0.0
176
     1
 90
        0
176
     1
290
     0
176
     1
290
     1
176
     1
290
     1
176
     1
290
     0
176
     1
290
     0
176
     1
290
     0
176
     1
290
     0
176
     1
290
     0
176
     1
290
     0
176
     1
 90
       50
176
     1
 40
0.0
176
     1
 40
1.0
176
     1
 90
        0
176
     1
 62
    18
420
        0
176
     1
 90
       50
176
     1
 90
        3
176
     1
 62
     5
420
      255
176
     1
290
     0
176
     1
 90
       50
176
     1
 90
       50
176
     1
 90
       50
176
     1
290
     0
176
     1
 90
       50
176
     1
 62
   256
176
     0
 40
1.0
176
     0
 90
        2
176
     1
  1
strokes_ogs.tif
176
     1
290
     0
176
     1
 40
1.0
176
     1
 40
1.0
176
     1
  0
VISUALSTYLE
  5
40
102
{ACAD_REACTORS
330
2A
102
}
330
2A
100
AcDbVisualStyle
  2
X-Ray
 70
    25
177
     3
291
     0
 70
    58
 90
        2
176
     1
 90
        2
176
     1
 90
        1
176
     1
 90
        1
176
     1
 40
0.5
176
     1
 40
30.0
176
     1
 62
     7
420
 16777215
176
     1
 90
        1
176
     1
 90
        0
176
     1
 62
     7
176
     1
 62
   257
176
     1
 90
        1
176
     1
 90
        1
176
     1
 40
1.0
176
     1
 90
        8
176
     1
 62
     7
176
     1
 40
1.0
176
     1
 90
        1
176
     1
 90
        6
176
     1
 90
        2
176
     1
 62
     7
176
     1
 90
        3
176
     1
 90
        0
176
     1
 90
        0
176
     1
290
     0
176
     1
 90
       13
176
     1
 40
0.0
176
     1
 90
        0
176
     1
290
     0
176
     1
290
     1
176
     1
290
     1
176
     1
290
     0
176
     1
290
     0
176
     1
290
     0
176
     1
290
     0
176
     1
290
     0
176
     1
290
     0
176
     1
 90
       50
176
     1
 40
0.0
176
     1
 40
1.0
176
     1
 90
        0
176
     1
 62
    18
420
        0
176
     1
 90
       50
176
     1
 90
        3
176
     1
 62
     5
420
      255
176
     1
290
     0
176
     1
 90
       50
176
     1
 90
       50
176
     1
 90
       50
176
     1
290
     0
176
     1
 90
       50
176
     1
 62
   256
176
     0
 40
1.0
176
     0
 90
        2
176
     1
  1
strokes_ogs.tif
176
     1
290
     0
176
     1
 40
1.0
176
     1
 40
1.0
176
     1
  0
DICTIONARYVAR
  5
ED
102
{ACAD_REACTORS
330
EC
102
}
330
EC
100
DictionaryVariables
280
     0
  1
1:1
  0
DICTIONARYVAR
  5
F2
102
{ACAD_REACTORS
330
EC
102
}
330
EC
100
DictionaryVariables
280
     0
  1
Standard
  0
DICTIONARYVAR
  5
F1
102
{ACAD_REACTORS
330
EC
102
}
330
EC
100
DictionaryVariables
280
     0
  1
Standard
  0
DICTIONARY
  5
EE
330
5A
100
AcDbDictionary
280
     1
281
     1
  3
ACAD_ROUNDTRIP_2008_TABLESTYLE_CELLSTYLEMAP
360
EF
  0
CELLSTYLEMAP
  5
EF
102
{ACAD_REACTORS
330
EE
102
}
330
EE
100
AcDbCellStyleMap
 90
        3
300
CELLSTYLE
  1
TABLEFORMAT_BEGIN
 90
        5
170
     1
 91
        0
 92
    32768
 62
   257
 93
        1
300
CONTENTFORMAT
  1
CONTENTFORMAT_BEGIN
 90
        0
 91
        0
 92
        4
 93
        0
300

 40
0.0
140
1.0
 94
        5
 62
     0
340
11
144
0.25
309
CONTENTFORMAT_END
171
     1
301
MARGIN
  1
CELLMARGIN_BEGIN
 40
0.06
 40
0.06
 40
0.06
 40
0.06
 40
0.06
 40
0.06
309
CELLMARGIN_END
 94
        6
 95
        1
302
GRIDFORMAT
  1
GRIDFORMAT_BEGIN
 90
        0
 91
        1
 62
     0
 92
       -2
340
14
 93
        0
 40
0.045
309
GRIDFORMAT_END
 95
        2
302
GRIDFORMAT
  1
GRIDFORMAT_BEGIN
 90
        0
 91
        1
 62
     0
 92
       -2
340
14
 93
        0
 40
0.045
309
GRIDFORMAT_END
 95
        4
302
GRIDFORMAT
  1
GRIDFORMAT_BEGIN
 90
        0
 91
        1
 62
     0
 92
       -2
340
14
 93
        0
 40
0.045
309
GRIDFORMAT_END
 95
        8
302
GRIDFORMAT
  1
GRIDFORMAT_BEGIN
 90
        0
 91
        1
 62
     0
 92
       -2
340
14
 93
        0
 40
0.045
309
GRIDFORMAT_END
 95
       16
302
GRIDFORMAT
  1
GRIDFORMAT_BEGIN
 90
        0
 91
        1
 62
     0
 92
       -2
340
14
 93
        0
 40
0.045
309
GRIDFORMAT_END
 95
       32
302
GRIDFORMAT
  1
GRIDFORMAT_BEGIN
 90
        0
 91
        1
 62
     0
 92
       -2
340
14
 93
        0
 40
0.045
309
GRIDFORMAT_END
309
TABLEFORMAT_END
  1
CELLSTYLE_BEGIN
 90
        1
 91
        1
300
_TITLE
309
CELLSTYLE_END
300
CELLSTYLE
  1
TABLEFORMAT_BEGIN
 90
        5
170
     1
 91
        0
 92
        0
 62
   257
 93
        1
300
CONTENTFORMAT
  1
CONTENTFORMAT_BEGIN
 90
        0
 91
        0
 92
        4
 93
        0
300

 40
0.0
140
1.0
 94
        5
 62
     0
340
11
144
0.18
309
CONTENTFORMAT_END
171
     1
301
MARGIN
  1
CELLMARGIN_BEGIN
 40
0.06
 40
0.06
 40
0.06
 40
0.06
 40
0.06
 40
0.06
309
CELLMARGIN_END
 94
        6
 95
        1
302
GRIDFORMAT
  1
GRIDFORMAT_BEGIN
 90
        0
 91
        1
 62
     0
 92
       -2
340
14
 93
        0
 40
0.045
309
GRIDFORMAT_END
 95
        2
302
GRIDFORMAT
  1
GRIDFORMAT_BEGIN
 90
        0
 91
        1
 62
     0
 92
       -2
340
14
 93
        0
 40
0.045
309
GRIDFORMAT_END
 95
        4
302
GRIDFORMAT
  1
GRIDFORMAT_BEGIN
 90
        0
 91
        1
 62
     0
 92
       -2
340
14
 93
        0
 40
0.045
309
GRIDFORMAT_END
 95
        8
302
GRIDFORMAT
  1
GRIDFORMAT_BEGIN
 90
        0
 91
        1
 62
     0
 92
       -2
340
14
 93
        0
 40
0.045
309
GRIDFORMAT_END
 95
       16
302
GRIDFORMAT
  1
GRIDFORMAT_BEGIN
 90
        0
 91
        1
 62
     0
 92
       -2
340
14
 93
        0
 40
0.045
309
GRIDFORMAT_END
 95
       32
302
GRIDFORMAT
  1
GRIDFORMAT_BEGIN
 90
        0
 91
        1
 62
     0
 92
       -2
340
14
 93
        0
 40
0.045
309
GRIDFORMAT_END
309
TABLEFORMAT_END
  1
CELLSTYLE_BEGIN
 90
        2
 91
        1
300
_HEADER
309
CELLSTYLE_END
300
CELLSTYLE
  1
TABLEFORMAT_BEGIN
 90
        5
170
     1
 91
        0
 92
        0
 62
   257
 93
        1
300
CONTENTFORMAT
  1
CONTENTFORMAT_BEGIN
 90
        0
 91
        0
 92
        4
 93
        0
300

 40
0.0
140
1.0
 94
        2
 62
     0
340
11
144
0.18
309
CONTENTFORMAT_END
171
     1
301
MARGIN
  1
CELLMARGIN_BEGIN
 40
0.06
 40
0.06
 40
0.06
 40
0.06
 40
0.06
 40
0.06
309
CELLMARGIN_END
 94
        6
 95
        1
302
GRIDFORMAT
  1
GRIDFORMAT_BEGIN
 90
        0
 91
        1
 62
     0
 92
       -2
340
14
 93
        0
 40
0.045
309
GRIDFORMAT_END
 95
        2
302
GRIDFORMAT
  1
GRIDFORMAT_BEGIN
 90
        0
 91
        1
 62
     0
 92
       -2
340
14
 93
        0
 40
0.045
309
GRIDFORMAT_END
 95
        4
302
GRIDFORMAT
  1
GRIDFORMAT_BEGIN
 90
        0
 91
        1
 62
     0
 92
       -2
340
14
 93
        0
 40
0.045
309
GRIDFORMAT_END
 95
        8
302
GRIDFORMAT
  1
GRIDFORMAT_BEGIN
 90
        0
 91
        1
 62
     0
 92
       -2
340
14
 93
        0
 40
0.045
309
GRIDFORMAT_END
 95
       16
302
GRIDFORMAT
  1
GRIDFORMAT_BEGIN
 90
        0
 91
        1
 62
     0
 92
       -2
340
14
 93
        0
 40
0.045
309
GRIDFORMAT_END
 95
       32
302
GRIDFORMAT
  1
GRIDFORMAT_BEGIN
 90
        0
 91
        1
 62
     0
 92
       -2
340
14
 93
        0
 40
0.045
309
GRIDFORMAT_END
309
TABLEFORMAT_END
  1
CELLSTYLE_BEGIN
 90
        3
 91
        2
300
_DATA
309
CELLSTYLE_END
  0
ENDSEC
  0
EOF
