  0
SECTION
  2
HEADER
  9
$ACADVER
  1
AC1032
  9
$ACADMAINTVER
 90
       55
  9
$DWGCODEPAGE
  3
ANSI_1251
  9
$LASTSAVEDBY
  1
torde
  9
$REQUIREDVERSIONS
160
                 0
  9
$INSBASE
 10
0.0
 20
0.0
 30
0.0
  9
$EXTMIN
 10
-50.73126
 20
-44.73734
 30
0.0
  9
$EXTMAX
 10
53.92325
 20
43.03977
 30
0.0
  9
$LIMMIN
 10
0.0
 20
0.0
  9
$LIMMAX
 10
12.0
 20
9.0
  9
$ORTHOMODE
 70
     0
  9
$REGENMODE
 70
     1
  9
$FILLMODE
 70
     1
  9
$QTEXTMODE
 70
     0
  9
$MIRRTEXT
 70
     1
  9
$LTSCALE
 40
1.0
  9
$ATTMODE
 70
     1
  9
$TEXTSIZE
 40
0.2
  9
$TRACEWID
 40
0.05
  9
$TEXTSTYLE
  7
Standard
  9
$CLAYER
  8
0
  9
$CELTYPE
  6
ByLayer
  9
$CECOLOR
 62
   256
  9
$CELTSCALE
 40
1.0
  9
$DISPSILH
 70
     0
  9
$DIMSCALE
 40
1.0
  9
$DIMASZ
 40
0.18
  9
$DIMEXO
 40
0.0625
  9
$DIMDLI
 40
0.38
  9
$DIMRND
 40
0.0
  9
$DIMDLE
 40
0.0
  9
$DIMEXE
 40
0.18
  9
$DIMTP
 40
0.0
  9
$DIMTM
 40
0.0
  9
$DIMTXT
 40
0.18
  9
$DIMCEN
 40
0.09
  9
$DIMTSZ
 40
0.0
  9
$DIMTOL
 70
     0
  9
$DIMLIM
 70
     0
  9
$DIMTIH
 70
     1
  9
$DIMTOH
 70
     1
  9
$DIMSE1
 70
     0
  9
$DIMSE2
 70
     0
  9
$DIMTAD
 70
     0
  9
$DIMZIN
 70
     0
  9
$DIMBLK
  1

  9
$DIMASO
 70
     1
  9
$DIMSHO
 70
     1
  9
$DIMPOST
  1

  9
$DIMAPOST
  1

  9
$DIMALT
 70
     0
  9
$DIMALTD
 70
     2
  9
$DIMALTF
 40
25.4
  9
$DIMLFAC
 40
1.0
  9
$DIMTOFL
 70
     0
  9
$DIMTVP
 40
0.0
  9
$DIMTIX
 70
     0
  9
$DIMSOXD
 70
     0
  9
$DIMSAH
 70
     0
  9
$DIMBLK1
  1

  9
$DIMBLK2
  1

  9
$DIMSTYLE
  2
Standard
  9
$DIMCLRD
 70
     0
  9
$DIMCLRE
 70
     0
  9
$DIMCLRT
 70
     0
  9
$DIMTFAC
 40
1.0
  9
$DIMGAP
 40
0.09
  9
$DIMJUST
 70
     0
  9
$DIMSD1
 70
     0
  9
$DIMSD2
 70
     0
  9
$DIMTOLJ
 70
     1
  9
$DIMTZIN
 70
     0
  9
$DIMALTZ
 70
     0
  9
$DIMALTTZ
 70
     0
  9
$DIMUPT
 70
     0
  9
$DIMDEC
 70
     4
  9
$DIMTDEC
 70
     4
  9
$DIMALTU
 70
     2
  9
$DIMALTTD
 70
     2
  9
$DIMTXSTY
  7
Standard
  9
$DIMAUNIT
 70
     0
  9
$DIMADEC
 70
     0
  9
$DIMALTRND
 40
0.0
  9
$DIMAZIN
 70
     0
  9
$DIMDSEP
 70
    46
  9
$DIMATFIT
 70
     3
  9
$DIMFRAC
 70
     0
  9
$DIMLDRBLK
  1

  9
$DIMLUNIT
 70
     2
  9
$DIMLWD
 70
    -2
  9
$DIMLWE
 70
    -2
  9
$DIMTMOVE
 70
     0
  9
$DIMFXL
 40
1.0
  9
$DIMFXLON
 70
     0
  9
$DIMJOGANG
 40
0.7853981633974483
  9
$DIMTFILL
 70
     0
  9
$DIMTFILLCLR
 70
     0
  9
$DIMARCSYM
 70
     0
  9
$DIMLTYPE
  6

  9
$DIMLTEX1
  6

  9
$DIMLTEX2
  6

  9
$DIMTXTDIRECTION
 70
     0
  9
$LUNITS
 70
     2
  9
$LUPREC
 70
     4
  9
$SKETCHINC
 40
0.1
  9
$FILLETRAD
 40
0.0
  9
$AUNITS
 70
     0
  9
$AUPREC
 70
     0
  9
$MENU
  1
.
  9
$ELEVATION
 40
0.0
  9
$PELEVATION
 40
0.0
  9
$THICKNESS
 40
0.0
  9
$LIMCHECK
 70
     0
  9
$CHAMFERA
 40
0.0
  9
$CHAMFERB
 40
0.0
  9
$CHAMFERC
 40
0.0
  9
$CHAMFERD
 40
0.0
  9
$SKPOLY
 70
     0
  9
$TDCREATE
 40
2461096.605432986
  9
$TDUCREATE
 40
2461096.480432986
  9
$TDUPDATE
 40
2461096.605433032
  9
$TDUUPDATE
 40
2461096.480433032
  9
$TDINDWG
 40
0.0000000116
  9
$TDUSRTIMER
 40
0.0000000116
  9
$USRTIMER
 70
     1
  9
$ANGBASE
 50
0.0
  9
$ANGDIR
 70
     0
  9
$PDMODE
 70
     0
  9
$PDSIZE
 40
0.0
  9
$PLINEWID
 40
0.0
  9
$SPLFRAME
 70
     0
  9
$SPLINETYPE
 70
     6
  9
$SPLINESEGS
 70
     8
  9
$HANDSEED
  5
C2
  9
$SURFTAB1
 70
     6
  9
$SURFTAB2
 70
     6
  9
$SURFTYPE
 70
     6
  9
$SURFU
 70
     6
  9
$SURFV
 70
     6
  9
$UCSBASE
  2

  9
$UCSNAME
  2

  9
$UCSORG
 10
0.0
 20
0.0
 30
0.0
  9
$UCSXDIR
 10
1.0
 20
0.0
 30
0.0
  9
$UCSYDIR
 10
0.0
 20
1.0
 30
0.0
  9
$UCSORTHOREF
  2

  9
$UCSORTHOVIEW
 70
     0
  9
$UCSORGTOP
 10
0.0
 20
0.0
 30
0.0
  9
$UCSORGBOTTOM
 10
0.0
 20
0.0
 30
0.0
  9
$UCSORGLEFT
 10
0.0
 20
0.0
 30
0.0
  9
$UCSORGRIGHT
 10
0.0
 20
0.0
 30
0.0
  9
$UCSORGFRONT
 10
0.0
 20
0.0
 30
0.0
  9
$UCSORGBACK
 10
0.0
 20
0.0
 30
0.0
  9
$PUCSBASE
  2

  9
$PUCSNAME
  2

  9
$PUCSORG
 10
0.0
 20
0.0
 30
0.0
  9
$PUCSXDIR
 10
1.0
 20
0.0
 30
0.0
  9
$PUCSYDIR
 10
0.0
 20
1.0
 30
0.0
  9
$PUCSORTHOREF
  2

  9
$PUCSORTHOVIEW
 70
     0
  9
$PUCSORGTOP
 10
0.0
 20
0.0
 30
0.0
  9
$PUCSORGBOTTOM
 10
0.0
 20
0.0
 30
0.0
  9
$PUCSORGLEFT
 10
0.0
 20
0.0
 30
0.0
  9
$PUCSORGRIGHT
 10
0.0
 20
0.0
 30
0.0
  9
$PUCSORGFRONT
 10
0.0
 20
0.0
 30
0.0
  9
$PUCSORGBACK
 10
0.0
 20
0.0
 30
0.0
  9
$USERI1
 70
     0
  9
$USERI2
 70
     0
  9
$USERI3
 70
     0
  9
$USERI4
 70
     0
  9
$USERI5
 70
     0
  9
$USERR1
 40
0.0
  9
$USERR2
 40
0.0
  9
$USERR3
 40
0.0
  9
$USERR4
 40
0.0
  9
$USERR5
 40
0.0
  9
$WORLDVIEW
 70
     1
  9
$SHADEDGE
 70
     3
  9
$SHADEDIF
 70
    70
  9
$TILEMODE
 70
     1
  9
$MAXACTVP
 70
    64
  9
$PINSBASE
 10
0.0
 20
0.0
 30
0.0
  9
$PLIMCHECK
 70
     0
  9
$PEXTMIN
 10
1.000000000000000E+20
 20
1.000000000000000E+20
 30
1.000000000000000E+20
  9
$PEXTMAX
 10
-1.000000000000000E+20
 20
-1.000000000000000E+20
 30
-1.000000000000000E+20
  9
$PLIMMIN
 10
0.0
 20
0.0
  9
$PLIMMAX
 10
12.0
 20
9.0
  9
$UNITMODE
 70
     0
  9
$VISRETAIN
 70
     1
  9
$PLINEGEN
 70
     0
  9
$PSLTSCALE
 70
     1
  9
$TREEDEPTH
 70
  3020
  9
$CMLSTYLE
  2
Standard
  9
$CMLJUST
 70
     0
  9
$CMLSCALE
 40
1.0
  9
$PROXYGRAPHICS
 70
     1
  9
$MEASUREMENT
 70
     0
  9
$CELWEIGHT
370
    -1
  9
$ENDCAPS
280
     0
  9
$JOINSTYLE
280
     0
  9
$LWDISPLAY
290
     0
  9
$INSUNITS
 70
     5
  9
$HYPERLINKBASE
  1

  9
$STYLESHEET
  1

  9
$XEDIT
290
     1
  9
$CEPSNTYPE
380
     0
  9
$PSTYLEMODE
290
     1
  9
$FINGERPRINTGUID
  2
{32b2520c-258f-44d3-95cc-8285c13496a0}
  9
$VERSIONGUID
  2
{FAEB1C32-E019-11D5-929B-00C0DF256EC4}
  9
$EXTNAMES
290
     1
  9
$PSVPSCALE
 40
0.0
  9
$OLESTARTUP
290
     0
  9
$SORTENTS
280
   127
  9
$INDEXCTL
280
     0
  9
$HIDETEXT
280
     1
  9
$XCLIPFRAME
280
     2
  9
$HALOGAP
280
     0
  9
$OBSCOLOR
 70
   257
  9
$OBSLTYPE
280
     0
  9
$INTERSECTIONDISPLAY
280
     0
  9
$INTERSECTIONCOLOR
 70
   257
  9
$DIMASSOC
280
     2
  9
$PROJECTNAME
  1

  9
$CAMERADISPLAY
290
     0
  9
$LENSLENGTH
 40
50.0
  9
$CAMERAHEIGHT
 40
0.0
  9
$STEPSPERSEC
 40
2.0
  9
$STEPSIZE
 40
6.0
  9
$3DDWFPREC
 40
2.0
  9
$PSOLWIDTH
 40
0.25
  9
$PSOLHEIGHT
 40
4.0
  9
$LOFTANG1
 40
1.570796326794897
  9
$LOFTANG2
 40
1.570796326794897
  9
$LOFTMAG1
 40
0.0
  9
$LOFTMAG2
 40
0.0
  9
$LOFTPARAM
 70
     7
  9
$LOFTNORMALS
280
     1
  9
$LATITUDE
 40
37.795
  9
$LONGITUDE
 40
-122.394
  9
$NORTHDIRECTION
 40
0.0
  9
$TIMEZONE
 70
 -8000
  9
$LIGHTGLYPHDISPLAY
280
     1
  9
$TILEMODELIGHTSYNCH
280
     1
  9
$CMATERIAL
347
44
  9
$SOLIDHIST
280
     0
  9
$SHOWHIST
280
     1
  9
$DWFFRAME
280
     2
  9
$DGNFRAME
280
     2
  9
$REALWORLDSCALE
290
     1
  9
$INTERFERECOLOR
 62
   256
  9
$CSHADOW
280
     0
  9
$SHADOWPLANELOCATION
 40
0.0
  0
ENDSEC
  0
SECTION
  2
CLASSES
  0
CLASS
  1
ACDBDICTIONARYWDFLT
  2
AcDbDictionaryWithDefault
  3
ObjectDBX Classes
 90
        0
 91
        3
280
     0
281
     0
  0
CLASS
  1
VISUALSTYLE
  2
AcDbVisualStyle
  3
ObjectDBX Classes
 90
     4095
 91
        3
280
     0
281
     0
  0
CLASS
  1
MATERIAL
  2
AcDbMaterial
  3
ObjectDBX Classes
 90
     1153
 91
        3
280
     0
281
     0
  0
CLASS
  1
SCALE
  2
AcDbScale
  3
ObjectDBX Classes
 90
     1153
 91
        3
280
     0
281
     0
  0
CLASS
  1
TABLESTYLE
  2
AcDbTableStyle
  3
ObjectDBX Classes
 90
     4095
 91
        3
280
     0
281
     0
  0
CLASS
  1
MLEADERSTYLE
  2
AcDbMLeaderStyle
  3
ACDB_MLEADERSTYLE_CLASS
 90
     4095
 91
        3
280
     0
281
     0
  0
CLASS
  1
SUN
  2
AcDbSun
  3
SCENEOE
 90
     1153
 91
        3
280
     0
281
     0
  0
CLASS
  1
DICTIONARYVAR
  2
AcDbDictionaryVar
  3
ObjectDBX Classes
 90
        0
 91
        3
280
     0
281
     0
  0
CLASS
  1
CELLSTYLEMAP
  2
AcDbCellStyleMap
  3
ObjectDBX Classes
 90
     1152
 91
        3
280
     0
281
     0
  0
ENDSEC
  0
SECTION
  2
TABLES
  0
TABLE
  2
VPORT
  5
8
330
0
100
AcDbSymbolTable
 70
     1
  0
VPORT
  5
29
330
8
100
AcDbSymbolTableRecord
100
AcDbViewportTableRecord
  2
*Active
 70
     0
 10
0.0
 20
0.0
 11
1.0
 21
1.0
 12
10.42990654205607
 22
4.5
 13
0.0
 23
0.0
 14
0.5
 24
0.5
 15
0.5
 25
0.5
 16
0.0
 26
0.0
 36
1.0
 17
0.0
 27
0.0
 37
0.0
 40
9.0
 41
1.972972972850329
 42
50.0
 43
0.0
 44
0.0
 50
0.0
 51
0.0
 71
     0
 72
   100
 73
     1
 74
     3
 75
     0
 76
     0
 77
     0
 78
     0
281
     0
 65
     1
110
0.0
120
0.0
130
0.0
111
1.0
121
0.0
131
0.0
112
0.0
122
1.0
132
0.0
 79
     0
146
0.0
348
2F
 60
     3
 61
     5
292
     1
282
     1
141
0.0
142
0.0
 63
   250
361
5D
  0
ENDTAB
  0
TABLE
  2
LTYPE
  5
5
330
0
100
AcDbSymbolTable
 70
     1
  0
LTYPE
  5
14
330
5
100
AcDbSymbolTableRecord
100
AcDbLinetypeTableRecord
  2
ByBlock
 70
     0
  3

 72
    65
 73
     0
 40
0.0
  0
LTYPE
  5
15
330
5
100
AcDbSymbolTableRecord
100
AcDbLinetypeTableRecord
  2
ByLayer
 70
     0
  3

 72
    65
 73
     0
 40
0.0
  0
LTYPE
  5
16
330
5
100
AcDbSymbolTableRecord
100
AcDbLinetypeTableRecord
  2
Continuous
 70
     0
  3
Solid line
 72
    65
 73
     0
 40
0.0
  0
ENDTAB
  0
TABLE
  2
LAYER
  5
2
330
0
100
AcDbSymbolTable
 70
     2
  0
LAYER
  5
10
330
2
100
AcDbSymbolTableRecord
100
AcDbLayerTableRecord
  2
0
 70
     0
 62
     7
  6
Continuous
370
    -3
390
F
347
46
348
0
  0
LAYER
  5
5F
330
2
100
AcDbSymbolTableRecord
100
AcDbLayerTableRecord
  2
Layer 1
 70
     0
 62
     7
  6
Continuous
370
    -3
390
F
347
46
348
0
  0
ENDTAB
  0
TABLE
  2
STYLE
  5
3
330
0
100
AcDbSymbolTable
 70
     2
  0
STYLE
  5
11
330
3
100
AcDbSymbolTableRecord
100
AcDbTextStyleTableRecord
  2
Standard
 70
     0
 40
0.0
 41
1.0
 50
0.0
 71
     0
 42
0.2
  3
txt
  4

  0
STYLE
  5
B7
330
3
100
AcDbSymbolTableRecord
100
AcDbTextStyleTableRecord
  2
0
 70
     0
 40
1.0
 41
1.0
 50
0.0
 71
     0
 42
0.2
  3
Arial
  4

  0
ENDTAB
  0
TABLE
  2
VIEW
  5
6
330
0
100
AcDbSymbolTable
 70
     0
  0
ENDTAB
  0
TABLE
  2
UCS
  5
7
330
0
100
AcDbSymbolTable
 70
     0
  0
ENDTAB
  0
TABLE
  2
APPID
  5
9
330
0
100
AcDbSymbolTable
 70
     2
  0
APPID
  5
12
330
9
100
AcDbSymbolTableRecord
100
AcDbRegAppTableRecord
  2
ACAD
 70
     0
  0
APPID
  5
5E
330
9
100
AcDbSymbolTableRecord
100
AcDbRegAppTableRecord
  2
ODA
 70
     0
  0
ENDTAB
  0
TABLE
  2
DIMSTYLE
  5
A
330
0
100
AcDbSymbolTable
 70
     1
100
AcDbDimStyleTable
  0
DIMSTYLE
105
27
330
A
100
AcDbSymbolTableRecord
100
AcDbDimStyleTableRecord
  2
Standard
 70
     0
178
     0
340
11
  0
ENDTAB
  0
TABLE
  2
BLOCK_RECORD
  5
1
330
0
100
AcDbSymbolTable
 70
     1
  0
BLOCK_RECORD
  5
1F
330
1
100
AcDbSymbolTableRecord
100
AcDbBlockTableRecord
  2
*Model_Space
340
22
 70
     0
280
     1
281
     0
  0
BLOCK_RECORD
  5
1B
330
1
100
AcDbSymbolTableRecord
100
AcDbBlockTableRecord
  2
*Paper_Space
340
1E
 70
     0
280
     1
281
     0
  0
BLOCK_RECORD
  5
23
330
1
100
AcDbSymbolTableRecord
100
AcDbBlockTableRecord
  2
*Paper_Space0
340
26
 70
     0
280
     1
281
     0
  0
ENDTAB
  0
ENDSEC
  0
SECTION
  2
BLOCKS
  0
BLOCK
  5
20
330
1F
100
AcDbEntity
  8
0
100
AcDbBlockBegin
  2
*Model_Space
 70
     0
 10
0.0
 20
0.0
 30
0.0
  3
*Model_Space
  1

  0
ENDBLK
  5
21
330
1F
100
AcDbEntity
  8
0
100
AcDbBlockEnd
  0
BLOCK
  5
1C
330
1B
100
AcDbEntity
 67
     1
  8
0
100
AcDbBlockBegin
  2
*Paper_Space
 70
     0
 10
0.0
 20
0.0
 30
0.0
  3
*Paper_Space
  1

  0
ENDBLK
  5
1D
330
1B
100
AcDbEntity
 67
     1
  8
0
100
AcDbBlockEnd
  0
BLOCK
  5
24
330
23
100
AcDbEntity
  8
0
100
AcDbBlockBegin
  2
*Paper_Space0
 70
     0
 10
0.0
 20
0.0
 30
0.0
  3
*Paper_Space0
  1

  0
ENDBLK
  5
25
330
23
100
AcDbEntity
  8
0
100
AcDbBlockEnd
  0
ENDSEC
  0
SECTION
  2
ENTITIES
  0
SPLINE
  5
60
330
1F
100
AcDbEntity
  8
Layer 1
 62
    12
370
    35
100
AcDbSpline
210
0.0
220
0.0
230
1.0
 70
    11
 71
     3
 72
    14
 73
    10
 74
     0
 42
0.0000000001
 43
0.0000000001
 40
0.0
 40
0.0
 40
0.0
 40
0.0
 40
0.3333333333333333
 40
0.3333333333333333
 40
0.3333333333333333
 40
0.6666666666666666
 40
0.6666666666666666
 40
0.6666666666666666
 40
1.0
 40
1.0
 40
1.0
 40
1.0
 10
14.54846
 20
23.55331
 30
0.0
 10
14.61065
 20
23.70147
 30
0.0
 10
14.66749
 20
23.85049
 30
0.0
 10
14.71956
 20
23.99989
 30
0.0
 10
14.97895
 20
23.98532
 30
0.0
 10
15.31646
 20
23.98828
 30
0.0
 10
15.70564
 20
24.04254
 30
0.0
 10
15.27476
 20
23.92069
 30
0.0
 10
14.87178
 20
23.73209
 30
0.0
 10
14.54846
 20
23.55331
 30
0.0
  0
SPLINE
  5
61
330
1F
100
AcDbEntity
  8
Layer 1
 62
    12
370
    35
100
AcDbSpline
210
0.0
220
0.0
230
1.0
 70
    11
 71
     3
 72
    14
 73
    10
 74
     0
 42
0.0000000001
 43
0.0000000001
 40
0.0
 40
0.0
 40
0.0
 40
0.0
 40
0.3333333333333333
 40
0.3333333333333333
 40
0.3333333333333333
 40
0.6666666666666666
 40
0.6666666666666666
 40
0.6666666666666666
 40
1.0
 40
1.0
 40
1.0
 40
1.0
 10
14.11387
 20
22.68688
 30
0.0
 10
14.18422
 20
22.80584
 30
0.0
 10
14.25047
 20
22.926
 30
0.0
 10
14.3127
 20
23.04721
 30
0.0
 10
14.50655
 20
23.04961
 30
0.0
 10
14.74764
 20
23.06506
 30
0.0
 10
15.02249
 20
23.10824
 30
0.0
 10
14.69147
 20
22.9932
 30
0.0
 10
14.38096
 20
22.84006
 30
0.0
 10
14.11387
 20
22.68688
 30
0.0
  0
SPLINE
  5
62
330
1F
100
AcDbEntity
  8
Layer 1
 62
    12
370
    35
100
AcDbSpline
210
0.0
220
0.0
230
1.0
 70
    11
 71
     3
 72
    23
 73
    19
 74
     0
 42
0.0000000001
 43
0.0000000001
 40
0.0
 40
0.0
 40
0.0
 40
0.0
 40
0.1666666666666667
 40
0.1666666666666667
 40
0.1666666666666667
 40
0.3333333333333333
 40
0.3333333333333333
 40
0.3333333333333333
 40
0.5
 40
0.5
 40
0.5
 40
0.6666666666666666
 40
0.6666666666666666
 40
0.6666666666666666
 40
0.8333333333333333
 40
0.8333333333333333
 40
0.8333333333333333
 40
1.0
 40
1.0
 40
1.0
 40
1.0
 10
13.65307
 20
22.48746
 30
0.0
 10
13.64482
 20
22.58853
 30
0.0
 10
13.63356
 20
22.69835
 30
0.0
 10
13.61857
 20
22.81413
 30
0.0
 10
13.62199
 20
22.85749
 30
0.0
 10
13.62429
 20
22.90176
 30
0.0
 10
13.62422
 20
22.94822
 30
0.0
 10
13.62411
 20
23.00999
 30
0.0
 10
13.62355
 20
23.06079
 30
0.0
 10
13.62309
 20
23.10404
 30
0.0
 10
13.62104
 20
23.28862
 30
0.0
 10
13.62083
 20
23.32397
 30
0.0
 10
13.66722
 20
23.49217
 30
0.0
 10
13.79584
 20
23.33342
 30
0.0
 10
13.9178
 20
23.2018
 30
0.0
 10
14.02204
 20
23.09875
 30
0.0
 10
13.91194
 20
22.891
 30
0.0
 10
13.78886
 20
22.68688
 30
0.0
 10
13.65307
 20
22.48746
 30
0.0
  0
SPLINE
  5
63
330
1F
100
AcDbEntity
  8
Layer 1
 62
    12
370
    35
100
AcDbSpline
210
0.0
220
0.0
230
1.0
 70
    11
 71
     3
 72
    17
 73
    13
 74
     0
 42
0.0000000001
 43
0.0000000001
 40
0.0
 40
0.0
 40
0.0
 40
0.0
 40
0.25
 40
0.25
 40
0.25
 40
0.5
 40
0.5
 40
0.5
 40
0.75
 40
0.75
 40
0.75
 40
1.0
 40
1.0
 40
1.0
 40
1.0
 10
14.45144
 20
24.09267
 30
0.0
 10
14.45173
 20
24.092
 30
0.0
 10
14.45204
 20
24.09133
 30
0.0
 10
14.45233
 20
24.09066
 30
0.0
 10
14.38202
 20
23.88915
 30
0.0
 10
14.30268
 20
23.68846
 30
0.0
 10
14.21307
 20
23.48981
 30
0.0
 10
14.10742
 20
23.89412
 30
0.0
 10
13.93209
 20
24.41846
 30
0.0
 10
13.65424
 20
24.89425
 30
0.0
 10
13.94673
 20
24.52729
 30
0.0
 10
14.23646
 20
24.26355
 30
0.0
 10
14.45144
 20
24.09267
 30
0.0
  0
SPLINE
  5
64
330
1F
100
AcDbEntity
  8
Layer 1
 62
    12
370
    35
100
AcDbSpline
210
0.0
220
0.0
230
1.0
 70
    11
 71
     3
 72
    14
 73
    10
 74
     0
 42
0.0000000001
 43
0.0000000001
 40
0.0
 40
0.0
 40
0.0
 40
0.0
 40
0.3333333333333333
 40
0.3333333333333333
 40
0.3333333333333333
 40
0.6666666666666666
 40
0.6666666666666666
 40
0.6666666666666666
 40
1.0
 40
1.0
 40
1.0
 40
1.0
 10
14.78426
 20
25.36253
 30
0.0
 10
14.73342
 20
25.08242
 30
0.0
 10
14.66883
 20
24.79847
 30
0.0
 10
14.58719
 20
24.51406
 30
0.0
 10
14.44266
 20
24.89771
 30
0.0
 10
14.21971
 20
25.3886
 30
0.0
 10
13.9039
 20
25.8259
 30
0.0
 10
14.24119
 20
25.60436
 30
0.0
 10
14.54973
 20
25.45686
 30
0.0
 10
14.78426
 20
25.36253
 30
0.0
  0
SPLINE
  5
65
330
1F
100
AcDbEntity
  8
Layer 1
 62
    12
370
    35
100
AcDbSpline
210
0.0
220
0.0
230
1.0
 70
    11
 71
     3
 72
    23
 73
    19
 74
     0
 42
0.0000000001
 43
0.0000000001
 40
0.0
 40
0.0
 40
0.0
 40
0.0
 40
0.1666666666666667
 40
0.1666666666666667
 40
0.1666666666666667
 40
0.3333333333333333
 40
0.3333333333333333
 40
0.3333333333333333
 40
0.5
 40
0.5
 40
0.5
 40
0.6666666666666666
 40
0.6666666666666666
 40
0.6666666666666666
 40
0.8333333333333333
 40
0.8333333333333333
 40
0.8333333333333333
 40
1.0
 40
1.0
 40
1.0
 40
1.0
 10
7.57933
 20
17.72704
 30
0.0
 10
7.70341
 20
18.09964
 30
0.0
 10
7.76768
 20
18.43073
 30
0.0
 10
7.8006
 20
18.68839
 30
0.0
 10
7.83866
 20
18.69425
 30
0.0
 10
7.8768
 20
18.70131
 30
0.0
 10
7.9149
 20
18.70773
 30
0.0
 10
7.9149
 20
18.70773
 30
0.0
 10
7.91532
 20
18.70773
 30
0.0
 10
7.91532
 20
18.70773
 30
0.0
 10
7.95183
 20
18.70879
 30
0.0
 10
7.98686
 20
18.71517
 30
0.0
 10
8.02055
 20
18.72561
 30
0.0
 10
8.10377
 20
18.74082
 30
0.0
 10
8.1871
 20
18.75726
 30
0.0
 10
8.27046
 20
18.77539
 30
0.0
 10
8.036
 20
18.49006
 30
0.0
 10
7.77745
 20
18.12836
 30
0.0
 10
7.57933
 20
17.72704
 30
0.0
  0
SPLINE
  5
66
330
1F
100
AcDbEntity
  8
Layer 1
 62
    12
370
    35
100
AcDbSpline
210
0.0
220
0.0
230
1.0
 70
    11
 71
     3
 72
    17
 73
    13
 74
     0
 42
0.0000000001
 43
0.0000000001
 40
0.0
 40
0.0
 40
0.0
 40
0.0
 40
0.25
 40
0.25
 40
0.25
 40
0.5
 40
0.5
 40
0.5
 40
0.75
 40
0.75
 40
0.75
 40
1.0
 40
1.0
 40
1.0
 40
1.0
 10
6.449
 20
18.87325
 30
0.0
 10
6.3989
 20
19.12101
 30
0.0
 10
6.31
 20
19.45121
 30
0.0
 10
6.15351
 20
19.82317
 30
0.0
 10
6.48911
 20
19.47177
 30
0.0
 10
6.88097
 20
19.1868
 30
0.0
 10
7.21199
 20
18.97877
 30
0.0
 10
7.24275
 20
18.95661
 30
0.0
 10
7.2769
 20
18.93442
 30
0.0
 10
7.31475
 20
18.91227
 30
0.0
 10
7.02177
 20
18.88405
 30
0.0
 10
6.73224
 20
18.8723
 30
0.0
 10
6.449
 20
18.87325
 30
0.0
  0
SPLINE
  5
67
330
1F
100
AcDbEntity
  8
Layer 1
 62
    12
370
    35
100
AcDbSpline
210
0.0
220
0.0
230
1.0
 70
    11
 71
     3
 72
    14
 73
    10
 74
     0
 42
0.0000000001
 43
0.0000000001
 40
0.0
 40
0.0
 40
0.0
 40
0.0
 40
0.3333333333333333
 40
0.3333333333333333
 40
0.3333333333333333
 40
0.6666666666666666
 40
0.6666666666666666
 40
0.6666666666666666
 40
1.0
 40
1.0
 40
1.0
 40
1.0
 10
4.55049
 20
19.05885
 30
0.0
 10
4.52015
 20
19.16983
 30
0.0
 10
4.31272
 20
19.54018
 30
0.0
 10
4.18473
 20
19.73526
 30
0.0
 10
4.45235
 20
19.43597
 30
0.0
 10
4.75309
 20
19.18066
 30
0.0
 10
5.02046
 20
18.98092
 30
0.0
 10
4.85857
 20
19.00431
 30
0.0
 10
4.70169
 20
19.03059
 30
0.0
 10
4.55049
 20
19.05885
 30
0.0
  0
SPLINE
  5
68
330
1F
100
AcDbEntity
  8
Layer 1
 62
    12
370
    35
100
AcDbSpline
210
0.0
220
0.0
230
1.0
 70
    11
 71
     3
 72
    14
 73
    10
 74
     0
 42
0.0000000001
 43
0.0000000001
 40
0.0
 40
0.0
 40
0.0
 40
0.0
 40
0.3333333333333333
 40
0.3333333333333333
 40
0.3333333333333333
 40
0.6666666666666666
 40
0.6666666666666666
 40
0.6666666666666666
 40
1.0
 40
1.0
 40
1.0
 40
1.0
 10
4.08518
 20
18.4249
 30
0.0
 10
4.23412
 20
18.5573
 30
0.0
 10
4.35618
 20
18.68247
 30
0.0
 10
4.45242
 20
18.79014
 30
0.0
 10
4.53857
 20
18.7737
 30
0.0
 10
4.62655
 20
18.75786
 30
0.0
 10
4.71626
 20
18.74279
 30
0.0
 10
4.51454
 20
18.65537
 30
0.0
 10
4.29878
 20
18.55
 30
0.0
 10
4.08518
 20
18.4249
 30
0.0
  0
SPLINE
  5
69
330
1F
100
AcDbEntity
  8
Layer 1
 62
    12
370
    35
100
AcDbSpline
210
0.0
220
0.0
230
1.0
 70
    11
 71
     3
 72
    14
 73
    10
 74
     0
 42
0.0000000001
 43
0.0000000001
 40
0.0
 40
0.0
 40
0.0
 40
0.0
 40
0.3333333333333333
 40
0.3333333333333333
 40
0.3333333333333333
 40
0.6666666666666666
 40
0.6666666666666666
 40
0.6666666666666666
 40
1.0
 40
1.0
 40
1.0
 40
1.0
 10
14.34843
 20
27.74586
 30
0.0
 10
14.5589
 20
27.54439
 30
0.0
 10
14.87386
 20
27.2985
 30
0.0
 10
14.94706
 20
27.26315
 30
0.0
 10
14.94734
 20
27.10934
 30
0.0
 10
14.94466
 20
26.95027
 30
0.0
 10
14.93817
 20
26.78683
 30
0.0
 10
14.79043
 20
27.08606
 30
0.0
 10
14.59407
 20
27.42825
 30
0.0
 10
14.34843
 20
27.74586
 30
0.0
  0
SPLINE
  5
6A
330
1F
100
AcDbEntity
  8
Layer 1
 62
    12
370
    35
100
AcDbSpline
210
0.0
220
0.0
230
1.0
 70
    11
 71
     3
 72
    14
 73
    10
 74
     0
 42
0.0000000001
 43
0.0000000001
 40
0.0
 40
0.0
 40
0.0
 40
0.0
 40
0.3333333333333333
 40
0.3333333333333333
 40
0.3333333333333333
 40
0.6666666666666666
 40
0.6666666666666666
 40
0.6666666666666666
 40
1.0
 40
1.0
 40
1.0
 40
1.0
 10
15.22893
 20
27.31057
 30
0.0
 10
15.35237
 20
27.38564
 30
0.0
 10
15.49771
 20
27.48293
 30
0.0
 10
15.65509
 20
27.60535
 30
0.0
 10
15.49309
 20
27.41792
 30
0.0
 10
15.35015
 20
27.22481
 30
0.0
 10
15.22741
 20
27.04221
 30
0.0
 10
15.22893
 20
27.13329
 30
0.0
 10
15.22943
 20
27.22276
 30
0.0
 10
15.22893
 20
27.31057
 30
0.0
  0
SPLINE
  5
6B
330
1F
100
AcDbEntity
  8
Layer 1
 62
    12
370
    35
100
AcDbSpline
210
0.0
220
0.0
230
1.0
 70
    11
 71
     3
 72
   266
 73
   262
 74
     0
 42
0.0000000001
 43
0.0000000001
 40
0.0
 40
0.0
 40
0.0
 40
0.0
 40
0.0114942528735632
 40
0.0114942528735632
 40
0.0114942528735632
 40
0.0229885057471264
 40
0.0229885057471264
 40
0.0229885057471264
 40
0.0344827586206897
 40
0.0344827586206897
 40
0.0344827586206897
 40
0.0459770114942529
 40
0.0459770114942529
 40
0.0459770114942529
 40
0.0574712643678161
 40
0.0574712643678161
 40
0.0574712643678161
 40
0.0689655172413793
 40
0.0689655172413793
 40
0.0689655172413793
 40
0.0804597701149425
 40
0.0804597701149425
 40
0.0804597701149425
 40
0.0919540229885057
 40
0.0919540229885057
 40
0.0919540229885057
 40
0.103448275862069
 40
0.103448275862069
 40
0.103448275862069
 40
0.1149425287356322
 40
0.1149425287356322
 40
0.1149425287356322
 40
0.1264367816091954
 40
0.1264367816091954
 40
0.1264367816091954
 40
0.1379310344827586
 40
0.1379310344827586
 40
0.1379310344827586
 40
0.1494252873563218
 40
0.1494252873563218
 40
0.1494252873563218
 40
0.1609195402298851
 40
0.1609195402298851
 40
0.1609195402298851
 40
0.1724137931034483
 40
0.1724137931034483
 40
0.1724137931034483
 40
0.1839080459770115
 40
0.1839080459770115
 40
0.1839080459770115
 40
0.1954022988505747
 40
0.1954022988505747
 40
0.1954022988505747
 40
0.2068965517241379
 40
0.2068965517241379
 40
0.2068965517241379
 40
0.2183908045977012
 40
0.2183908045977012
 40
0.2183908045977012
 40
0.2298850574712644
 40
0.2298850574712644
 40
0.2298850574712644
 40
0.2413793103448276
 40
0.2413793103448276
 40
0.2413793103448276
 40
0.2528735632183908
 40
0.2528735632183908
 40
0.2528735632183908
 40
0.264367816091954
 40
0.264367816091954
 40
0.264367816091954
 40
0.2758620689655172
 40
0.2758620689655172
 40
0.2758620689655172
 40
0.2873563218390804
 40
0.2873563218390804
 40
0.2873563218390804
 40
0.2988505747126436
 40
0.2988505747126436
 40
0.2988505747126436
 40
0.3103448275862069
 40
0.3103448275862069
 40
0.3103448275862069
 40
0.3218390804597701
 40
0.3218390804597701
 40
0.3218390804597701
 40
0.3333333333333333
 40
0.3333333333333333
 40
0.3333333333333333
 40
0.3448275862068966
 40
0.3448275862068966
 40
0.3448275862068966
 40
0.3563218390804598
 40
0.3563218390804598
 40
0.3563218390804598
 40
0.367816091954023
 40
0.367816091954023
 40
0.367816091954023
 40
0.3793103448275862
 40
0.3793103448275862
 40
0.3793103448275862
 40
0.3908045977011494
 40
0.3908045977011494
 40
0.3908045977011494
 40
0.4022988505747127
 40
0.4022988505747127
 40
0.4022988505747127
 40
0.4137931034482759
 40
0.4137931034482759
 40
0.4137931034482759
 40
0.4252873563218391
 40
0.4252873563218391
 40
0.4252873563218391
 40
0.4367816091954023
 40
0.4367816091954023
 40
0.4367816091954023
 40
0.4482758620689655
 40
0.4482758620689655
 40
0.4482758620689655
 40
0.4597701149425287
 40
0.4597701149425287
 40
0.4597701149425287
 40
0.4712643678160919
 40
0.4712643678160919
 40
0.4712643678160919
 40
0.4827586206896551
 40
0.4827586206896551
 40
0.4827586206896551
 40
0.4942528735632184
 40
0.4942528735632184
 40
0.4942528735632184
 40
0.5057471264367817
 40
0.5057471264367817
 40
0.5057471264367817
 40
0.5172413793103449
 40
0.5172413793103449
 40
0.5172413793103449
 40
0.5287356321839081
 40
0.5287356321839081
 40
0.5287356321839081
 40
0.5402298850574713
 40
0.5402298850574713
 40
0.5402298850574713
 40
0.5517241379310345
 40
0.5517241379310345
 40
0.5517241379310345
 40
0.5632183908045977
 40
0.5632183908045977
 40
0.5632183908045977
 40
0.5747126436781609
 40
0.5747126436781609
 40
0.5747126436781609
 40
0.5862068965517241
 40
0.5862068965517241
 40
0.5862068965517241
 40
0.5977011494252873
 40
0.5977011494252873
 40
0.5977011494252873
 40
0.6091954022988506
 40
0.6091954022988506
 40
0.6091954022988506
 40
0.6206896551724138
 40
0.6206896551724138
 40
0.6206896551724138
 40
0.632183908045977
 40
0.632183908045977
 40
0.632183908045977
 40
0.6436781609195402
 40
0.6436781609195402
 40
0.6436781609195402
 40
0.6551724137931034
 40
0.6551724137931034
 40
0.6551724137931034
 40
0.6666666666666666
 40
0.6666666666666666
 40
0.6666666666666666
 40
0.6781609195402298
 40
0.6781609195402298
 40
0.6781609195402298
 40
0.6896551724137931
 40
0.6896551724137931
 40
0.6896551724137931
 40
0.7011494252873564
 40
0.7011494252873564
 40
0.7011494252873564
 40
0.7126436781609196
 40
0.7126436781609196
 40
0.7126436781609196
 40
0.7241379310344828
 40
0.7241379310344828
 40
0.7241379310344828
 40
0.735632183908046
 40
0.735632183908046
 40
0.735632183908046
 40
0.7471264367816092
 40
0.7471264367816092
 40
0.7471264367816092
 40
0.7586206896551724
 40
0.7586206896551724
 40
0.7586206896551724
 40
0.7701149425287356
 40
0.7701149425287356
 40
0.7701149425287356
 40
0.7816091954022988
 40
0.7816091954022988
 40
0.7816091954022988
 40
0.7931034482758621
 40
0.7931034482758621
 40
0.7931034482758621
 40
0.8045977011494253
 40
0.8045977011494253
 40
0.8045977011494253
 40
0.8160919540229885
 40
0.8160919540229885
 40
0.8160919540229885
 40
0.8275862068965517
 40
0.8275862068965517
 40
0.8275862068965517
 40
0.8390804597701149
 40
0.8390804597701149
 40
0.8390804597701149
 40
0.8505747126436781
 40
0.8505747126436781
 40
0.8505747126436781
 40
0.8620689655172413
 40
0.8620689655172413
 40
0.8620689655172413
 40
0.8735632183908046
 40
0.8735632183908046
 40
0.8735632183908046
 40
0.8850574712643678
 40
0.8850574712643678
 40
0.8850574712643678
 40
0.896551724137931
 40
0.896551724137931
 40
0.896551724137931
 40
0.9080459770114943
 40
0.9080459770114943
 40
0.9080459770114943
 40
0.9195402298850575
 40
0.9195402298850575
 40
0.9195402298850575
 40
0.9310344827586207
 40
0.9310344827586207
 40
0.9310344827586207
 40
0.9425287356321839
 40
0.9425287356321839
 40
0.9425287356321839
 40
0.9540229885057471
 40
0.9540229885057471
 40
0.9540229885057471
 40
0.9655172413793103
 40
0.9655172413793103
 40
0.9655172413793103
 40
0.9770114942528736
 40
0.9770114942528736
 40
0.9770114942528736
 40
0.9885057471264368
 40
0.9885057471264368
 40
0.9885057471264368
 40
1.0
 40
1.0
 40
1.0
 40
1.0
 10
14.86254
 20
24.45063
 30
0.0
 10
14.95313
 20
24.76841
 30
0.0
 10
15.02333
 20
25.08546
 30
0.0
 10
15.07703
 20
25.39713
 30
0.0
 10
15.72035
 20
25.52209
 30
0.0
 10
16.81333
 20
25.87511
 30
0.0
 10
17.81405
 20
26.87383
 30
0.0
 10
16.82342
 20
27.06376
 30
0.0
 10
15.79246
 20
26.42382
 30
0.0
 10
15.15196
 20
25.91025
 30
0.0
 10
15.17019
 20
26.06297
 30
0.0
 10
15.18445
 20
26.21336
 30
0.0
 10
15.19581
 20
26.36138
 30
0.0
 10
15.76138
 20
26.68248
 30
0.0
 10
16.69871
 20
27.37304
 30
0.0
 10
17.33004
 20
28.66146
 30
0.0
 10
16.95564
 20
28.60819
 30
0.0
 10
16.61383
 20
28.44256
 30
0.0
 10
16.30953
 20
28.21992
 30
0.0
 10
16.61542
 20
28.56494
 30
0.0
 10
16.91719
 20
29.0021
 30
0.0
 10
17.15693
 20
29.54891
 30
0.0
 10
16.25978
 20
29.38218
 30
0.0
 10
15.59677
 20
28.51922
 30
0.0
 10
15.21348
 20
27.86506
 30
0.0
 10
15.19983
 20
28.13963
 30
0.0
 10
15.17831
 20
28.40086
 30
0.0
 10
15.15196
 20
28.64544
 30
0.0
 10
15.57455
 20
29.0244
 30
0.0
 10
16.23227
 20
29.77507
 30
0.0
 10
16.53181
 20
30.96679
 30
0.0
 10
15.79743
 20
30.69811
 30
0.0
 10
15.33494
 20
29.92172
 30
0.0
 10
15.06838
 20
29.28312
 30
0.0
 10
15.00778
 20
29.67435
 30
0.0
 10
14.94068
 20
29.99612
 30
0.0
 10
14.88705
 20
30.22567
 30
0.0
 10
14.86691
 20
30.90075
 30
0.0
 10
14.71642
 20
32.17262
 30
0.0
 10
13.90542
 20
32.75915
 30
0.0
 10
13.86911
 20
31.51508
 30
0.0
 10
14.31386
 20
30.60939
 30
0.0
 10
14.61549
 20
30.14249
 30
0.0
 10
14.65373
 20
29.97637
 30
0.0
 10
14.69874
 20
29.76251
 30
0.0
 10
14.74323
 20
29.5101
 30
0.0
 10
14.44174
 20
30.07338
 30
0.0
 10
13.9814
 20
30.67465
 30
0.0
 10
13.33169
 20
30.8781
 30
0.0
 10
13.79648
 20
29.34024
 30
0.0
 10
14.78845
 20
28.68986
 30
0.0
 10
14.87464
 20
28.57753
 30
0.0
 10
14.89894
 20
28.34791
 30
0.0
 10
14.91884
 20
28.10414
 30
0.0
 10
14.93161
 20
27.84947
 30
0.0
 10
14.59644
 20
28.5261
 30
0.0
 10
13.99432
 20
29.43753
 30
0.0
 10
13.10941
 20
29.66504
 30
0.0
 10
13.32277
 20
29.07202
 30
0.0
 10
13.61363
 20
28.59665
 30
0.0
 10
13.91219
 20
28.22317
 30
0.0
 10
13.63646
 20
28.47374
 30
0.0
 10
13.31829
 20
28.67253
 30
0.0
 10
12.95627
 20
28.76556
 30
0.0
 10
13.4654
 20
27.35039
 30
0.0
 10
14.38089
 20
26.55125
 30
0.0
 10
14.8981
 20
26.1924
 30
0.0
 10
14.8848
 20
26.05221
 30
0.0
 10
14.86875
 20
25.91014
 30
0.0
 10
14.84892
 20
25.76628
 30
0.0
 10
14.3526
 20
26.41123
 30
0.0
 10
13.41989
 20
27.39414
 30
0.0
 10
12.32942
 20
27.41845
 30
0.0
 10
12.49183
 20
27.16766
 30
0.0
 10
12.66441
 20
26.94449
 30
0.0
 10
12.84119
 20
26.74556
 30
0.0
 10
12.78767
 20
26.76912
 30
0.0
 10
12.73328
 20
26.7911
 30
0.0
 10
12.67722
 20
26.8098
 30
0.0
 10
12.83392
 20
26.2547
 30
0.0
 10
13.05663
 20
25.78575
 30
0.0
 10
13.29938
 20
25.39629
 30
0.0
 10
13.09099
 20
25.63783
 30
0.0
 10
12.84426
 20
25.84195
 30
0.0
 10
12.55198
 20
25.97467
 30
0.0
 10
12.582
 20
25.80061
 30
0.0
 10
12.61936
 20
25.63445
 30
0.0
 10
12.66209
 20
25.47517
 30
0.0
 10
12.51716
 20
25.50403
 30
0.0
 10
12.36466
 20
25.49792
 30
0.0
 10
12.21706
 20
25.49944
 30
0.0
 10
12.07894
 20
25.50078
 30
0.0
 10
11.94298
 20
25.52085
 30
0.0
 10
11.81157
 20
25.54026
 30
0.0
 10
11.6124
 20
25.56971
 30
0.0
 10
11.40697
 20
25.60005
 30
0.0
 10
11.19241
 20
25.5653
 30
0.0
 10
10.94494
 20
25.77926
 30
0.0
 10
10.81399
 20
25.80491
 30
0.0
 10
10.51293
 20
25.70483
 30
0.0
 10
10.35072
 20
25.65046
 30
0.0
 10
10.31251
 20
25.64747
 30
0.0
 10
10.07566
 20
25.64073
 30
0.0
 10
9.87645
 20
25.6354
 30
0.0
 10
9.67871
 20
25.62838
 30
0.0
 10
9.49269
 20
25.54223
 30
0.0
 10
9.29923
 20
25.64478
 30
0.0
 10
8.92448
 20
25.62535
 30
0.0
 10
8.63961
 20
25.42998
 30
0.0
 10
8.42487
 20
25.28266
 30
0.0
 10
7.938
 20
24.93224
 30
0.0
 10
7.82377
 20
24.70939
 30
0.0
 10
7.72249
 20
24.64812
 30
0.0
 10
7.65642
 20
24.57569
 30
0.0
 10
7.59232
 20
24.50545
 30
0.0
 10
7.05765
 20
23.9197
 30
0.0
 10
7.07377
 20
24.25932
 30
0.0
 10
6.39615
 20
23.7359
 30
0.0
 10
6.11982
 20
23.52247
 30
0.0
 10
5.91189
 20
23.30527
 30
0.0
 10
5.76055
 20
23.07183
 30
0.0
 10
5.49022
 20
22.65503
 30
0.0
 10
5.41088
 20
22.1187
 30
0.0
 10
5.52465
 20
21.47788
 30
0.0
 10
5.54931
 20
21.3391
 30
0.0
 10
5.57362
 20
21.21767
 30
0.0
 10
5.6011
 20
21.10901
 30
0.0
 10
5.53862
 20
21.14285
 30
0.0
 10
5.47463
 20
21.17597
 30
0.0
 10
5.40908
 20
21.20829
 30
0.0
 10
5.41726
 20
21.14976
 30
0.0
 10
5.42898
 20
21.09229
 30
0.0
 10
5.44242
 20
21.03539
 30
0.0
 10
5.27898
 20
21.24543
 30
0.0
 10
5.09091
 20
21.45572
 30
0.0
 10
4.87385
 20
21.66104
 30
0.0
 10
4.69936
 20
20.58436
 30
0.0
 10
5.49618
 20
19.48842
 30
0.0
 10
6.04009
 20
18.88306
 30
0.0
 10
5.89503
 20
18.88976
 30
0.0
 10
5.7524
 20
18.89978
 30
0.0
 10
5.61217
 20
18.91223
 30
0.0
 10
5.35338
 20
19.48613
 30
0.0
 10
4.73411
 20
20.53169
 30
0.0
 10
3.43518
 20
21.28974
 30
0.0
 10
3.46083
 20
20.91686
 30
0.0
 10
3.59841
 20
20.56782
 30
0.0
 10
3.79466
 20
20.25109
 30
0.0
 10
3.48175
 20
20.61262
 30
0.0
 10
3.0672
 20
20.98512
 30
0.0
 10
2.5229
 20
21.30276
 30
0.0
 10
2.58562
 20
20.39125
 30
0.0
 10
3.37232
 20
19.63338
 30
0.0
 10
3.9767
 20
19.1807
 30
0.0
 10
3.72859
 20
19.23957
 30
0.0
 10
3.49251
 20
19.30346
 30
0.0
 10
3.27114
 20
19.36915
 30
0.0
 10
3.19152
 20
19.45749
 30
0.0
 10
2.69862
 20
20.5777
 30
0.0
 10
1.28966
 20
21.30488
 30
0.0
 10
1.37154
 20
20.62899
 30
0.0
 10
1.87904
 20
20.06694
 30
0.0
 10
2.37808
 20
19.66802
 30
0.0
 10
2.13798
 20
19.7577
 30
0.0
 10
1.93591
 20
19.84085
 30
0.0
 10
1.77949
 20
19.90869
 30
0.0
 10
1.37528
 20
20.29022
 30
0.0
 10
0.56558
 20
20.89234
 30
0.0
 10
-0.66434
 20
21.08294
 30
0.0
 10
-0.23512
 20
20.17877
 30
0.0
 10
0.98817
 20
19.79943
 30
0.0
 10
1.64829
 20
19.6568
 30
0.0
 10
1.86423
 20
19.5623
 30
0.0
 10
2.16843
 20
19.4378
 30
0.0
 10
2.54213
 20
19.30703
 30
0.0
 10
1.86567
 20
19.16108
 30
0.0
 10
1.01813
 20
18.84753
 30
0.0
 10
0.62033
 20
18.17429
 30
0.0
 10
1.84662
 20
18.25204
 30
0.0
 10
2.70444
 20
18.7622
 30
0.0
 10
3.15395
 20
19.10884
 30
0.0
 10
3.38967
 20
19.03846
 30
0.0
 10
3.64262
 20
18.96973
 30
0.0
 10
3.91009
 20
18.90638
 30
0.0
 10
3.19713
 20
18.64846
 30
0.0
 10
2.22798
 20
18.15351
 30
0.0
 10
1.90085
 20
17.30166
 30
0.0
 10
2.48215
 20
17.43794
 30
0.0
 10
2.96691
 20
17.65514
 30
0.0
 10
3.3618
 20
17.89316
 30
0.0
 10
3.08752
 20
17.63444
 30
0.0
 10
2.86248
 20
17.32844
 30
0.0
 10
2.74201
 20
16.96998
 30
0.0
 10
4.12359
 20
17.35634
 30
0.0
 10
4.97312
 20
18.15224
 30
0.0
 10
5.39179
 20
18.64998
 30
0.0
 10
5.5394
 20
18.63421
 30
0.0
 10
5.69017
 20
18.62112
 30
0.0
 10
5.84363
 20
18.61131
 30
0.0
 10
5.22211
 20
18.07491
 30
0.0
 10
4.40522
 20
17.17752
 30
0.0
 10
4.41178
 20
16.16882
 30
0.0
 10
5.57584
 20
16.97114
 30
0.0
 10
6.12183
 20
17.98164
 30
0.0
 10
6.36172
 20
18.59152
 30
0.0
 10
6.68416
 20
18.58754
 30
0.0
 10
7.00212
 20
18.59897
 30
0.0
 10
7.33147
 20
18.63029
 30
0.0
 10
6.85311
 20
17.96287
 30
0.0
 10
6.24065
 20
16.8609
 30
0.0
 10
6.50012
 20
15.85735
 30
0.0
 10
6.8875
 20
16.29833
 30
0.0
 10
7.16256
 20
16.74805
 30
0.0
 10
7.35811
 20
17.16986
 30
0.0
 10
7.25979
 20
16.83716
 30
0.0
 10
7.22066
 20
16.49062
 30
0.0
 10
7.28092
 20
16.14737
 30
0.0
 10
7.74768
 20
16.60066
 30
0.0
 10
8.07767
 20
17.07557
 30
0.0
 10
8.31152
 20
17.51887
 30
0.0
 10
8.22305
 20
17.22412
 30
0.0
 10
8.18435
 20
16.9177
 30
0.0
 10
8.22432
 20
16.61039
 30
0.0
 10
9.04876
 20
17.34276
 30
0.0
 10
9.48444
 20
18.15471
 30
0.0
 10
9.71378
 20
18.77775
 30
0.0
 10
9.92125
 20
18.91357
 30
0.0
 10
9.95385
 20
18.93559
 30
0.0
 10
10.25388
 20
18.90913
 30
0.0
 10
10.54147
 20
18.88447
 30
0.0
 10
10.84419
 20
18.93005
 30
0.0
 10
10.87435
 20
18.93019
 30
0.0
 10
11.43946
 20
18.93266
 30
0.0
 10
12.9919
 20
20.27752
 30
0.0
 10
13.26064
 20
21.57419
 30
0.0
 10
13.30908
 20
21.80773
 30
0.0
 10
13.32898
 20
21.88139
 30
0.0
 10
13.40063
 20
22.05894
 30
0.0
 10
13.40063
 20
22.05894
 30
0.0
 10
13.42973
 20
22.03551
 30
0.0
 10
13.42973
 20
22.03551
 30
0.0
 10
13.51083
 20
21.97029
 30
0.0
 10
13.63356
 20
21.98006
 30
0.0
 10
13.70126
 20
22.0697
 30
0.0
 10
14.33827
 20
22.10145
 30
0.0
 10
15.5192
 20
22.29646
 30
0.0
 10
16.68629
 20
23.20518
 30
0.0
 10
16.39137
 20
23.3004
 30
0.0
 10
16.08304
 20
23.31807
 30
0.0
 10
15.77708
 20
23.2847
 30
0.0
 10
16.25552
 20
23.434
 30
0.0
 10
16.78253
 20
23.67209
 30
0.0
 10
17.31318
 20
24.04861
 30
0.0
 10
16.98661
 20
24.17031
 30
0.0
 10
16.63874
 20
24.19487
 30
0.0
 10
16.29372
 20
24.15871
 30
0.0
 10
16.74408
 20
24.27428
 30
0.0
 10
17.23634
 20
24.46294
 30
0.0
 10
17.74043
 20
24.76362
 30
0.0
 10
16.80084
 20
25.20134
 30
0.0
 10
15.60587
 20
24.7996
 30
0.0
 10
14.86254
 20
24.45063
 30
0.0
  0
SPLINE
  5
6C
330
1F
100
AcDbEntity
  8
Layer 1
 62
    12
370
    35
100
AcDbSpline
210
0.0
220
0.0
230
1.0
 70
    11
 71
     3
 72
    56
 73
    52
 74
     0
 42
0.0000000001
 43
0.0000000001
 40
0.0
 40
0.0
 40
0.0
 40
0.0
 40
0.0588235294117647
 40
0.0588235294117647
 40
0.0588235294117647
 40
0.1176470588235294
 40
0.1176470588235294
 40
0.1176470588235294
 40
0.1764705882352941
 40
0.1764705882352941
 40
0.1764705882352941
 40
0.2352941176470588
 40
0.2352941176470588
 40
0.2352941176470588
 40
0.2941176470588235
 40
0.2941176470588235
 40
0.2941176470588235
 40
0.3529411764705882
 40
0.3529411764705882
 40
0.3529411764705882
 40
0.4117647058823529
 40
0.4117647058823529
 40
0.4117647058823529
 40
0.4705882352941176
 40
0.4705882352941176
 40
0.4705882352941176
 40
0.5294117647058824
 40
0.5294117647058824
 40
0.5294117647058824
 40
0.5882352941176471
 40
0.5882352941176471
 40
0.5882352941176471
 40
0.6470588235294118
 40
0.6470588235294118
 40
0.6470588235294118
 40
0.7058823529411764
 40
0.7058823529411764
 40
0.7058823529411764
 40
0.7647058823529411
 40
0.7647058823529411
 40
0.7647058823529411
 40
0.8235294117647058
 40
0.8235294117647058
 40
0.8235294117647058
 40
0.8823529411764706
 40
0.8823529411764706
 40
0.8823529411764706
 40
0.9411764705882353
 40
0.9411764705882353
 40
0.9411764705882353
 40
1.0
 40
1.0
 40
1.0
 40
1.0
 10
17.05978
 20
38.20466
 30
0.0
 10
17.04136
 20
38.14761
 30
0.0
 10
17.02044
 20
38.08295
 30
0.0
 10
17.00721
 20
37.99916
 30
0.0
 10
16.98393
 20
37.85195
 30
0.0
 10
16.98753
 20
37.73564
 30
0.0
 10
16.99106
 20
37.62314
 30
0.0
 10
17.01085
 20
36.99068
 30
0.0
 10
16.78669
 20
36.96528
 30
0.0
 10
16.63733
 20
36.22487
 30
0.0
 10
16.55351
 20
35.80993
 30
0.0
 10
16.50331
 20
35.76552
 30
0.0
 10
16.39123
 20
35.62031
 30
0.0
 10
16.44979
 20
35.89925
 30
0.0
 10
16.47861
 20
36.2025
 30
0.0
 10
16.44993
 20
36.48931
 30
0.0
 10
16.42728
 20
36.7159
 30
0.0
 10
16.35824
 20
36.92584
 30
0.0
 10
16.2915
 20
37.1289
 30
0.0
 10
16.2915
 20
37.1289
 30
0.0
 10
16.28892
 20
37.13676
 30
0.0
 10
16.28892
 20
37.13676
 30
0.0
 10
16.24909
 20
37.25801
 30
0.0
 10
16.22581
 20
37.35877
 30
0.0
 10
16.21569
 20
37.45391
 30
0.0
 10
16.20711
 20
37.53449
 30
0.0
 10
16.20493
 20
37.58394
 30
0.0
 10
16.2092
 20
37.60102
 30
0.0
 10
16.24289
 20
37.62907
 30
0.0
 10
16.55481
 20
37.76312
 30
0.0
 10
16.59492
 20
38.16014
 30
0.0
 10
16.60367
 20
38.2465
 30
0.0
 10
16.6024
 20
38.37103
 30
0.0
 10
16.54659
 20
38.47383
 30
0.0
 10
16.49159
 20
38.57507
 30
0.0
 10
16.37655
 20
38.64394
 30
0.0
 10
16.23096
 20
38.66277
 30
0.0
 10
16.1628
 20
38.67163
 30
0.0
 10
16.09426
 20
38.66905
 30
0.0
 10
16.02794
 20
38.65593
 30
0.0
 10
16.03598
 20
38.67375
 30
0.0
 10
16.04466
 20
38.69315
 30
0.0
 10
16.05401
 20
38.7141
 30
0.0
 10
16.15476
 20
38.93942
 30
0.0
 10
16.33235
 20
39.33647
 30
0.0
 10
16.52761
 20
39.57104
 30
0.0
 10
16.6816
 20
39.349
 30
0.0
 10
16.94463
 20
38.80628
 30
0.0
 10
17.04404
 20
38.57465
 30
0.0
 10
17.1212
 20
38.39459
 30
0.0
 10
17.09809
 20
38.32308
 30
0.0
 10
17.05978
 20
38.20466
 30
0.0
  0
SPLINE
  5
6D
330
1F
100
AcDbEntity
  8
Layer 1
 62
    12
370
    35
100
AcDbSpline
210
0.0
220
0.0
230
1.0
 70
    11
 71
     3
 72
    14
 73
    10
 74
     0
 42
0.0000000001
 43
0.0000000001
 40
0.0
 40
0.0
 40
0.0
 40
0.0
 40
0.3333333333333333
 40
0.3333333333333333
 40
0.3333333333333333
 40
0.6666666666666666
 40
0.6666666666666666
 40
0.6666666666666666
 40
1.0
 40
1.0
 40
1.0
 40
1.0
 10
16.08812
 20
37.9031
 30
0.0
 10
16.07376
 20
37.93319
 30
0.0
 10
16.13402
 20
37.80701
 30
0.0
 10
15.92136
 20
38.25221
 30
0.0
 10
16.02367
 20
38.35462
 30
0.0
 10
16.18126
 20
38.36817
 30
0.0
 10
16.25424
 20
38.32968
 30
0.0
 10
16.29795
 20
38.29659
 30
0.0
 10
16.31242
 20
38.03352
 30
0.0
 10
16.08812
 20
37.9031
 30
0.0
  0
SPLINE
  5
6E
330
1F
100
AcDbEntity
  8
Layer 1
 62
    12
370
    35
100
AcDbSpline
210
0.0
220
0.0
230
1.0
 70
    11
 71
     3
 72
    50
 73
    46
 74
     0
 42
0.0000000001
 43
0.0000000001
 40
0.0
 40
0.0
 40
0.0
 40
0.0
 40
0.0666666666666667
 40
0.0666666666666667
 40
0.0666666666666667
 40
0.1333333333333333
 40
0.1333333333333333
 40
0.1333333333333333
 40
0.2
 40
0.2
 40
0.2
 40
0.2666666666666667
 40
0.2666666666666667
 40
0.2666666666666667
 40
0.3333333333333333
 40
0.3333333333333333
 40
0.3333333333333333
 40
0.4
 40
0.4
 40
0.4
 40
0.4666666666666667
 40
0.4666666666666667
 40
0.4666666666666667
 40
0.5333333333333333
 40
0.5333333333333333
 40
0.5333333333333333
 40
0.6
 40
0.6
 40
0.6
 40
0.6666666666666666
 40
0.6666666666666666
 40
0.6666666666666666
 40
0.7333333333333333
 40
0.7333333333333333
 40
0.7333333333333333
 40
0.8
 40
0.8
 40
0.8
 40
0.8666666666666667
 40
0.8666666666666667
 40
0.8666666666666667
 40
0.9333333333333333
 40
0.9333333333333333
 40
0.9333333333333333
 40
1.0
 40
1.0
 40
1.0
 40
1.0
 10
15.78851
 20
34.9094
 30
0.0
 10
15.6076
 20
35.1417
 30
0.0
 10
15.42659
 20
35.36748
 30
0.0
 10
15.12525
 20
35.38339
 30
0.0
 10
14.90628
 20
35.39524
 30
0.0
 10
14.5691
 20
35.24302
 30
0.0
 10
14.39239
 20
35.09376
 30
0.0
 10
14.25918
 20
34.98133
 30
0.0
 10
13.95498
 20
34.60766
 30
0.0
 10
13.80561
 20
34.34248
 30
0.0
 10
13.5725
 20
34.40168
 30
0.0
 10
13.34774
 20
34.48328
 30
0.0
 10
13.13643
 20
34.58551
 30
0.0
 10
12.77099
 20
34.76232
 30
0.0
 10
12.39814
 20
34.98478
 30
0.0
 10
12.40364
 20
35.29431
 30
0.0
 10
12.40734
 20
35.50792
 30
0.0
 10
12.65549
 20
35.62779
 30
0.0
 10
12.85911
 20
35.74827
 30
0.0
 10
14.87157
 20
36.94069
 30
0.0
 10
13.66327
 20
35.54108
 30
0.0
 10
14.77723
 20
36.0615
 30
0.0
 10
14.84398
 20
35.93661
 30
0.0
 10
14.91701
 20
35.81914
 30
0.0
 10
14.99515
 20
35.71108
 30
0.0
 10
15.0342
 20
35.65711
 30
0.0
 10
15.10698
 20
35.5566
 30
0.0
 10
15.20166
 20
35.61693
 30
0.0
 10
15.29367
 20
35.67556
 30
0.0
 10
15.25832
 20
35.76784
 30
0.0
 10
15.14254
 20
36.02615
 30
0.0
 10
15.09773
 20
36.12602
 30
0.0
 10
15.04496
 20
36.23662
 30
0.0
 10
15.01039
 20
36.30534
 30
0.0
 10
15.08151
 20
36.44789
 30
0.0
 10
15.06037
 20
36.46977
 30
0.0
 10
15.29769
 20
36.56128
 30
0.0
 10
15.41287
 20
36.60566
 30
0.0
 10
15.55754
 20
36.66143
 30
0.0
 10
15.69911
 20
36.78713
 30
0.0
 10
15.708
 20
36.58897
 30
0.0
 10
15.7201
 20
36.33642
 30
0.0
 10
15.73517
 20
36.12256
 30
0.0
 10
15.7666
 20
35.67683
 30
0.0
 10
16.1252
 20
35.47934
 30
0.0
 10
15.78851
 20
34.9094
 30
0.0
  0
SPLINE
  5
6F
330
1F
100
AcDbEntity
  8
Layer 1
 62
    12
370
    35
100
AcDbSpline
210
0.0
220
0.0
230
1.0
 70
    11
 71
     3
 72
    29
 73
    25
 74
     0
 42
0.0000000001
 43
0.0000000001
 40
0.0
 40
0.0
 40
0.0
 40
0.0
 40
0.125
 40
0.125
 40
0.125
 40
0.25
 40
0.25
 40
0.25
 40
0.375
 40
0.375
 40
0.375
 40
0.5
 40
0.5
 40
0.5
 40
0.625
 40
0.625
 40
0.625
 40
0.75
 40
0.75
 40
0.75
 40
0.875
 40
0.875
 40
0.875
 40
1.0
 40
1.0
 40
1.0
 40
1.0
 10
15.26583
 20
34.28417
 30
0.0
 10
15.07639
 20
34.12538
 30
0.0
 10
14.89746
 20
33.97538
 30
0.0
 10
14.67712
 20
33.89015
 30
0.0
 10
14.31488
 20
33.75003
 30
0.0
 10
14.04825
 20
33.80266
 30
0.0
 10
13.85363
 20
33.8101
 30
0.0
 10
14.05274
 20
34.07917
 30
0.0
 10
14.14545
 20
34.37074
 30
0.0
 10
14.51544
 20
34.77044
 30
0.0
 10
14.60942
 20
34.87193
 30
0.0
 10
14.72774
 20
34.94951
 30
0.0
 10
14.87721
 20
35.00757
 30
0.0
 10
15.01296
 20
35.06028
 30
0.0
 10
15.10948
 20
35.08293
 30
0.0
 10
15.20145
 20
35.04211
 30
0.0
 10
15.33332
 20
34.98362
 30
0.0
 10
15.42553
 20
34.86371
 30
0.0
 10
15.52308
 20
34.73682
 30
0.0
 10
15.56375
 20
34.6839
 30
0.0
 10
15.60527
 20
34.62996
 30
0.0
 10
15.65092
 20
34.57881
 30
0.0
 10
15.51235
 20
34.49082
 30
0.0
 10
15.38747
 20
34.38612
 30
0.0
 10
15.26583
 20
34.28417
 30
0.0
  0
SPLINE
  5
70
330
1F
100
AcDbEntity
  8
Layer 1
 62
    12
370
    35
100
AcDbSpline
210
0.0
220
0.0
230
1.0
 70
    11
 71
     3
 72
    14
 73
    10
 74
     0
 42
0.0000000001
 43
0.0000000001
 40
0.0
 40
0.0
 40
0.0
 40
0.0
 40
0.3333333333333333
 40
0.3333333333333333
 40
0.3333333333333333
 40
0.6666666666666666
 40
0.6666666666666666
 40
0.6666666666666666
 40
1.0
 40
1.0
 40
1.0
 40
1.0
 10
12.60973
 20
33.50672
 30
0.0
 10
12.60984
 20
33.56122
 30
0.0
 10
12.63884
 20
33.65404
 30
0.0
 10
12.61764
 20
33.75299
 30
0.0
 10
13.19446
 20
33.80647
 30
0.0
 10
12.81075
 20
33.78897
 30
0.0
 10
13.33335
 20
33.72632
 30
0.0
 10
13.02329
 20
33.48848
 30
0.0
 10
12.60973
 20
33.40766
 30
0.0
 10
12.60973
 20
33.50672
 30
0.0
  0
SPLINE
  5
71
330
1F
100
AcDbEntity
  8
Layer 1
 62
    12
370
    35
100
AcDbSpline
210
0.0
220
0.0
230
1.0
 70
    11
 71
     3
 72
    14
 73
    10
 74
     0
 42
0.0000000001
 43
0.0000000001
 40
0.0
 40
0.0
 40
0.0
 40
0.0
 40
0.3333333333333333
 40
0.3333333333333333
 40
0.3333333333333333
 40
0.6666666666666666
 40
0.6666666666666666
 40
0.6666666666666666
 40
1.0
 40
1.0
 40
1.0
 40
1.0
 10
12.37281
 20
36.40874
 30
0.0
 10
12.49166
 20
36.37946
 30
0.0
 10
12.68318
 20
36.33162
 30
0.0
 10
13.01172
 20
36.24826
 30
0.0
 10
12.82359
 20
36.10334
 30
0.0
 10
12.69077
 20
36.02192
 30
0.0
 10
12.58998
 20
35.96103
 30
0.0
 10
12.52602
 20
36.13555
 30
0.0
 10
12.45451
 20
36.28318
 30
0.0
 10
12.37281
 20
36.40874
 30
0.0
  0
SPLINE
  5
72
330
1F
100
AcDbEntity
  8
Layer 1
 62
    12
370
    35
100
AcDbSpline
210
0.0
220
0.0
230
1.0
 70
    11
 71
     3
 72
    50
 73
    46
 74
     0
 42
0.0000000001
 43
0.0000000001
 40
0.0
 40
0.0
 40
0.0
 40
0.0
 40
0.0666666666666667
 40
0.0666666666666667
 40
0.0666666666666667
 40
0.1333333333333333
 40
0.1333333333333333
 40
0.1333333333333333
 40
0.2
 40
0.2
 40
0.2
 40
0.2666666666666667
 40
0.2666666666666667
 40
0.2666666666666667
 40
0.3333333333333333
 40
0.3333333333333333
 40
0.3333333333333333
 40
0.4
 40
0.4
 40
0.4
 40
0.4666666666666667
 40
0.4666666666666667
 40
0.4666666666666667
 40
0.5333333333333333
 40
0.5333333333333333
 40
0.5333333333333333
 40
0.6
 40
0.6
 40
0.6
 40
0.6666666666666666
 40
0.6666666666666666
 40
0.6666666666666666
 40
0.7333333333333333
 40
0.7333333333333333
 40
0.7333333333333333
 40
0.8
 40
0.8
 40
0.8
 40
0.8666666666666667
 40
0.8666666666666667
 40
0.8666666666666667
 40
0.9333333333333333
 40
0.9333333333333333
 40
0.9333333333333333
 40
1.0
 40
1.0
 40
1.0
 40
1.0
 10
12.08812
 20
35.20513
 30
0.0
 10
11.31133
 20
35.52686
 30
0.0
 10
11.63409
 20
35.47176
 30
0.0
 10
11.13674
 20
36.12482
 30
0.0
 10
10.93633
 20
36.38785
 30
0.0
 10
10.77808
 20
36.59564
 30
0.0
 10
10.75493
 20
37.25008
 30
0.0
 10
10.74618
 20
37.49758
 30
0.0
 10
10.74396
 20
37.75896
 30
0.0
 10
10.8197
 20
37.99525
 30
0.0
 10
10.9738
 20
38.4763
 30
0.0
 10
11.27652
 20
38.5974
 30
0.0
 10
11.53231
 20
38.89099
 30
0.0
 10
11.81796
 20
39.21903
 30
0.0
 10
12.78986
 20
39.42594
 30
0.0
 10
13.56689
 20
38.93286
 30
0.0
 10
13.44843
 20
38.8737
 30
0.0
 10
13.36217
 20
38.78741
 30
0.0
 10
13.29426
 20
38.7522
 30
0.0
 10
13.12807
 20
38.82745
 30
0.0
 10
12.78256
 20
38.85902
 30
0.0
 10
12.61686
 20
38.82597
 30
0.0
 10
12.45003
 20
38.79263
 30
0.0
 10
12.37972
 20
38.71897
 30
0.0
 10
12.12092
 20
38.62115
 30
0.0
 10
12.06663
 20
38.60062
 30
0.0
 10
12.0105
 20
38.57938
 30
0.0
 10
11.95515
 20
38.55341
 30
0.0
 10
11.65198
 20
38.41117
 30
0.0
 10
11.61525
 20
38.23129
 30
0.0
 10
11.58283
 20
38.07261
 30
0.0
 10
11.54819
 20
37.90363
 30
0.0
 10
11.50519
 20
37.81847
 30
0.0
 10
11.41357
 20
37.65295
 30
0.0
 10
11.31313
 20
37.47159
 30
0.0
 10
11.20928
 20
37.28405
 30
0.0
 10
11.289
 20
37.03566
 30
0.0
 10
11.36312
 20
36.80473
 30
0.0
 10
11.51044
 20
36.71802
 30
0.0
 10
11.66644
 20
36.62622
 30
0.0
 10
11.87948
 20
36.50081
 30
0.0
 10
12.1199
 20
36.35935
 30
0.0
 10
12.31799
 20
35.77123
 30
0.0
 10
12.13839
 20
35.60885
 30
0.0
 10
12.06021
 20
35.41422
 30
0.0
 10
12.08812
 20
35.20513
 30
0.0
  0
SPLINE
  5
73
330
1F
100
AcDbEntity
  8
Layer 1
 62
    12
370
    35
100
AcDbSpline
210
0.0
220
0.0
230
1.0
 70
    11
 71
     3
 72
    17
 73
    13
 74
     0
 42
0.0000000001
 43
0.0000000001
 40
0.0
 40
0.0
 40
0.0
 40
0.0
 40
0.25
 40
0.25
 40
0.25
 40
0.5
 40
0.5
 40
0.5
 40
0.75
 40
0.75
 40
0.75
 40
1.0
 40
1.0
 40
1.0
 40
1.0
 10
10.95154
 20
34.40055
 30
0.0
 10
10.95154
 20
34.40058
 30
0.0
 10
10.9515
 20
34.40058
 30
0.0
 10
10.95154
 20
34.40055
 30
0.0
 10
10.94134
 20
34.4129
 30
0.0
 10
10.9297
 20
34.42334
 30
0.0
 10
10.91703
 20
34.4318
 30
0.0
 10
11.62569
 20
34.43424
 30
0.0
 10
11.8695
 20
34.21957
 30
0.0
 10
12.23021
 20
34.03765
 30
0.0
 10
11.51711
 20
33.97397
 30
0.0
 10
11.29398
 20
33.98628
 30
0.0
 10
10.95154
 20
34.40055
 30
0.0
  0
SPLINE
  5
74
330
1F
100
AcDbEntity
  8
Layer 1
 62
    12
370
    35
100
AcDbSpline
210
0.0
220
0.0
230
1.0
 70
    11
 71
     3
 72
    32
 73
    28
 74
     0
 42
0.0000000001
 43
0.0000000001
 40
0.0
 40
0.0
 40
0.0
 40
0.0
 40
0.1111111111111111
 40
0.1111111111111111
 40
0.1111111111111111
 40
0.2222222222222222
 40
0.2222222222222222
 40
0.2222222222222222
 40
0.3333333333333333
 40
0.3333333333333333
 40
0.3333333333333333
 40
0.4444444444444444
 40
0.4444444444444444
 40
0.4444444444444444
 40
0.5555555555555556
 40
0.5555555555555556
 40
0.5555555555555556
 40
0.6666666666666666
 40
0.6666666666666666
 40
0.6666666666666666
 40
0.7777777777777777
 40
0.7777777777777777
 40
0.7777777777777777
 40
0.8888888888888888
 40
0.8888888888888888
 40
0.8888888888888888
 40
1.0
 40
1.0
 40
1.0
 40
1.0
 10
10.26334
 20
34.92993
 30
0.0
 10
9.73417
 20
35.27586
 30
0.0
 10
9.6736
 20
35.45641
 30
0.0
 10
9.57634
 20
35.86736
 30
0.0
 10
9.43674
 20
36.45745
 30
0.0
 10
9.44482
 20
36.90121
 30
0.0
 10
9.60174
 20
37.26394
 30
0.0
 10
9.71142
 20
37.51741
 30
0.0
 10
9.90417
 20
37.7555
 30
0.0
 10
10.19109
 20
37.99183
 30
0.0
 10
10.32454
 20
38.10175
 30
0.0
 10
10.45366
 20
38.19069
 30
0.0
 10
10.58087
 20
38.25994
 30
0.0
 10
10.48255
 20
38.0386
 30
0.0
 10
10.43574
 20
37.79078
 30
0.0
 10
10.43281
 20
37.49071
 30
0.0
 10
10.42018
 20
36.20603
 30
0.0
 10
10.81872
 20
36.14712
 30
0.0
 10
11.15015
 20
35.51892
 30
0.0
 10
11.32488
 20
35.1876
 30
0.0
 10
11.53461
 20
34.96161
 30
0.0
 10
11.74084
 20
34.81185
 30
0.0
 10
11.57564
 20
34.81362
 30
0.0
 10
11.51027
 20
34.80751
 30
0.0
 10
11.31246
 20
34.78455
 30
0.0
 10
10.61467
 20
34.70344
 30
0.0
 10
10.50319
 20
34.77319
 30
0.0
 10
10.26334
 20
34.92993
 30
0.0
  0
SPLINE
  5
75
330
1F
100
AcDbEntity
  8
Layer 1
 62
    12
370
    35
100
AcDbSpline
210
0.0
220
0.0
230
1.0
 70
    11
 71
     3
 72
    29
 73
    25
 74
     0
 42
0.0000000001
 43
0.0000000001
 40
0.0
 40
0.0
 40
0.0
 40
0.0
 40
0.125
 40
0.125
 40
0.125
 40
0.25
 40
0.25
 40
0.25
 40
0.375
 40
0.375
 40
0.375
 40
0.5
 40
0.5
 40
0.5
 40
0.625
 40
0.625
 40
0.625
 40
0.75
 40
0.75
 40
0.75
 40
0.875
 40
0.875
 40
0.875
 40
1.0
 40
1.0
 40
1.0
 40
1.0
 10
13.16014
 20
39.71151
 30
0.0
 10
13.2587
 20
39.80553
 30
0.0
 10
13.34383
 20
39.8867
 30
0.0
 10
13.38302
 20
39.88688
 30
0.0
 10
13.43848
 20
39.88713
 30
0.0
 10
13.57987
 20
39.76312
 30
0.0
 10
13.80106
 20
39.59446
 30
0.0
 10
14.02384
 20
39.42463
 30
0.0
 10
14.30074
 20
39.11105
 30
0.0
 10
14.35295
 20
39.08322
 30
0.0
 10
14.32282
 20
39.06706
 30
0.0
 10
14.2958
 20
39.04924
 30
0.0
 10
14.27312
 20
39.03136
 30
0.0
 10
14.18065
 20
39.05048
 30
0.0
 10
14.05623
 20
39.04377
 30
0.0
 10
13.9626
 20
39.03386
 30
0.0
 10
13.9626
 20
39.0339
 30
0.0
 10
13.96257
 20
39.03393
 30
0.0
 10
13.96253
 20
39.03393
 30
0.0
 10
13.84079
 20
39.17649
 30
0.0
 10
13.40225
 20
39.44333
 30
0.0
 10
12.85562
 20
39.52366
 30
0.0
 10
12.95831
 20
39.58487
 30
0.0
 10
13.05519
 20
39.61139
 30
0.0
 10
13.16014
 20
39.71151
 30
0.0
  0
SPLINE
  5
76
330
1F
100
AcDbEntity
  8
Layer 1
 62
    12
370
    35
100
AcDbSpline
210
0.0
220
0.0
230
1.0
 70
    11
 71
     3
 72
    17
 73
    13
 74
     0
 42
0.0000000001
 43
0.0000000001
 40
0.0
 40
0.0
 40
0.0
 40
0.0
 40
0.25
 40
0.25
 40
0.25
 40
0.5
 40
0.5
 40
0.5
 40
0.75
 40
0.75
 40
0.75
 40
1.0
 40
1.0
 40
1.0
 40
1.0
 10
14.51819
 20
38.8083
 30
0.0
 10
14.56426
 20
38.83161
 30
0.0
 10
14.61171
 20
38.83789
 30
0.0
 10
14.65994
 20
38.82678
 30
0.0
 10
14.79727
 20
38.79524
 30
0.0
 10
14.79364
 20
38.62242
 30
0.0
 10
14.74326
 20
38.35378
 30
0.0
 10
14.73109
 20
38.28908
 30
0.0
 10
14.71627
 20
38.22477
 30
0.0
 10
14.69885
 20
38.16109
 30
0.0
 10
14.67274
 20
38.29768
 30
0.0
 10
14.56924
 20
38.70147
 30
0.0
 10
14.51819
 20
38.8083
 30
0.0
  0
SPLINE
  5
77
330
1F
100
AcDbEntity
  8
Layer 1
 62
    12
370
    35
100
AcDbSpline
210
0.0
220
0.0
230
1.0
 70
    11
 71
     3
 72
    20
 73
    16
 74
     0
 42
0.0000000001
 43
0.0000000001
 40
0.0
 40
0.0
 40
0.0
 40
0.0
 40
0.2
 40
0.2
 40
0.2
 40
0.4
 40
0.4
 40
0.4
 40
0.6000000000000001
 40
0.6000000000000001
 40
0.6000000000000001
 40
0.8
 40
0.8
 40
0.8
 40
1.0
 40
1.0
 40
1.0
 40
1.0
 10
14.76009
 20
37.26768
 30
0.0
 10
14.71045
 20
37.25456
 30
0.0
 10
14.66089
 20
37.24143
 30
0.0
 10
14.61132
 20
37.22873
 30
0.0
 10
14.73871
 20
37.41309
 30
0.0
 10
14.84296
 20
37.61146
 30
0.0
 10
14.92328
 20
37.82239
 30
0.0
 10
14.99306
 20
37.66995
 30
0.0
 10
15.07893
 20
37.5238
 30
0.0
 10
15.1631
 20
37.38064
 30
0.0
 10
15.1631
 20
37.38064
 30
0.0
 10
15.17044
 20
37.36815
 30
0.0
 10
15.17044
 20
37.36815
 30
0.0
 10
15.03145
 20
37.33954
 30
0.0
 10
14.8939
 20
37.30313
 30
0.0
 10
14.76009
 20
37.26768
 30
0.0
  0
SPLINE
  5
78
330
1F
100
AcDbEntity
  8
Layer 1
 62
    12
370
    35
100
AcDbSpline
210
0.0
220
0.0
230
1.0
 70
    11
 71
     3
 72
    14
 73
    10
 74
     0
 42
0.0000000001
 43
0.0000000001
 40
0.0
 40
0.0
 40
0.0
 40
0.0
 40
0.3333333333333333
 40
0.3333333333333333
 40
0.3333333333333333
 40
0.6666666666666666
 40
0.6666666666666666
 40
0.6666666666666666
 40
1.0
 40
1.0
 40
1.0
 40
1.0
 10
14.78835
 20
36.57299
 30
0.0
 10
14.72421
 20
36.45848
 30
0.0
 10
14.70619
 20
36.35201
 30
0.0
 10
14.60631
 20
36.33642
 30
0.0
 10
14.4373
 20
36.31024
 30
0.0
 10
14.22884
 20
36.51235
 30
0.0
 10
14.15003
 20
36.56907
 30
0.0
 10
14.36706
 20
36.52603
 30
0.0
 10
14.53696
 20
36.49725
 30
0.0
 10
14.78835
 20
36.57299
 30
0.0
  0
SPLINE
  5
79
330
1F
100
AcDbEntity
  8
Layer 1
 62
    12
370
    35
100
AcDbSpline
210
0.0
220
0.0
230
1.0
 70
    11
 71
     3
 72
    17
 73
    13
 74
     0
 42
0.0000000001
 43
0.0000000001
 40
0.0
 40
0.0
 40
0.0
 40
0.0
 40
0.25
 40
0.25
 40
0.25
 40
0.5
 40
0.5
 40
0.5
 40
0.75
 40
0.75
 40
0.75
 40
1.0
 40
1.0
 40
1.0
 40
1.0
 10
13.72081
 20
38.65477
 30
0.0
 10
13.81345
 20
38.69752
 30
0.0
 10
13.92852
 20
38.70761
 30
0.0
 10
14.02846
 20
38.71873
 30
0.0
 10
14.25428
 20
38.74416
 30
0.0
 10
14.2245
 20
38.71015
 30
0.0
 10
14.29506
 20
38.46303
 30
0.0
 10
14.31859
 20
38.38069
 30
0.0
 10
14.33785
 20
38.31084
 30
0.0
 10
14.35383
 20
38.24643
 30
0.0
 10
14.15769
 20
38.45005
 30
0.0
 10
13.99396
 20
38.58111
 30
0.0
 10
13.72081
 20
38.65477
 30
0.0
  0
SPLINE
  5
7A
330
1F
100
AcDbEntity
  8
Layer 1
 62
    12
370
    35
100
AcDbSpline
210
0.0
220
0.0
230
1.0
 70
    11
 71
     3
 72
    17
 73
    13
 74
     0
 42
0.0000000001
 43
0.0000000001
 40
0.0
 40
0.0
 40
0.0
 40
0.0
 40
0.25
 40
0.25
 40
0.25
 40
0.5
 40
0.5
 40
0.5
 40
0.75
 40
0.75
 40
0.75
 40
1.0
 40
1.0
 40
1.0
 40
1.0
 10
13.11456
 20
37.26133
 30
0.0
 10
13.33938
 20
37.50034
 30
0.0
 10
13.42641
 20
37.82824
 30
0.0
 10
13.7697
 20
37.62458
 30
0.0
 10
13.96521
 20
37.50859
 30
0.0
 10
13.97329
 20
37.47462
 30
0.0
 10
13.85363
 20
37.29093
 30
0.0
 10
13.67604
 20
37.01834
 30
0.0
 10
13.10136
 20
36.78049
 30
0.0
 10
12.89005
 20
36.99184
 30
0.0
 10
12.76619
 20
37.11567
 30
0.0
 10
12.99708
 20
37.13645
 30
0.0
 10
13.11456
 20
37.26133
 30
0.0
  0
SPLINE
  5
7B
330
1F
100
AcDbEntity
  8
Layer 1
 62
    12
370
    35
100
AcDbSpline
210
0.0
220
0.0
230
1.0
 70
    11
 71
     3
 72
    20
 73
    16
 74
     0
 42
0.0000000001
 43
0.0000000001
 40
0.0
 40
0.0
 40
0.0
 40
0.0
 40
0.2
 40
0.2
 40
0.2
 40
0.4
 40
0.4
 40
0.4
 40
0.6000000000000001
 40
0.6000000000000001
 40
0.6000000000000001
 40
0.8
 40
0.8
 40
0.8
 40
1.0
 40
1.0
 40
1.0
 40
1.0
 10
12.86758
 20
38.16853
 30
0.0
 10
13.03539
 20
38.42543
 30
0.0
 10
13.09184
 20
38.39974
 30
0.0
 10
13.32368
 20
38.39089
 30
0.0
 10
13.52974
 20
38.38288
 30
0.0
 10
13.68937
 20
38.34711
 30
0.0
 10
13.81697
 20
38.27948
 30
0.0
 10
13.64492
 20
38.32852
 30
0.0
 10
13.49111
 20
38.28368
 30
0.0
 10
13.40567
 20
38.19601
 30
0.0
 10
13.25969
 20
38.1837
 30
0.0
 10
13.17382
 20
38.12825
 30
0.0
 10
13.0742
 20
38.03465
 30
0.0
 10
12.24454
 20
37.25533
 30
0.0
 10
12.49243
 20
37.59432
 30
0.0
 10
12.86758
 20
38.16853
 30
0.0
  0
SPLINE
  5
7C
330
1F
100
AcDbEntity
  8
Layer 1
 62
    12
370
    35
100
AcDbSpline
210
0.0
220
0.0
230
1.0
 70
    11
 71
     3
 72
    29
 73
    25
 74
     0
 42
0.0000000001
 43
0.0000000001
 40
0.0
 40
0.0
 40
0.0
 40
0.0
 40
0.125
 40
0.125
 40
0.125
 40
0.25
 40
0.25
 40
0.25
 40
0.375
 40
0.375
 40
0.375
 40
0.5
 40
0.5
 40
0.5
 40
0.625
 40
0.625
 40
0.625
 40
0.75
 40
0.75
 40
0.75
 40
0.875
 40
0.875
 40
0.875
 40
1.0
 40
1.0
 40
1.0
 40
1.0
 10
11.96471
 20
37.2469
 30
0.0
 10
11.96471
 20
37.2469
 30
0.0
 10
12.08766
 20
36.99318
 30
0.0
 10
12.08766
 20
36.99318
 30
0.0
 10
12.01717
 20
37.08155
 30
0.0
 10
11.93864
 20
37.18718
 30
0.0
 10
11.87218
 20
37.30031
 30
0.0
 10
11.75347
 20
37.50235
 30
0.0
 10
11.77055
 20
37.59005
 30
0.0
 10
11.83517
 20
37.7882
 30
0.0
 10
11.95216
 20
38.1473
 30
0.0
 10
11.84389
 20
38.17763
 30
0.0
 10
12.236
 20
38.32407
 30
0.0
 10
12.51875
 20
38.42976
 30
0.0
 10
12.56253
 20
38.50586
 30
0.0
 10
12.7397
 20
38.52173
 30
0.0
 10
12.70368
 20
38.48402
 30
0.0
 10
12.67214
 20
38.4443
 30
0.0
 10
12.64473
 20
38.40638
 30
0.0
 10
12.49473
 20
38.38793
 30
0.0
 10
12.2947
 20
38.22607
 30
0.0
 10
12.15257
 20
38.04658
 30
0.0
 10
11.98253
 20
37.83174
 30
0.0
 10
11.77107
 20
37.56468
 30
0.0
 10
11.96471
 20
37.2469
 30
0.0
  0
SPLINE
  5
7D
330
1F
100
AcDbEntity
  8
Layer 1
 62
    12
370
    35
100
AcDbSpline
210
0.0
220
0.0
230
1.0
 70
    11
 71
     3
 72
    41
 73
    37
 74
     0
 42
0.0000000001
 43
0.0000000001
 40
0.0
 40
0.0
 40
0.0
 40
0.0
 40
0.0833333333333333
 40
0.0833333333333333
 40
0.0833333333333333
 40
0.1666666666666667
 40
0.1666666666666667
 40
0.1666666666666667
 40
0.25
 40
0.25
 40
0.25
 40
0.3333333333333333
 40
0.3333333333333333
 40
0.3333333333333333
 40
0.4166666666666666
 40
0.4166666666666666
 40
0.4166666666666666
 40
0.5
 40
0.5
 40
0.5
 40
0.5833333333333333
 40
0.5833333333333333
 40
0.5833333333333333
 40
0.6666666666666666
 40
0.6666666666666666
 40
0.6666666666666666
 40
0.75
 40
0.75
 40
0.75
 40
0.8333333333333333
 40
0.8333333333333333
 40
0.8333333333333333
 40
0.9166666666666666
 40
0.9166666666666666
 40
0.9166666666666666
 40
1.0
 40
1.0
 40
1.0
 40
1.0
 10
14.30109
 20
39.98051
 30
0.0
 10
14.38392
 20
40.01039
 30
0.0
 10
14.46206
 20
40.03868
 30
0.0
 10
14.51939
 20
40.01275
 30
0.0
 10
14.57001
 20
39.98996
 30
0.0
 10
14.73727
 20
39.84419
 30
0.0
 10
14.83484
 20
39.74979
 30
0.0
 10
15.05011
 20
39.5414
 30
0.0
 10
15.22124
 20
39.3164
 30
0.0
 10
15.34351
 20
39.08113
 30
0.0
 10
15.44681
 20
38.88234
 30
0.0
 10
15.46639
 20
38.75287
 30
0.0
 10
15.48907
 20
38.60298
 30
0.0
 10
15.56658
 20
38.09099
 30
0.0
 10
15.84037
 20
37.67655
 30
0.0
 10
15.84393
 20
37.67655
 30
0.0
 10
15.84075
 20
37.6557
 30
0.0
 10
15.80354
 20
37.6219
 30
0.0
 10
15.70726
 20
37.36614
 30
0.0
 10
15.65131
 20
37.38551
 30
0.0
 10
15.59166
 20
37.3974
 30
0.0
 10
15.52742
 20
37.40209
 30
0.0
 10
15.506
 20
37.44837
 30
0.0
 10
15.47362
 20
37.50715
 30
0.0
 10
15.42896
 20
37.58733
 30
0.0
 10
15.28432
 20
37.84701
 30
0.0
 10
15.04231
 20
38.2817
 30
0.0
 10
15.09354
 20
38.60079
 30
0.0
 10
15.16716
 20
39.05905
 30
0.0
 10
14.76626
 20
38.99181
 30
0.0
 10
14.25509
 20
39.58328
 30
0.0
 10
14.17215
 20
39.67916
 30
0.0
 10
14.0594
 20
39.79755
 30
0.0
 10
13.92623
 20
39.9072
 30
0.0
 10
14.10773
 20
39.91711
 30
0.0
 10
14.19487
 20
39.94226
 30
0.0
 10
14.30109
 20
39.98051
 30
0.0
  0
SPLINE
  5
7E
330
1F
100
AcDbEntity
  8
Layer 1
 62
    12
370
    35
100
AcDbSpline
210
0.0
220
0.0
230
1.0
 70
    11
 71
     3
 72
    23
 73
    19
 74
     0
 42
0.0000000001
 43
0.0000000001
 40
0.0
 40
0.0
 40
0.0
 40
0.0
 40
0.1666666666666667
 40
0.1666666666666667
 40
0.1666666666666667
 40
0.3333333333333333
 40
0.3333333333333333
 40
0.3333333333333333
 40
0.5
 40
0.5
 40
0.5
 40
0.6666666666666666
 40
0.6666666666666666
 40
0.6666666666666666
 40
0.8333333333333333
 40
0.8333333333333333
 40
0.8333333333333333
 40
1.0
 40
1.0
 40
1.0
 40
1.0
 10
16.06272
 20
39.75769
 30
0.0
 10
16.11691
 20
39.75716
 30
0.0
 10
16.17498
 20
39.75501
 30
0.0
 10
16.23138
 20
39.74686
 30
0.0
 10
16.12947
 20
39.62321
 30
0.0
 10
16.04357
 20
39.4639
 30
0.0
 10
15.9928
 20
39.36025
 30
0.0
 10
15.90725
 20
39.18563
 30
0.0
 10
15.841
 20
38.99982
 30
0.0
 10
15.79532
 20
38.80681
 30
0.0
 10
15.76685
 20
38.91102
 30
0.0
 10
15.72444
 20
39.02603
 30
0.0
 10
15.65675
 20
39.16721
 30
0.0
 10
15.54435
 20
39.40146
 30
0.0
 10
15.39537
 20
39.61796
 30
0.0
 10
15.19535
 20
39.83601
 30
0.0
 10
15.39488
 20
39.81773
 30
0.0
 10
15.60852
 20
39.76203
 30
0.0
 10
16.06272
 20
39.75769
 30
0.0
  0
SPLINE
  5
7F
330
1F
100
AcDbEntity
  8
Layer 1
 62
    12
370
    35
100
AcDbSpline
210
0.0
220
0.0
230
1.0
 70
    11
 71
     3
 72
   104
 73
   100
 74
     0
 42
0.0000000001
 43
0.0000000001
 40
0.0
 40
0.0
 40
0.0
 40
0.0
 40
0.0303030303030303
 40
0.0303030303030303
 40
0.0303030303030303
 40
0.0606060606060606
 40
0.0606060606060606
 40
0.0606060606060606
 40
0.0909090909090909
 40
0.0909090909090909
 40
0.0909090909090909
 40
0.1212121212121212
 40
0.1212121212121212
 40
0.1212121212121212
 40
0.1515151515151515
 40
0.1515151515151515
 40
0.1515151515151515
 40
0.1818181818181818
 40
0.1818181818181818
 40
0.1818181818181818
 40
0.2121212121212121
 40
0.2121212121212121
 40
0.2121212121212121
 40
0.2424242424242424
 40
0.2424242424242424
 40
0.2424242424242424
 40
0.2727272727272727
 40
0.2727272727272727
 40
0.2727272727272727
 40
0.303030303030303
 40
0.303030303030303
 40
0.303030303030303
 40
0.3333333333333334
 40
0.3333333333333334
 40
0.3333333333333334
 40
0.3636363636363636
 40
0.3636363636363636
 40
0.3636363636363636
 40
0.3939393939393939
 40
0.3939393939393939
 40
0.3939393939393939
 40
0.4242424242424243
 40
0.4242424242424243
 40
0.4242424242424243
 40
0.4545454545454546
 40
0.4545454545454546
 40
0.4545454545454546
 40
0.4848484848484849
 40
0.4848484848484849
 40
0.4848484848484849
 40
0.5151515151515151
 40
0.5151515151515151
 40
0.5151515151515151
 40
0.5454545454545454
 40
0.5454545454545454
 40
0.5454545454545454
 40
0.5757575757575758
 40
0.5757575757575758
 40
0.5757575757575758
 40
0.6060606060606061
 40
0.6060606060606061
 40
0.6060606060606061
 40
0.6363636363636364
 40
0.6363636363636364
 40
0.6363636363636364
 40
0.6666666666666667
 40
0.6666666666666667
 40
0.6666666666666667
 40
0.696969696969697
 40
0.696969696969697
 40
0.696969696969697
 40
0.7272727272727273
 40
0.7272727272727273
 40
0.7272727272727273
 40
0.7575757575757576
 40
0.7575757575757576
 40
0.7575757575757576
 40
0.7878787878787878
 40
0.7878787878787878
 40
0.7878787878787878
 40
0.8181818181818182
 40
0.8181818181818182
 40
0.8181818181818182
 40
0.8484848484848485
 40
0.8484848484848485
 40
0.8484848484848485
 40
0.8787878787878788
 40
0.8787878787878788
 40
0.8787878787878788
 40
0.9090909090909092
 40
0.9090909090909092
 40
0.9090909090909092
 40
0.9393939393939394
 40
0.9393939393939394
 40
0.9393939393939394
 40
0.9696969696969697
 40
0.9696969696969697
 40
0.9696969696969697
 40
1.0
 40
1.0
 40
1.0
 40
1.0
 10
17.26915
 20
38.85359
 30
0.0
 10
17.15079
 20
39.10114
 30
0.0
 10
17.0505
 20
39.31383
 30
0.0
 10
16.85654
 20
39.64491
 30
0.0
 10
16.79558
 20
39.74887
 30
0.0
 10
16.72651
 20
39.86673
 30
0.0
 10
16.60932
 20
39.94724
 30
0.0
 10
16.60932
 20
39.94724
 30
0.0
 10
16.60932
 20
39.94727
 30
0.0
 10
16.60932
 20
39.94727
 30
0.0
 10
16.39719
 20
40.09287
 30
0.0
 10
16.14418
 20
40.0748
 30
0.0
 10
15.90422
 20
40.07731
 30
0.0
 10
15.76611
 20
40.07865
 30
0.0
 10
15.63015
 20
40.09872
 30
0.0
 10
15.49874
 20
40.11812
 30
0.0
 10
15.29956
 20
40.14758
 30
0.0
 10
15.09414
 20
40.17792
 30
0.0
 10
14.87958
 20
40.14317
 30
0.0
 10
14.6321
 20
40.35713
 30
0.0
 10
14.50115
 20
40.38278
 30
0.0
 10
14.20009
 20
40.28269
 30
0.0
 10
14.03788
 20
40.22833
 30
0.0
 10
13.99968
 20
40.22533
 30
0.0
 10
13.76282
 20
40.2186
 30
0.0
 10
13.56361
 20
40.21327
 30
0.0
 10
13.36588
 20
40.20625
 30
0.0
 10
13.17986
 20
40.1201
 30
0.0
 10
12.98639
 20
40.22265
 30
0.0
 10
12.61164
 20
40.20321
 30
0.0
 10
12.32677
 20
40.00785
 30
0.0
 10
12.11203
 20
39.86053
 30
0.0
 10
11.62517
 20
39.51011
 30
0.0
 10
11.51094
 20
39.28726
 30
0.0
 10
11.40965
 20
39.22598
 30
0.0
 10
11.34358
 20
39.15356
 30
0.0
 10
11.27948
 20
39.08332
 30
0.0
 10
10.74481
 20
38.49757
 30
0.0
 10
10.76093
 20
38.83719
 30
0.0
 10
10.08331
 20
38.31377
 30
0.0
 10
9.80698
 20
38.10034
 30
0.0
 10
9.59906
 20
37.88314
 30
0.0
 10
9.44772
 20
37.6497
 30
0.0
 10
9.17738
 20
37.2329
 30
0.0
 10
9.09804
 20
36.69657
 30
0.0
 10
9.21181
 20
36.05575
 30
0.0
 10
9.34513
 20
35.30493
 30
0.0
 10
9.46828
 20
35.0588
 30
0.0
 10
10.1399
 20
34.63017
 30
0.0
 10
10.19843
 20
34.59281
 30
0.0
 10
10.25152
 20
34.56254
 30
0.0
 10
10.30243
 20
34.53757
 30
0.0
 10
10.30218
 20
34.34746
 30
0.0
 10
10.43493
 20
34.18592
 30
0.0
 10
10.53879
 20
34.05684
 30
0.0
 10
10.63615
 20
33.93591
 30
0.0
 10
10.60624
 20
33.63234
 30
0.0
 10
11.24011
 20
33.37435
 30
0.0
 10
11.34675
 20
33.33096
 30
0.0
 10
11.46663
 20
33.28133
 30
0.0
 10
11.60245
 20
33.28552
 30
0.0
 10
11.89423
 20
33.29388
 30
0.0
 10
12.0909
 20
33.64285
 30
0.0
 10
12.26676
 20
33.67584
 30
0.0
 10
12.30006
 20
33.65996
 30
0.0
 10
12.31206
 20
33.6486
 30
0.0
 10
12.31555
 20
33.64465
 30
0.0
 10
12.31372
 20
33.59202
 30
0.0
 10
12.21953
 20
33.435
 30
0.0
 10
12.38882
 20
33.26259
 30
0.0
 10
12.47928
 20
33.17052
 30
0.0
 10
12.61513
 20
33.12998
 30
0.0
 10
12.77173
 20
33.14822
 30
0.0
 10
12.98869
 20
33.15778
 30
0.0
 10
13.20131
 20
33.22626
 30
0.0
 10
13.38687
 20
33.34638
 30
0.0
 10
13.60753
 20
33.49066
 30
0.0
 10
13.63409
 20
33.51398
 30
0.0
 10
13.94101
 20
33.48692
 30
0.0
 10
14.22859
 20
33.46227
 30
0.0
 10
14.53131
 20
33.50784
 30
0.0
 10
14.56148
 20
33.50799
 30
0.0
 10
15.12659
 20
33.51046
 30
0.0
 10
16.67902
 20
34.85531
 30
0.0
 10
16.94777
 20
36.15198
 30
0.0
 10
17.00333
 20
36.42003
 30
0.0
 10
17.02129
 20
36.47735
 30
0.0
 10
17.1231
 20
36.72303
 30
0.0
 10
17.23289
 20
36.98842
 30
0.0
 10
17.31187
 20
37.21984
 30
0.0
 10
17.31138
 20
37.52602
 30
0.0
 10
17.31127
 20
37.58779
 30
0.0
 10
17.31071
 20
37.63859
 30
0.0
 10
17.31025
 20
37.68184
 30
0.0
 10
17.30782
 20
37.90046
 30
0.0
 10
17.30771
 20
37.90896
 30
0.0
 10
17.38497
 20
38.17795
 30
0.0
 10
17.46276
 20
38.44899
 30
0.0
 10
17.38155
 20
38.61871
 30
0.0
 10
17.26915
 20
38.85359
 30
0.0
  0
SPLINE
  5
80
330
1F
100
AcDbEntity
  8
Layer 1
 62
    12
370
    35
100
AcDbSpline
210
0.0
220
0.0
230
1.0
 70
    11
 71
     3
 72
   173
 73
   169
 74
     0
 42
0.0000000001
 43
0.0000000001
 40
0.0
 40
0.0
 40
0.0
 40
0.0
 40
0.0178571428571429
 40
0.0178571428571429
 40
0.0178571428571429
 40
0.0357142857142857
 40
0.0357142857142857
 40
0.0357142857142857
 40
0.0535714285714286
 40
0.0535714285714286
 40
0.0535714285714286
 40
0.0714285714285714
 40
0.0714285714285714
 40
0.0714285714285714
 40
0.0892857142857143
 40
0.0892857142857143
 40
0.0892857142857143
 40
0.1071428571428571
 40
0.1071428571428571
 40
0.1071428571428571
 40
0.125
 40
0.125
 40
0.125
 40
0.1428571428571428
 40
0.1428571428571428
 40
0.1428571428571428
 40
0.1607142857142857
 40
0.1607142857142857
 40
0.1607142857142857
 40
0.1785714285714285
 40
0.1785714285714285
 40
0.1785714285714285
 40
0.1964285714285714
 40
0.1964285714285714
 40
0.1964285714285714
 40
0.2142857142857143
 40
0.2142857142857143
 40
0.2142857142857143
 40
0.2321428571428571
 40
0.2321428571428571
 40
0.2321428571428571
 40
0.25
 40
0.25
 40
0.25
 40
0.2678571428571428
 40
0.2678571428571428
 40
0.2678571428571428
 40
0.2857142857142857
 40
0.2857142857142857
 40
0.2857142857142857
 40
0.3035714285714285
 40
0.3035714285714285
 40
0.3035714285714285
 40
0.3214285714285714
 40
0.3214285714285714
 40
0.3214285714285714
 40
0.3392857142857142
 40
0.3392857142857142
 40
0.3392857142857142
 40
0.3571428571428571
 40
0.3571428571428571
 40
0.3571428571428571
 40
0.375
 40
0.375
 40
0.375
 40
0.3928571428571428
 40
0.3928571428571428
 40
0.3928571428571428
 40
0.4107142857142857
 40
0.4107142857142857
 40
0.4107142857142857
 40
0.4285714285714285
 40
0.4285714285714285
 40
0.4285714285714285
 40
0.4464285714285714
 40
0.4464285714285714
 40
0.4464285714285714
 40
0.4642857142857142
 40
0.4642857142857142
 40
0.4642857142857142
 40
0.4821428571428571
 40
0.4821428571428571
 40
0.4821428571428571
 40
0.5
 40
0.5
 40
0.5
 40
0.5178571428571428
 40
0.5178571428571428
 40
0.5178571428571428
 40
0.5357142857142857
 40
0.5357142857142857
 40
0.5357142857142857
 40
0.5535714285714285
 40
0.5535714285714285
 40
0.5535714285714285
 40
0.5714285714285714
 40
0.5714285714285714
 40
0.5714285714285714
 40
0.5892857142857143
 40
0.5892857142857143
 40
0.5892857142857143
 40
0.6071428571428571
 40
0.6071428571428571
 40
0.6071428571428571
 40
0.625
 40
0.625
 40
0.625
 40
0.6428571428571428
 40
0.6428571428571428
 40
0.6428571428571428
 40
0.6607142857142857
 40
0.6607142857142857
 40
0.6607142857142857
 40
0.6785714285714285
 40
0.6785714285714285
 40
0.6785714285714285
 40
0.6964285714285714
 40
0.6964285714285714
 40
0.6964285714285714
 40
0.7142857142857142
 40
0.7142857142857142
 40
0.7142857142857142
 40
0.7321428571428571
 40
0.7321428571428571
 40
0.7321428571428571
 40
0.75
 40
0.75
 40
0.75
 40
0.7678571428571428
 40
0.7678571428571428
 40
0.7678571428571428
 40
0.7857142857142857
 40
0.7857142857142857
 40
0.7857142857142857
 40
0.8035714285714285
 40
0.8035714285714285
 40
0.8035714285714285
 40
0.8214285714285714
 40
0.8214285714285714
 40
0.8214285714285714
 40
0.8392857142857142
 40
0.8392857142857142
 40
0.8392857142857142
 40
0.8571428571428571
 40
0.8571428571428571
 40
0.8571428571428571
 40
0.875
 40
0.875
 40
0.875
 40
0.8928571428571428
 40
0.8928571428571428
 40
0.8928571428571428
 40
0.9107142857142857
 40
0.9107142857142857
 40
0.9107142857142857
 40
0.9285714285714285
 40
0.9285714285714285
 40
0.9285714285714285
 40
0.9464285714285714
 40
0.9464285714285714
 40
0.9464285714285714
 40
0.9642857142857142
 40
0.9642857142857142
 40
0.9642857142857142
 40
0.9821428571428571
 40
0.9821428571428571
 40
0.9821428571428571
 40
1.0
 40
1.0
 40
1.0
 40
1.0
 10
4.98144
 20
25.37413
 30
0.0
 10
5.12679
 20
25.42035
 30
0.0
 10
5.23417
 20
25.7558
 30
0.0
 10
5.18701
 20
25.92549
 30
0.0
 10
5.16168
 20
26.01693
 30
0.0
 10
5.11864
 20
26.0744
 30
0.0
 10
5.11391
 20
26.10858
 30
0.0
 10
5.11391
 20
26.10858
 30
0.0
 10
5.54324
 20
26.14114
 30
0.0
 10
5.54324
 20
26.14114
 30
0.0
 10
5.5721
 20
26.14333
 30
0.0
 10
5.60173
 20
26.14478
 30
0.0
 10
5.63172
 20
26.14629
 30
0.0
 10
5.76401
 20
26.15285
 30
0.0
 10
5.91394
 20
26.1603
 30
0.0
 10
6.04736
 20
26.22831
 30
0.0
 10
6.16829
 20
26.28994
 30
0.0
 10
6.28023
 20
26.40086
 30
0.0
 10
6.38197
 20
26.5595
 30
0.0
 10
6.48533
 20
25.96518
 30
0.0
 10
6.49994
 20
25.85871
 30
0.0
 10
6.59039
 20
25.80315
 30
0.0
 10
6.63795
 20
25.76896
 30
0.0
 10
6.70039
 20
25.76339
 30
0.0
 10
6.7544
 20
25.78981
 30
0.0
 10
6.94342
 20
25.88213
 30
0.0
 10
7.08453
 20
26.06695
 30
0.0
 10
7.16246
 20
26.32434
 30
0.0
 10
7.19675
 20
26.43758
 30
0.0
 10
7.22299
 20
26.5529
 30
0.0
 10
7.24843
 20
26.66442
 30
0.0
 10
7.27086
 20
26.76274
 30
0.0
 10
7.29401
 20
26.86441
 30
0.0
 10
7.32205
 20
26.96114
 30
0.0
 10
7.43734
 20
27.35872
 30
0.0
 10
7.54106
 20
27.58577
 30
0.0
 10
7.61683
 20
27.75157
 30
0.0
 10
7.67801
 20
27.88542
 30
0.0
 10
7.72627
 20
27.99111
 30
0.0
 10
7.75297
 20
28.12079
 30
0.0
 10
7.80867
 20
28.39225
 30
0.0
 10
7.68855
 20
28.52853
 30
0.0
 10
7.60071
 20
28.62798
 30
0.0
 10
7.46849
 20
28.77802
 30
0.0
 10
7.48881
 20
28.86487
 30
0.0
 10
7.30597
 20
29.13298
 30
0.0
 10
7.70065
 20
28.63757
 30
0.0
 10
8.1484
 20
28.36378
 30
0.0
 10
8.64116
 20
28.31761
 30
0.0
 10
8.77613
 20
28.30494
 30
0.0
 10
8.86154
 20
28.30981
 30
0.0
 10
8.94409
 20
28.3145
 30
0.0
 10
9.07299
 20
28.32184
 30
0.0
 10
9.1947
 20
28.32875
 30
0.0
 10
9.53337
 20
28.25597
 30
0.0
 10
9.68909
 20
28.2225
 30
0.0
 10
9.72306
 20
28.32508
 30
0.0
 10
9.72831
 20
28.346
 30
0.0
 10
9.75869
 20
28.46859
 30
0.0
 10
9.64608
 20
28.50634
 30
0.0
 10
9.48984
 20
28.55855
 30
0.0
 10
9.34241
 20
28.60784
 30
0.0
 10
9.09751
 20
28.68146
 30
0.0
 10
8.76192
 20
28.77749
 30
0.0
 10
8.51356
 20
28.84854
 30
0.0
 10
8.31114
 20
29.05763
 30
0.0
 10
8.13252
 20
29.24209
 30
0.0
 10
7.91162
 20
29.47024
 30
0.0
 10
7.88798
 20
29.60464
 30
0.0
 10
7.76437
 20
29.8548
 30
0.0
 10
7.54049
 20
30.30805
 30
0.0
 10
7.0719
 20
30.65673
 30
0.0
 10
6.07163
 20
30.56699
 30
0.0
 10
5.98368
 20
30.55908
 30
0.0
 10
5.8684
 20
30.65786
 30
0.0
 10
5.69388
 20
30.80733
 30
0.0
 10
5.43074
 20
31.03283
 30
0.0
 10
5.20764
 20
31.50305
 30
0.0
 10
5.0635
 20
31.65996
 30
0.0
 10
4.90397
 20
31.8336
 30
0.0
 10
4.68744
 20
31.88955
 30
0.0
 10
4.49637
 20
31.93897
 30
0.0
 10
4.30051
 20
31.98963
 30
0.0
 10
4.09819
 20
32.02855
 30
0.0
 10
3.89662
 20
32.00237
 30
0.0
 10
3.6937
 20
32.10298
 30
0.0
 10
3.13426
 20
32.14616
 30
0.0
 10
2.8615
 20
32.13223
 30
0.0
 10
2.68937
 20
32.12341
 30
0.0
 10
2.51768
 20
32.09956
 30
0.0
 10
2.35113
 20
32.06132
 30
0.0
 10
2.13774
 20
32.01235
 30
0.0
 10
2.00629
 20
31.98194
 30
0.0
 10
1.92332
 20
31.96039
 30
0.0
 10
1.86525
 20
32.08566
 30
0.0
 10
1.77508
 20
32.26759
 30
0.0
 10
1.507
 20
32.35575
 30
0.0
 10
1.34723
 20
32.40828
 30
0.0
 10
1.18541
 20
32.40464
 30
0.0
 10
1.0431
 20
32.39695
 30
0.0
 10
0.90104
 20
32.38926
 30
0.0
 10
0.75418
 20
32.38129
 30
0.0
 10
0.60855
 20
32.35434
 30
0.0
 10
0.3065
 20
32.29846
 30
0.0
 10
0.04777
 20
32.13868
 30
0.0
 10
-0.12004
 20
31.90447
 30
0.0
 10
-0.20753
 20
31.78238
 30
0.0
 10
-0.27858
 20
31.62765
 30
0.0
 10
-0.29647
 20
31.46752
 30
0.0
 10
-0.31209
 20
31.32775
 30
0.0
 10
-0.28712
 20
31.18385
 30
0.0
 10
-0.19716
 20
31.05424
 30
0.0
 10
-0.07171
 20
30.87359
 30
0.0
 10
0.11925
 20
30.84727
 30
0.0
 10
0.27267
 20
30.82617
 30
0.0
 10
0.55458
 20
30.78737
 30
0.0
 10
0.52589
 20
30.75675
 30
0.0
 10
0.74197
 20
30.56166
 30
0.0
 10
0.67487
 20
30.46264
 30
0.0
 10
0.63589
 20
30.34537
 30
0.0
 10
0.58774
 20
30.29186
 30
0.0
 10
0.36926
 20
30.04816
 30
0.0
 10
0.45774
 20
29.98148
 30
0.0
 10
0.68426
 20
29.602
 30
0.0
 10
0.55249
 20
29.48406
 30
0.0
 10
0.41615
 20
29.36666
 30
0.0
 10
0.27055
 20
29.26929
 30
0.0
 10
0.23252
 20
29.24386
 30
0.0
 10
0.20783
 20
29.20456
 30
0.0
 10
0.20226
 20
29.15475
 30
0.0
 10
0.19527
 20
29.08719
 30
0.0
 10
0.22981
 20
29.02411
 30
0.0
 10
0.25316
 20
29.00023
 30
0.0
 10
0.4281
 20
28.8213
 30
0.0
 10
0.66634
 20
28.82169
 30
0.0
 10
0.80843
 20
28.70922
 30
0.0
 10
0.93579
 20
28.60836
 30
0.0
 10
1.05556
 20
28.47879
 30
0.0
 10
1.31756
 20
28.38379
 30
0.0
 10
1.31682
 20
28.06981
 30
0.0
 10
1.30952
 20
27.73019
 30
0.0
 10
1.54645
 20
27.51112
 30
0.0
 10
1.71588
 20
27.35449
 30
0.0
 10
1.8861
 20
27.34718
 30
0.0
 10
2.1364
 20
27.18134
 30
0.0
 10
2.20526
 20
27.13573
 30
0.0
 10
2.2761
 20
27.08877
 30
0.0
 10
2.42402
 20
27.02499
 30
0.0
 10
2.49073
 20
26.6163
 30
0.0
 10
3.11479
 20
26.11373
 30
0.0
 10
3.29224
 20
26.08413
 30
0.0
 10
3.38347
 20
26.06893
 30
0.0
 10
3.44217
 20
26.12477
 30
0.0
 10
3.45808
 20
26.18316
 30
0.0
 10
3.45808
 20
26.18316
 30
0.0
 10
3.48732
 20
26.29033
 30
0.0
 10
3.48732
 20
26.29033
 30
0.0
 10
3.65429
 20
26.25308
 30
0.0
 10
3.82624
 20
26.21163
 30
0.0
 10
3.97437
 20
26.20983
 30
0.0
 10
4.04161
 20
26.11084
 30
0.0
 10
4.11834
 20
26.03601
 30
0.0
 10
4.55747
 20
25.71781
 30
0.0
 10
4.65911
 20
25.64411
 30
0.0
 10
4.76417
 20
25.56791
 30
0.0
 10
4.79884
 20
25.4715
 30
0.0
 10
4.83176
 20
25.37988
 30
0.0
 10
4.91561
 20
25.35321
 30
0.0
 10
4.98144
 20
25.37413
 30
0.0
  0
SPLINE
  5
81
330
1F
100
AcDbEntity
  8
Layer 1
 62
    12
370
    35
100
AcDbSpline
210
0.0
220
0.0
230
1.0
 70
    11
 71
     3
 72
    35
 73
    31
 74
     0
 42
0.0000000001
 43
0.0000000001
 40
0.0
 40
0.0
 40
0.0
 40
0.0
 40
0.1
 40
0.1
 40
0.1
 40
0.2
 40
0.2
 40
0.2
 40
0.3
 40
0.3
 40
0.3
 40
0.4
 40
0.4
 40
0.4
 40
0.5
 40
0.5
 40
0.5
 40
0.6000000000000001
 40
0.6000000000000001
 40
0.6000000000000001
 40
0.7000000000000001
 40
0.7000000000000001
 40
0.7000000000000001
 40
0.8
 40
0.8
 40
0.8
 40
0.9
 40
0.9
 40
0.9
 40
1.0
 40
1.0
 40
1.0
 40
1.0
 10
3.43077
 20
37.37525
 30
0.0
 10
3.20193
 20
37.77706
 30
0.0
 10
3.21692
 20
37.56162
 30
0.0
 10
2.97777
 20
37.93994
 30
0.0
 10
2.85543
 20
38.1334
 30
0.0
 10
2.80315
 20
38.1836
 30
0.0
 10
2.66556
 20
38.2894
 30
0.0
 10
2.5012
 20
38.41566
 30
0.0
 10
2.62362
 20
38.38408
 30
0.0
 10
2.21274
 20
38.84531
 30
0.0
 10
2.18476
 20
38.87674
 30
0.0
 10
2.15294
 20
38.91244
 30
0.0
 10
2.12324
 20
38.94701
 30
0.0
 10
2.26019
 20
38.97223
 30
0.0
 10
3.04582
 20
38.16547
 30
0.0
 10
3.20648
 20
37.98742
 30
0.0
 10
3.473
 20
37.69218
 30
0.0
 10
3.65997
 20
37.36187
 30
0.0
 10
4.13587
 20
37.41447
 30
0.0
 10
4.1364
 20
37.41454
 30
0.0
 10
4.13696
 20
37.41458
 30
0.0
 10
4.13749
 20
37.41465
 30
0.0
 10
3.96142
 20
37.1785
 30
0.0
 10
4.05953
 20
37.11073
 30
0.0
 10
3.98022
 20
36.95692
 30
0.0
 10
3.95775
 20
36.91328
 30
0.0
 10
3.93087
 20
36.86125
 30
0.0
 10
3.92015
 20
36.79863
 30
0.0
 10
3.73201
 20
36.97791
 30
0.0
 10
3.57852
 20
37.11775
 30
0.0
 10
3.43077
 20
37.37525
 30
0.0
  0
SPLINE
  5
82
330
1F
100
AcDbEntity
  8
Layer 1
 62
    12
370
    35
100
AcDbSpline
210
0.0
220
0.0
230
1.0
 70
    11
 71
     3
 72
    29
 73
    25
 74
     0
 42
0.0000000001
 43
0.0000000001
 40
0.0
 40
0.0
 40
0.0
 40
0.0
 40
0.125
 40
0.125
 40
0.125
 40
0.25
 40
0.25
 40
0.25
 40
0.375
 40
0.375
 40
0.375
 40
0.5
 40
0.5
 40
0.5
 40
0.625
 40
0.625
 40
0.625
 40
0.75
 40
0.75
 40
0.75
 40
0.875
 40
0.875
 40
0.875
 40
1.0
 40
1.0
 40
1.0
 40
1.0
 10
2.16081
 20
37.73123
 30
0.0
 10
1.80426
 20
37.93472
 30
0.0
 10
1.75903
 20
37.87111
 30
0.0
 10
1.45973
 20
38.07004
 30
0.0
 10
1.32307
 20
38.16095
 30
0.0
 10
1.28408
 20
38.18148
 30
0.0
 10
1.14153
 20
38.24117
 30
0.0
 10
0.97861
 20
38.30947
 30
0.0
 10
0.87613
 20
38.35805
 30
0.0
 10
0.82424
 20
38.49066
 30
0.0
 10
0.76222
 20
38.64927
 30
0.0
 10
0.77975
 20
38.94821
 30
0.0
 10
0.77905
 20
39.16891
 30
0.0
 10
0.98892
 20
39.0551
 30
0.0
 10
1.196
 20
38.97527
 30
0.0
 10
1.4628
 20
38.93593
 30
0.0
 10
1.50118
 20
38.64895
 30
0.0
 10
1.70551
 20
38.42328
 30
0.0
 10
1.84613
 20
38.26795
 30
0.0
 10
2.07424
 20
38.016
 30
0.0
 10
2.16504
 20
37.82931
 30
0.0
 10
2.29529
 20
37.6653
 30
0.0
 10
2.25574
 20
37.67701
 30
0.0
 10
2.21686
 20
37.6992
 30
0.0
 10
2.16081
 20
37.73123
 30
0.0
  0
SPLINE
  5
83
330
1F
100
AcDbEntity
  8
Layer 1
 62
    12
370
    35
100
AcDbSpline
210
0.0
220
0.0
230
1.0
 70
    11
 71
     3
 72
    17
 73
    13
 74
     0
 42
0.0000000001
 43
0.0000000001
 40
0.0
 40
0.0
 40
0.0
 40
0.0
 40
0.25
 40
0.25
 40
0.25
 40
0.5
 40
0.5
 40
0.5
 40
0.75
 40
0.75
 40
0.75
 40
1.0
 40
1.0
 40
1.0
 40
1.0
 10
1.93284
 20
39.42972
 30
0.0
 10
1.98625
 20
39.4469
 30
0.0
 10
2.05924
 20
39.45459
 30
0.0
 10
2.13735
 20
39.44919
 30
0.0
 10
2.62972
 20
39.41504
 30
0.0
 10
2.9124
 20
38.94627
 30
0.0
 10
3.1356
 20
38.53747
 30
0.0
 10
3.06529
 20
38.60743
 30
0.0
 10
2.98723
 20
38.6825
 30
0.0
 10
2.89998
 20
38.76311
 30
0.0
 10
2.59469
 20
39.04515
 30
0.0
 10
2.31032
 20
39.2891
 30
0.0
 10
1.93284
 20
39.42972
 30
0.0
  0
SPLINE
  5
84
330
1F
100
AcDbEntity
  8
Layer 1
 62
    12
370
    35
100
AcDbSpline
210
0.0
220
0.0
230
1.0
 70
    11
 71
     3
 72
    68
 73
    64
 74
     0
 42
0.0000000001
 43
0.0000000001
 40
0.0
 40
0.0
 40
0.0
 40
0.0
 40
0.0476190476190476
 40
0.0476190476190476
 40
0.0476190476190476
 40
0.0952380952380952
 40
0.0952380952380952
 40
0.0952380952380952
 40
0.1428571428571428
 40
0.1428571428571428
 40
0.1428571428571428
 40
0.1904761904761905
 40
0.1904761904761905
 40
0.1904761904761905
 40
0.2380952380952381
 40
0.2380952380952381
 40
0.2380952380952381
 40
0.2857142857142857
 40
0.2857142857142857
 40
0.2857142857142857
 40
0.3333333333333333
 40
0.3333333333333333
 40
0.3333333333333333
 40
0.3809523809523809
 40
0.3809523809523809
 40
0.3809523809523809
 40
0.4285714285714285
 40
0.4285714285714285
 40
0.4285714285714285
 40
0.4761904761904762
 40
0.4761904761904762
 40
0.4761904761904762
 40
0.5238095238095237
 40
0.5238095238095237
 40
0.5238095238095237
 40
0.5714285714285714
 40
0.5714285714285714
 40
0.5714285714285714
 40
0.6190476190476191
 40
0.6190476190476191
 40
0.6190476190476191
 40
0.6666666666666666
 40
0.6666666666666666
 40
0.6666666666666666
 40
0.7142857142857142
 40
0.7142857142857142
 40
0.7142857142857142
 40
0.7619047619047619
 40
0.7619047619047619
 40
0.7619047619047619
 40
0.8095238095238095
 40
0.8095238095238095
 40
0.8095238095238095
 40
0.8571428571428571
 40
0.8571428571428571
 40
0.8571428571428571
 40
0.9047619047619047
 40
0.9047619047619047
 40
0.9047619047619047
 40
0.9523809523809523
 40
0.9523809523809523
 40
0.9523809523809523
 40
1.0
 40
1.0
 40
1.0
 40
1.0
 10
0.89882
 20
39.903
 30
0.0
 10
0.74984
 20
39.99808
 30
0.0
 10
0.73072
 20
40.01434
 30
0.0
 10
0.72892
 20
40.12137
 30
0.0
 10
0.72031
 20
40.62299
 30
0.0
 10
0.74328
 20
41.13903
 30
0.0
 10
0.96704
 20
41.51509
 30
0.0
 10
1.04935
 20
41.65345
 30
0.0
 10
1.22118
 20
41.72291
 30
0.0
 10
1.30634
 20
41.75675
 30
0.0
 10
1.47021
 20
41.67621
 30
0.0
 10
1.9315
 20
41.46299
 30
0.0
 10
2.17344
 20
41.48853
 30
0.0
 10
2.44836
 20
41.5176
 30
0.0
 10
2.81108
 20
41.7517
 30
0.0
 10
3.41754
 20
41.83968
 30
0.0
 10
3.67751
 20
41.7958
 30
0.0
 10
3.92427
 20
41.70552
 30
0.0
 10
4.14423
 20
41.55136
 30
0.0
 10
3.32378
 20
40.84651
 30
0.0
 10
3.05408
 20
40.2887
 30
0.0
 10
3.09549
 20
40.13908
 30
0.0
 10
3.10996
 20
40.08722
 30
0.0
 10
3.1512
 20
40.05032
 30
0.0
 10
3.20313
 20
40.04277
 30
0.0
 10
3.29679
 20
40.02916
 30
0.0
 10
3.35034
 20
40.11446
 30
0.0
 10
3.36794
 20
40.1425
 30
0.0
 10
3.65221
 20
40.59537
 30
0.0
 10
4.00213
 20
40.99958
 30
0.0
 10
4.40903
 20
41.34537
 30
0.0
 10
4.63385
 20
41.13861
 30
0.0
 10
4.62284
 20
41.01718
 30
0.0
 10
4.60566
 20
40.8276
 30
0.0
 10
4.58746
 20
40.62722
 30
0.0
 10
4.56485
 20
40.37788
 30
0.0
 10
4.79306
 20
39.99593
 30
0.0
 10
4.88228
 20
39.84667
 30
0.0
 10
4.99848
 20
39.7215
 30
0.0
 10
5.09952
 20
39.59418
 30
0.0
 10
5.21325
 20
39.0472
 30
0.0
 10
5.2081
 20
38.50526
 30
0.0
 10
4.81239
 20
38.09329
 30
0.0
 10
4.63438
 20
37.90797
 30
0.0
 10
4.41164
 20
37.79353
 30
0.0
 10
4.18505
 20
37.77099
 30
0.0
 10
4.03071
 20
37.75565
 30
0.0
 10
4.00908
 20
37.7844
 30
0.0
 10
3.88924
 20
37.94399
 30
0.0
 10
3.70679
 20
38.18695
 30
0.0
 10
3.57171
 20
38.42695
 30
0.0
 10
3.44104
 20
38.659
 30
0.0
 10
3.17282
 20
39.13536
 30
0.0
 10
2.94119
 20
39.54673
 30
0.0
 10
2.42888
 20
39.72132
 30
0.0
 10
2.29271
 20
39.76775
 30
0.0
 10
2.15612
 20
39.78609
 30
0.0
 10
2.02301
 20
39.77579
 30
0.0
 10
1.73924
 20
39.75381
 30
0.0
 10
1.63206
 20
39.652
 30
0.0
 10
1.55276
 20
39.51703
 30
0.0
 10
1.42516
 20
39.55573
 30
0.0
 10
1.00924
 20
39.83252
 30
0.0
 10
0.89882
 20
39.903
 30
0.0
  0
SPLINE
  5
85
330
1F
100
AcDbEntity
  8
Layer 1
 62
    12
370
    35
100
AcDbSpline
210
0.0
220
0.0
230
1.0
 70
    11
 71
     3
 72
    23
 73
    19
 74
     0
 42
0.0000000001
 43
0.0000000001
 40
0.0
 40
0.0
 40
0.0
 40
0.0
 40
0.1666666666666667
 40
0.1666666666666667
 40
0.1666666666666667
 40
0.3333333333333333
 40
0.3333333333333333
 40
0.3333333333333333
 40
0.5
 40
0.5
 40
0.5
 40
0.6666666666666666
 40
0.6666666666666666
 40
0.6666666666666666
 40
0.8333333333333333
 40
0.8333333333333333
 40
0.8333333333333333
 40
1.0
 40
1.0
 40
1.0
 40
1.0
 10
-0.06201
 20
40.66077
 30
0.0
 10
-0.06148
 20
40.66141
 30
0.0
 10
-0.06092
 20
40.66208
 30
0.0
 10
-0.06042
 20
40.66271
 30
0.0
 10
0.0876
 20
40.84358
 30
0.0
 10
0.11
 20
40.96994
 30
0.0
 10
0.17121
 20
41.03281
 30
0.0
 10
0.30202
 20
41.02882
 30
0.0
 10
0.39269
 20
41.11293
 30
0.0
 10
0.48748
 20
41.18853
 30
0.0
 10
0.43375
 20
40.97354
 30
0.0
 10
0.41428
 20
40.75874
 30
0.0
 10
0.40659
 20
40.55959
 30
0.0
 10
0.3191
 20
40.53317
 30
0.0
 10
0.1945
 20
40.48777
 30
0.0
 10
0.0791
 20
40.42342
 30
0.0
 10
0.01331
 20
40.53391
 30
0.0
 10
-0.03583
 20
40.61657
 30
0.0
 10
-0.06201
 20
40.66077
 30
0.0
  0
SPLINE
  5
86
330
1F
100
AcDbEntity
  8
Layer 1
 62
    12
370
    35
100
AcDbSpline
210
0.0
220
0.0
230
1.0
 70
    11
 71
     3
 72
    38
 73
    34
 74
     0
 42
0.0000000001
 43
0.0000000001
 40
0.0
 40
0.0
 40
0.0
 40
0.0
 40
0.0909090909090909
 40
0.0909090909090909
 40
0.0909090909090909
 40
0.1818181818181818
 40
0.1818181818181818
 40
0.1818181818181818
 40
0.2727272727272727
 40
0.2727272727272727
 40
0.2727272727272727
 40
0.3636363636363636
 40
0.3636363636363636
 40
0.3636363636363636
 40
0.4545454545454546
 40
0.4545454545454546
 40
0.4545454545454546
 40
0.5454545454545454
 40
0.5454545454545454
 40
0.5454545454545454
 40
0.6363636363636364
 40
0.6363636363636364
 40
0.6363636363636364
 40
0.7272727272727273
 40
0.7272727272727273
 40
0.7272727272727273
 40
0.8181818181818182
 40
0.8181818181818182
 40
0.8181818181818182
 40
0.9090909090909092
 40
0.9090909090909092
 40
0.9090909090909092
 40
1.0
 40
1.0
 40
1.0
 40
1.0
 10
-0.17007
 20
41.65546
 30
0.0
 10
0.1111
 20
41.7094
 30
0.0
 10
0.26727
 20
41.66425
 30
0.0
 10
0.31155
 20
41.80169
 30
0.0
 10
0.32859
 20
41.85461
 30
0.0
 10
0.31162
 20
41.91176
 30
0.0
 10
0.26734
 20
41.95106
 30
0.0
 10
0.16571
 20
42.0413
 30
0.0
 10
-0.10586
 20
42.05826
 30
0.0
 10
-0.38431
 20
41.93042
 30
0.0
 10
-0.6412
 20
41.81252
 30
0.0
 10
-0.74333
 20
41.81654
 30
0.0
 10
-0.78379
 20
41.84067
 30
0.0
 10
-0.82524
 20
41.86544
 30
0.0
 10
-0.8365
 20
41.94728
 30
0.0
 10
-0.8395
 20
41.99388
 30
0.0
 10
-0.85449
 20
42.21959
 30
0.0
 10
-0.62843
 20
42.57801
 30
0.0
 10
-0.18446
 20
42.65488
 30
0.0
 10
-0.05799
 20
42.67675
 30
0.0
 10
0.07614
 20
42.68402
 30
0.0
 10
0.20585
 20
42.69104
 30
0.0
 10
0.32707
 20
42.6976
 30
0.0
 10
0.46232
 20
42.71475
 30
0.0
 10
0.56138
 20
42.65587
 30
0.0
 10
1.09411
 20
42.33908
 30
0.0
 10
0.89649
 20
41.91313
 30
0.0
 10
0.89649
 20
41.91313
 30
0.0
 10
0.71544
 20
41.78155
 30
0.0
 10
0.21905
 20
41.38326
 30
0.0
 10
0.17418
 20
41.364
 30
0.0
 10
0.11844
 20
41.39564
 30
0.0
 10
-0.02567
 20
41.563
 30
0.0
 10
-0.17007
 20
41.65546
 30
0.0
  0
SPLINE
  5
87
330
1F
100
AcDbEntity
  8
Layer 1
 62
    12
370
    35
100
AcDbSpline
210
0.0
220
0.0
230
1.0
 70
    11
 71
     3
 72
    23
 73
    19
 74
     0
 42
0.0000000001
 43
0.0000000001
 40
0.0
 40
0.0
 40
0.0
 40
0.0
 40
0.1666666666666667
 40
0.1666666666666667
 40
0.1666666666666667
 40
0.3333333333333333
 40
0.3333333333333333
 40
0.3333333333333333
 40
0.5
 40
0.5
 40
0.5
 40
0.6666666666666666
 40
0.6666666666666666
 40
0.6666666666666666
 40
0.8333333333333333
 40
0.8333333333333333
 40
0.8333333333333333
 40
1.0
 40
1.0
 40
1.0
 40
1.0
 10
2.5199
 20
42.40385
 30
0.0
 10
2.29836
 20
42.25589
 30
0.0
 10
2.23983
 20
42.2185
 30
0.0
 10
1.85364
 20
42.13069
 30
0.0
 10
1.80351
 20
42.11929
 30
0.0
 10
1.76354
 20
42.0856
 30
0.0
 10
1.7421
 20
42.04165
 30
0.0
 10
1.59668
 20
42.16382
 30
0.0
 10
1.45606
 20
42.22347
 30
0.0
 10
1.32839
 20
42.29808
 30
0.0
 10
1.39352
 20
42.31752
 30
0.0
 10
1.46255
 20
42.33975
 30
0.0
 10
1.52965
 20
42.35576
 30
0.0
 10
1.52965
 20
42.35576
 30
0.0
 10
1.52969
 20
42.35576
 30
0.0
 10
1.52969
 20
42.35576
 30
0.0
 10
1.84165
 20
42.43034
 30
0.0
 10
2.17749
 20
42.45172
 30
0.0
 10
2.5199
 20
42.40385
 30
0.0
  0
SPLINE
  5
88
330
1F
100
AcDbEntity
  8
Layer 1
 62
    12
370
    35
100
AcDbSpline
210
0.0
220
0.0
230
1.0
 70
    11
 71
     3
 72
    38
 73
    34
 74
     0
 42
0.0000000001
 43
0.0000000001
 40
0.0
 40
0.0
 40
0.0
 40
0.0
 40
0.0909090909090909
 40
0.0909090909090909
 40
0.0909090909090909
 40
0.1818181818181818
 40
0.1818181818181818
 40
0.1818181818181818
 40
0.2727272727272727
 40
0.2727272727272727
 40
0.2727272727272727
 40
0.3636363636363636
 40
0.3636363636363636
 40
0.3636363636363636
 40
0.4545454545454546
 40
0.4545454545454546
 40
0.4545454545454546
 40
0.5454545454545454
 40
0.5454545454545454
 40
0.5454545454545454
 40
0.6363636363636364
 40
0.6363636363636364
 40
0.6363636363636364
 40
0.7272727272727273
 40
0.7272727272727273
 40
0.7272727272727273
 40
0.8181818181818182
 40
0.8181818181818182
 40
0.8181818181818182
 40
0.9090909090909092
 40
0.9090909090909092
 40
0.9090909090909092
 40
1.0
 40
1.0
 40
1.0
 40
1.0
 10
5.49011
 20
40.20562
 30
0.0
 10
5.67402
 20
40.07029
 30
0.0
 10
5.83767
 20
39.94647
 30
0.0
 10
5.97744
 20
39.8019
 30
0.0
 10
6.29505
 20
39.47339
 30
0.0
 10
6.30933
 20
39.23241
 30
0.0
 10
6.46604
 20
39.05651
 30
0.0
 10
6.5415
 20
38.97231
 30
0.0
 10
6.58267
 20
38.93417
 30
0.0
 10
6.57099
 20
38.82943
 30
0.0
 10
6.56376
 20
38.76455
 30
0.0
 10
6.53299
 20
38.69414
 30
0.0
 10
6.47225
 20
38.56143
 30
0.0
 10
6.36835
 20
38.33445
 30
0.0
 10
6.1945
 20
37.95458
 30
0.0
 10
6.01928
 20
37.18729
 30
0.0
 10
5.99261
 20
37.07059
 30
0.0
 10
5.95973
 20
36.95477
 30
0.0
 10
5.90519
 20
36.86248
 30
0.0
 10
5.89373
 20
36.92528
 30
0.0
 10
5.88226
 20
36.98807
 30
0.0
 10
5.87097
 20
37.0509
 30
0.0
 10
5.73734
 20
37.79523
 30
0.0
 10
5.69906
 20
38.17217
 30
0.0
 10
5.68061
 20
38.41735
 30
0.0
 10
5.68033
 20
38.42098
 30
0.0
 10
5.64481
 20
39.26465
 30
0.0
 10
5.62304
 20
39.29813
 30
0.0
 10
5.5087
 20
39.77117
 30
0.0
 10
5.11539
 20
39.94234
 30
0.0
 10
4.97636
 20
40.38673
 30
0.0
 10
5.17357
 20
40.35692
 30
0.0
 10
5.21385
 20
40.40889
 30
0.0
 10
5.49011
 20
40.20562
 30
0.0
  0
SPLINE
  5
89
330
1F
100
AcDbEntity
  8
Layer 1
 62
    12
370
    35
100
AcDbSpline
210
0.0
220
0.0
230
1.0
 70
    11
 71
     3
 72
    26
 73
    22
 74
     0
 42
0.0000000001
 43
0.0000000001
 40
0.0
 40
0.0
 40
0.0
 40
0.0
 40
0.1428571428571428
 40
0.1428571428571428
 40
0.1428571428571428
 40
0.2857142857142857
 40
0.2857142857142857
 40
0.2857142857142857
 40
0.4285714285714285
 40
0.4285714285714285
 40
0.4285714285714285
 40
0.5714285714285714
 40
0.5714285714285714
 40
0.5714285714285714
 40
0.7142857142857142
 40
0.7142857142857142
 40
0.7142857142857142
 40
0.8571428571428571
 40
0.8571428571428571
 40
0.8571428571428571
 40
1.0
 40
1.0
 40
1.0
 40
1.0
 10
4.56301
 20
37.27523
 30
0.0
 10
4.52996
 20
37.28134
 30
0.0
 10
4.49651
 20
37.28818
 30
0.0
 10
4.46307
 20
37.29541
 30
0.0
 10
4.57349
 20
37.427
 30
0.0
 10
4.70187
 20
37.56003
 30
0.0
 10
4.74621
 20
37.62395
 30
0.0
 10
4.90909
 20
37.7216
 30
0.0
 10
5.05203
 20
37.85213
 30
0.0
 10
5.16714
 20
38.00756
 30
0.0
 10
5.24984
 20
37.89905
 30
0.0
 10
5.33112
 20
37.78761
 30
0.0
 10
5.39493
 20
37.67204
 30
0.0
 10
5.34731
 20
37.55103
 30
0.0
 10
5.29118
 20
37.44058
 30
0.0
 10
5.22768
 20
37.3429
 30
0.0
 10
5.1313
 20
37.26779
 30
0.0
 10
4.95446
 20
37.28762
 30
0.0
 10
4.82181
 20
37.30243
 30
0.0
 10
4.70797
 20
37.31277
 30
0.0
 10
4.61942
 20
37.26479
 30
0.0
 10
4.56301
 20
37.27523
 30
0.0
  0
SPLINE
  5
8A
330
1F
100
AcDbEntity
  8
Layer 1
 62
    12
370
    35
100
AcDbSpline
210
0.0
220
0.0
230
1.0
 70
    11
 71
     3
 72
   179
 73
   175
 74
     0
 42
0.0000000001
 43
0.0000000001
 40
0.0
 40
0.0
 40
0.0
 40
0.0
 40
0.0172413793103448
 40
0.0172413793103448
 40
0.0172413793103448
 40
0.0344827586206897
 40
0.0344827586206897
 40
0.0344827586206897
 40
0.0517241379310345
 40
0.0517241379310345
 40
0.0517241379310345
 40
0.0689655172413793
 40
0.0689655172413793
 40
0.0689655172413793
 40
0.0862068965517241
 40
0.0862068965517241
 40
0.0862068965517241
 40
0.103448275862069
 40
0.103448275862069
 40
0.103448275862069
 40
0.1206896551724138
 40
0.1206896551724138
 40
0.1206896551724138
 40
0.1379310344827586
 40
0.1379310344827586
 40
0.1379310344827586
 40
0.1551724137931035
 40
0.1551724137931035
 40
0.1551724137931035
 40
0.1724137931034483
 40
0.1724137931034483
 40
0.1724137931034483
 40
0.1896551724137931
 40
0.1896551724137931
 40
0.1896551724137931
 40
0.2068965517241379
 40
0.2068965517241379
 40
0.2068965517241379
 40
0.2241379310344828
 40
0.2241379310344828
 40
0.2241379310344828
 40
0.2413793103448276
 40
0.2413793103448276
 40
0.2413793103448276
 40
0.2586206896551724
 40
0.2586206896551724
 40
0.2586206896551724
 40
0.2758620689655172
 40
0.2758620689655172
 40
0.2758620689655172
 40
0.293103448275862
 40
0.293103448275862
 40
0.293103448275862
 40
0.3103448275862069
 40
0.3103448275862069
 40
0.3103448275862069
 40
0.3275862068965517
 40
0.3275862068965517
 40
0.3275862068965517
 40
0.3448275862068966
 40
0.3448275862068966
 40
0.3448275862068966
 40
0.3620689655172414
 40
0.3620689655172414
 40
0.3620689655172414
 40
0.3793103448275862
 40
0.3793103448275862
 40
0.3793103448275862
 40
0.396551724137931
 40
0.396551724137931
 40
0.396551724137931
 40
0.4137931034482759
 40
0.4137931034482759
 40
0.4137931034482759
 40
0.4310344827586207
 40
0.4310344827586207
 40
0.4310344827586207
 40
0.4482758620689655
 40
0.4482758620689655
 40
0.4482758620689655
 40
0.4655172413793103
 40
0.4655172413793103
 40
0.4655172413793103
 40
0.4827586206896551
 40
0.4827586206896551
 40
0.4827586206896551
 40
0.5
 40
0.5
 40
0.5
 40
0.5172413793103449
 40
0.5172413793103449
 40
0.5172413793103449
 40
0.5344827586206896
 40
0.5344827586206896
 40
0.5344827586206896
 40
0.5517241379310345
 40
0.5517241379310345
 40
0.5517241379310345
 40
0.5689655172413793
 40
0.5689655172413793
 40
0.5689655172413793
 40
0.5862068965517241
 40
0.5862068965517241
 40
0.5862068965517241
 40
0.603448275862069
 40
0.603448275862069
 40
0.603448275862069
 40
0.6206896551724138
 40
0.6206896551724138
 40
0.6206896551724138
 40
0.6379310344827586
 40
0.6379310344827586
 40
0.6379310344827586
 40
0.6551724137931034
 40
0.6551724137931034
 40
0.6551724137931034
 40
0.6724137931034483
 40
0.6724137931034483
 40
0.6724137931034483
 40
0.6896551724137931
 40
0.6896551724137931
 40
0.6896551724137931
 40
0.7068965517241379
 40
0.7068965517241379
 40
0.7068965517241379
 40
0.7241379310344828
 40
0.7241379310344828
 40
0.7241379310344828
 40
0.7413793103448276
 40
0.7413793103448276
 40
0.7413793103448276
 40
0.7586206896551724
 40
0.7586206896551724
 40
0.7586206896551724
 40
0.7758620689655172
 40
0.7758620689655172
 40
0.7758620689655172
 40
0.7931034482758621
 40
0.7931034482758621
 40
0.7931034482758621
 40
0.8103448275862069
 40
0.8103448275862069
 40
0.8103448275862069
 40
0.8275862068965517
 40
0.8275862068965517
 40
0.8275862068965517
 40
0.8448275862068966
 40
0.8448275862068966
 40
0.8448275862068966
 40
0.8620689655172413
 40
0.8620689655172413
 40
0.8620689655172413
 40
0.8793103448275862
 40
0.8793103448275862
 40
0.8793103448275862
 40
0.896551724137931
 40
0.896551724137931
 40
0.896551724137931
 40
0.9137931034482758
 40
0.9137931034482758
 40
0.9137931034482758
 40
0.9310344827586207
 40
0.9310344827586207
 40
0.9310344827586207
 40
0.9482758620689655
 40
0.9482758620689655
 40
0.9482758620689655
 40
0.9655172413793103
 40
0.9655172413793103
 40
0.9655172413793103
 40
0.9827586206896551
 40
0.9827586206896551
 40
0.9827586206896551
 40
1.0
 40
1.0
 40
1.0
 40
1.0
 10
4.11417
 20
35.9949
 30
0.0
 10
4.25952
 20
36.04111
 30
0.0
 10
4.3669
 20
36.37657
 30
0.0
 10
4.31974
 20
36.54625
 30
0.0
 10
4.29441
 20
36.63769
 30
0.0
 10
4.25137
 20
36.69516
 30
0.0
 10
4.24664
 20
36.72934
 30
0.0
 10
4.24664
 20
36.72934
 30
0.0
 10
4.67597
 20
36.76191
 30
0.0
 10
4.67597
 20
36.76191
 30
0.0
 10
4.70483
 20
36.76409
 30
0.0
 10
4.73446
 20
36.76554
 30
0.0
 10
4.76445
 20
36.76706
 30
0.0
 10
4.89674
 20
36.77362
 30
0.0
 10
5.04667
 20
36.78106
 30
0.0
 10
5.18009
 20
36.84908
 30
0.0
 10
5.30102
 20
36.91071
 30
0.0
 10
5.41296
 20
37.02162
 30
0.0
 10
5.5147
 20
37.18026
 30
0.0
 10
5.61807
 20
36.58594
 30
0.0
 10
5.63267
 20
36.47947
 30
0.0
 10
5.72312
 20
36.42391
 30
0.0
 10
5.77068
 20
36.38973
 30
0.0
 10
5.83312
 20
36.38415
 30
0.0
 10
5.88713
 20
36.41057
 30
0.0
 10
6.07615
 20
36.5029
 30
0.0
 10
6.21726
 20
36.68772
 30
0.0
 10
6.29519
 20
36.9451
 30
0.0
 10
6.32948
 20
37.05834
 30
0.0
 10
6.35572
 20
37.17367
 30
0.0
 10
6.38116
 20
37.28518
 30
0.0
 10
6.4036
 20
37.3835
 30
0.0
 10
6.42674
 20
37.48517
 30
0.0
 10
6.45478
 20
37.5819
 30
0.0
 10
6.57007
 20
37.97948
 30
0.0
 10
6.67379
 20
38.20653
 30
0.0
 10
6.74956
 20
38.37234
 30
0.0
 10
6.81074
 20
38.50618
 30
0.0
 10
6.859
 20
38.61187
 30
0.0
 10
6.8857
 20
38.74155
 30
0.0
 10
6.94141
 20
39.01302
 30
0.0
 10
6.82128
 20
39.14929
 30
0.0
 10
6.73344
 20
39.24874
 30
0.0
 10
6.60122
 20
39.39878
 30
0.0
 10
6.62154
 20
39.48563
 30
0.0
 10
6.4387
 20
39.75374
 30
0.0
 10
6.83339
 20
39.25834
 30
0.0
 10
7.28113
 20
38.98455
 30
0.0
 10
7.77389
 20
38.93837
 30
0.0
 10
7.90886
 20
38.9257
 30
0.0
 10
7.99427
 20
38.93057
 30
0.0
 10
8.07682
 20
38.93526
 30
0.0
 10
8.20573
 20
38.9426
 30
0.0
 10
8.32743
 20
38.94952
 30
0.0
 10
8.6661
 20
38.87674
 30
0.0
 10
8.82182
 20
38.84326
 30
0.0
 10
8.85579
 20
38.94585
 30
0.0
 10
8.86105
 20
38.96677
 30
0.0
 10
8.89142
 20
39.08936
 30
0.0
 10
8.77881
 20
39.1271
 30
0.0
 10
8.62257
 20
39.17932
 30
0.0
 10
8.47514
 20
39.2286
 30
0.0
 10
8.23024
 20
39.30222
 30
0.0
 10
7.89465
 20
39.39825
 30
0.0
 10
7.64629
 20
39.4693
 30
0.0
 10
7.44387
 20
39.67839
 30
0.0
 10
7.26526
 20
39.86286
 30
0.0
 10
7.04435
 20
40.091
 30
0.0
 10
7.02071
 20
40.22541
 30
0.0
 10
6.8971
 20
40.47556
 30
0.0
 10
6.67322
 20
40.92881
 30
0.0
 10
6.20463
 20
41.2775
 30
0.0
 10
5.20436
 20
41.18775
 30
0.0
 10
5.11642
 20
41.17985
 30
0.0
 10
5.00113
 20
41.27863
 30
0.0
 10
4.82661
 20
41.4281
 30
0.0
 10
4.56347
 20
41.65359
 30
0.0
 10
4.34037
 20
42.12381
 30
0.0
 10
4.19623
 20
42.28073
 30
0.0
 10
4.0367
 20
42.45436
 30
0.0
 10
3.82017
 20
42.51031
 30
0.0
 10
3.6291
 20
42.55974
 30
0.0
 10
3.43324
 20
42.6104
 30
0.0
 10
3.23092
 20
42.64931
 30
0.0
 10
3.02935
 20
42.62313
 30
0.0
 10
2.82643
 20
42.72374
 30
0.0
 10
2.26696
 20
42.76692
 30
0.0
 10
1.99423
 20
42.75299
 30
0.0
 10
1.82211
 20
42.74417
 30
0.0
 10
1.65041
 20
42.72032
 30
0.0
 10
1.48386
 20
42.68208
 30
0.0
 10
1.27047
 20
42.63312
 30
0.0
 10
1.13902
 20
42.60271
 30
0.0
 10
1.05605
 20
42.58115
 30
0.0
 10
0.99798
 20
42.70642
 30
0.0
 10
0.90781
 20
42.88835
 30
0.0
 10
0.63974
 20
42.97651
 30
0.0
 10
0.53239
 20
43.0118
 30
0.0
 10
0.42411
 20
43.02174
 30
0.0
 10
0.32146
 20
43.02213
 30
0.0
 10
0.32146
 20
43.02213
 30
0.0
 10
0.31073
 20
43.02213
 30
0.0
 10
0.31073
 20
43.02213
 30
0.0
 10
0.26435
 20
43.02201
 30
0.0
 10
0.21919
 20
43.02005
 30
0.0
 10
0.17583
 20
43.01771
 30
0.0
 10
0.03377
 20
43.01002
 30
0.0
 10
-0.11309
 20
43.00205
 30
0.0
 10
-0.25872
 20
42.9751
 30
0.0
 10
-0.56077
 20
42.91922
 30
0.0
 10
-0.81949
 20
42.75945
 30
0.0
 10
-0.98731
 20
42.52524
 30
0.0
 10
-1.0748
 20
42.40314
 30
0.0
 10
-1.14585
 20
42.24841
 30
0.0
 10
-1.16373
 20
42.08829
 30
0.0
 10
-1.17936
 20
41.94852
 30
0.0
 10
-1.15439
 20
41.80462
 30
0.0
 10
-1.06443
 20
41.67501
 30
0.0
 10
-0.93898
 20
41.49435
 30
0.0
 10
-0.74802
 20
41.46803
 30
0.0
 10
-0.5946
 20
41.44694
 30
0.0
 10
-0.31269
 20
41.40813
 30
0.0
 10
-0.34137
 20
41.37751
 30
0.0
 10
-0.12533
 20
41.18242
 30
0.0
 10
-0.19243
 20
41.0834
 30
0.0
 10
-0.23141
 20
40.96613
 30
0.0
 10
-0.27957
 20
40.91262
 30
0.0
 10
-0.49804
 20
40.66892
 30
0.0
 10
-0.40957
 20
40.60224
 30
0.0
 10
-0.18305
 20
40.22276
 30
0.0
 10
-0.31481
 20
40.10483
 30
0.0
 10
-0.45116
 20
39.98742
 30
0.0
 10
-0.59675
 20
39.89006
 30
0.0
 10
-0.63478
 20
39.86462
 30
0.0
 10
-0.65947
 20
39.82532
 30
0.0
 10
-0.66505
 20
39.77551
 30
0.0
 10
-0.67203
 20
39.70795
 30
0.0
 10
-0.6375
 20
39.64488
 30
0.0
 10
-0.61414
 20
39.62099
 30
0.0
 10
-0.4392
 20
39.44206
 30
0.0
 10
-0.20097
 20
39.44245
 30
0.0
 10
-0.05887
 20
39.32999
 30
0.0
 10
0.06848
 20
39.22913
 30
0.0
 10
0.18825
 20
39.09955
 30
0.0
 10
0.45026
 20
39.00455
 30
0.0
 10
0.44952
 20
38.69058
 30
0.0
 10
0.44222
 20
38.35096
 30
0.0
 10
0.67914
 20
38.13188
 30
0.0
 10
0.84858
 20
37.97525
 30
0.0
 10
1.0188
 20
37.96795
 30
0.0
 10
1.26909
 20
37.80211
 30
0.0
 10
1.33795
 20
37.75649
 30
0.0
 10
1.40879
 20
37.70954
 30
0.0
 10
1.55671
 20
37.64576
 30
0.0
 10
1.62342
 20
37.23706
 30
0.0
 10
2.24749
 20
36.73449
 30
0.0
 10
2.42493
 20
36.7049
 30
0.0
 10
2.51616
 20
36.68969
 30
0.0
 10
2.57486
 20
36.74554
 30
0.0
 10
2.59077
 20
36.80392
 30
0.0
 10
2.59077
 20
36.80392
 30
0.0
 10
2.62002
 20
36.9111
 30
0.0
 10
2.62002
 20
36.9111
 30
0.0
 10
2.78699
 20
36.87384
 30
0.0
 10
2.95893
 20
36.83239
 30
0.0
 10
3.10706
 20
36.83059
 30
0.0
 10
3.1743
 20
36.7316
 30
0.0
 10
3.25103
 20
36.65678
 30
0.0
 10
3.69017
 20
36.33857
 30
0.0
 10
3.79181
 20
36.26488
 30
0.0
 10
3.89686
 20
36.18868
 30
0.0
 10
3.93154
 20
36.09226
 30
0.0
 10
3.96449
 20
36.00065
 30
0.0
 10
4.04835
 20
35.97398
 30
0.0
 10
4.11417
 20
35.9949
 30
0.0
  0
SPLINE
  5
8B
330
1F
100
AcDbEntity
  8
Layer 1
 62
    12
370
    35
100
AcDbSpline
210
0.0
220
0.0
230
1.0
 70
    11
 71
     3
 72
   113
 73
   109
 74
     0
 42
0.0000000001
 43
0.0000000001
 40
0.0
 40
0.0
 40
0.0
 40
0.0
 40
0.0277777777777778
 40
0.0277777777777778
 40
0.0277777777777778
 40
0.0555555555555556
 40
0.0555555555555556
 40
0.0555555555555556
 40
0.0833333333333333
 40
0.0833333333333333
 40
0.0833333333333333
 40
0.1111111111111111
 40
0.1111111111111111
 40
0.1111111111111111
 40
0.1388888888888889
 40
0.1388888888888889
 40
0.1388888888888889
 40
0.1666666666666667
 40
0.1666666666666667
 40
0.1666666666666667
 40
0.1944444444444444
 40
0.1944444444444444
 40
0.1944444444444444
 40
0.2222222222222222
 40
0.2222222222222222
 40
0.2222222222222222
 40
0.25
 40
0.25
 40
0.25
 40
0.2777777777777778
 40
0.2777777777777778
 40
0.2777777777777778
 40
0.3055555555555555
 40
0.3055555555555555
 40
0.3055555555555555
 40
0.3333333333333333
 40
0.3333333333333333
 40
0.3333333333333333
 40
0.3611111111111111
 40
0.3611111111111111
 40
0.3611111111111111
 40
0.3888888888888888
 40
0.3888888888888888
 40
0.3888888888888888
 40
0.4166666666666666
 40
0.4166666666666666
 40
0.4166666666666666
 40
0.4444444444444444
 40
0.4444444444444444
 40
0.4444444444444444
 40
0.4722222222222222
 40
0.4722222222222222
 40
0.4722222222222222
 40
0.5
 40
0.5
 40
0.5
 40
0.5277777777777778
 40
0.5277777777777778
 40
0.5277777777777778
 40
0.5555555555555556
 40
0.5555555555555556
 40
0.5555555555555556
 40
0.5833333333333333
 40
0.5833333333333333
 40
0.5833333333333333
 40
0.611111111111111
 40
0.611111111111111
 40
0.611111111111111
 40
0.6388888888888888
 40
0.6388888888888888
 40
0.6388888888888888
 40
0.6666666666666666
 40
0.6666666666666666
 40
0.6666666666666666
 40
0.6944444444444444
 40
0.6944444444444444
 40
0.6944444444444444
 40
0.7222222222222222
 40
0.7222222222222222
 40
0.7222222222222222
 40
0.75
 40
0.75
 40
0.75
 40
0.7777777777777777
 40
0.7777777777777777
 40
0.7777777777777777
 40
0.8055555555555555
 40
0.8055555555555555
 40
0.8055555555555555
 40
0.8333333333333333
 40
0.8333333333333333
 40
0.8333333333333333
 40
0.861111111111111
 40
0.861111111111111
 40
0.861111111111111
 40
0.8888888888888888
 40
0.8888888888888888
 40
0.8888888888888888
 40
0.9166666666666666
 40
0.9166666666666666
 40
0.9166666666666666
 40
0.9444444444444444
 40
0.9444444444444444
 40
0.9444444444444444
 40
0.9722222222222222
 40
0.9722222222222222
 40
0.9722222222222222
 40
1.0
 40
1.0
 40
1.0
 40
1.0
 10
-0.2995
 20
23.97876
 30
0.0
 10
-0.1774
 20
24.12646
 30
0.0
 10
-0.19624
 20
24.48552
 30
0.0
 10
-0.23124
 20
24.6642
 30
0.0
 10
-0.2832
 20
24.92953
 30
0.0
 10
-0.31947
 20
24.96682
 30
0.0
 10
-0.32458
 20
25.24703
 30
0.0
 10
-0.32889
 20
25.47771
 30
0.0
 10
-0.33294
 20
25.564
 30
0.0
 10
-0.52722
 20
25.83511
 30
0.0
 10
-0.64938
 20
26.00553
 30
0.0
 10
-0.6563
 20
26.03436
 30
0.0
 10
-0.69267
 20
26.1519
 30
0.0
 10
-0.76206
 20
26.37634
 30
0.0
 10
-0.86476
 20
26.70841
 30
0.0
 10
-1.39646
 20
26.81706
 30
0.0
 10
-1.4032
 20
26.84469
 30
0.0
 10
-1.41752
 20
26.86991
 30
0.0
 10
-1.43848
 20
26.8903
 30
0.0
 10
-2.22253
 20
27.65502
 30
0.0
 10
-2.19603
 20
27.6698
 30
0.0
 10
-2.49963
 20
27.78636
 30
0.0
 10
-2.65313
 20
27.84531
 30
0.0
 10
-2.66392
 20
27.8555
 30
0.0
 10
-2.78164
 20
27.94264
 30
0.0
 10
-2.94904
 20
28.06639
 30
0.0
 10
-3.13876
 20
28.20662
 30
0.0
 10
-3.56897
 20
28.34509
 30
0.0
 10
-3.73249
 20
28.39779
 30
0.0
 10
-3.8906
 20
28.36615
 30
0.0
 10
-4.0533
 20
28.31023
 30
0.0
 10
-4.06755
 20
28.81058
 30
0.0
 10
-4.75388
 20
29.04267
 30
0.0
 10
-5.27995
 20
28.7663
 30
0.0
 10
-5.74244
 20
28.52335
 30
0.0
 10
-5.75528
 20
28.10827
 30
0.0
 10
-6.06943
 20
27.83571
 30
0.0
 10
-6.17741
 20
27.74205
 30
0.0
 10
-6.92156
 20
27.19076
 30
0.0
 10
-7.13319
 20
26.65443
 30
0.0
 10
-7.28418
 20
26.27146
 30
0.0
 10
-7.46209
 20
26.37281
 30
0.0
 10
-7.65358
 20
25.70257
 30
0.0
 10
-7.76964
 20
25.29469
 30
0.0
 10
-7.8149
 20
25.12334
 30
0.0
 10
-7.83106
 20
25.04464
 30
0.0
 10
-8.26857
 20
24.65154
 30
0.0
 10
-8.50578
 20
24.42802
 30
0.0
 10
-8.53616
 20
24.38011
 30
0.0
 10
-8.65762
 20
24.18862
 30
0.0
 10
-8.40012
 20
24.55731
 30
0.0
 10
-8.947
 20
23.63307
 30
0.0
 10
-9.11069
 20
23.35656
 30
0.0
 10
-9.0825
 20
23.05762
 30
0.0
 10
-9.13034
 20
22.78407
 30
0.0
 10
-9.14424
 20
22.7047
 30
0.0
 10
-9.1684
 20
22.63139
 30
0.0
 10
-9.19402
 20
22.55382
 30
0.0
 10
-9.36875
 20
22.02401
 30
0.0
 10
-9.24383
 20
21.89225
 30
0.0
 10
-9.04003
 20
21.42708
 30
0.0
 10
-8.86336
 20
21.0234
 30
0.0
 10
-8.98355
 20
20.58151
 30
0.0
 10
-8.52998
 20
20.15024
 30
0.0
 10
-8.31225
 20
19.94315
 30
0.0
 10
-8.03256
 20
19.82004
 30
0.0
 10
-7.74251
 20
19.80353
 30
0.0
 10
-7.43835
 20
19.78634
 30
0.0
 10
-7.11799
 20
19.87729
 30
0.0
 10
-6.87648
 20
19.74027
 30
0.0
 10
-6.77287
 20
19.68146
 30
0.0
 10
-6.6779
 20
19.49975
 30
0.0
 10
-6.46905
 20
19.49975
 30
0.0
 10
-6.30279
 20
19.49975
 30
0.0
 10
-6.15342
 20
19.61708
 30
0.0
 10
-6.05701
 20
19.82473
 30
0.0
 10
-5.97876
 20
19.99283
 30
0.0
 10
-5.99273
 20
19.99219
 30
0.0
 10
-5.87917
 20
20.12656
 30
0.0
 10
-5.83169
 20
20.18273
 30
0.0
 10
-5.78036
 20
20.24344
 30
0.0
 10
-5.74043
 20
20.31798
 30
0.0
 10
-5.64405
 20
20.24499
 30
0.0
 10
-5.5494
 20
20.20163
 30
0.0
 10
-5.515
 20
20.18139
 30
0.0
 10
-5.41457
 20
20.12219
 30
0.0
 10
-5.44353
 20
19.86568
 30
0.0
 10
-5.06271
 20
19.84036
 30
0.0
 10
-3.73093
 20
19.75163
 30
0.0
 10
-3.67375
 20
20.10533
 30
0.0
 10
-3.36433
 20
20.16304
 30
0.0
 10
-3.17901
 20
20.19775
 30
0.0
 10
-2.89933
 20
20.1822
 30
0.0
 10
-2.6375
 20
20.5469
 30
0.0
 10
-2.24108
 20
20.5494
 30
0.0
 10
-1.83786
 20
20.74142
 30
0.0
 10
-1.40722
 20
21.13237
 30
0.0
 10
-1.11047
 20
21.40175
 30
0.0
 10
-0.81674
 20
21.73188
 30
0.0
 10
-0.60137
 20
22.03809
 30
0.0
 10
-0.51014
 20
22.16781
 30
0.0
 10
-0.46717
 20
22.28197
 30
0.0
 10
-0.46213
 20
22.40833
 30
0.0
 10
-0.4525
 20
22.64924
 30
0.0
 10
-0.49646
 20
22.91418
 30
0.0
 10
-0.5929
 20
23.19651
 30
0.0
 10
-0.40103
 20
23.4819
 30
0.0
 10
-0.27329
 20
23.68535
 30
0.0
 10
-0.2995
 20
23.97876
 30
0.0
  0
SPLINE
  5
8C
330
1F
100
AcDbEntity
  8
Layer 1
 62
    12
370
    35
100
AcDbSpline
210
0.0
220
0.0
230
1.0
 70
    11
 71
     3
 72
    23
 73
    19
 74
     0
 42
0.0000000001
 43
0.0000000001
 40
0.0
 40
0.0
 40
0.0
 40
0.0
 40
0.1666666666666667
 40
0.1666666666666667
 40
0.1666666666666667
 40
0.3333333333333333
 40
0.3333333333333333
 40
0.3333333333333333
 40
0.5
 40
0.5
 40
0.5
 40
0.6666666666666666
 40
0.6666666666666666
 40
0.6666666666666666
 40
0.8333333333333333
 40
0.8333333333333333
 40
0.8333333333333333
 40
1.0
 40
1.0
 40
1.0
 40
1.0
 10
-1.00308
 20
37.01986
 30
0.0
 10
-1.73273
 20
37.75053
 30
0.0
 10
-2.20277
 20
37.54983
 30
0.0
 10
-2.236
 20
37.71924
 30
0.0
 10
-1.89286
 20
37.93969
 30
0.0
 10
-1.81158
 20
38.15319
 30
0.0
 10
-1.69138
 20
38.28358
 30
0.0
 10
-1.0832
 20
38.2495
 30
0.0
 10
-1.08718
 20
38.01744
 30
0.0
 10
-0.9853
 20
37.73582
 30
0.0
 10
-0.93535
 20
37.59788
 30
0.0
 10
-0.8522
 20
37.49018
 30
0.0
 10
-0.76548
 20
37.37055
 30
0.0
 10
-0.57029
 20
37.09927
 30
0.0
 10
-0.73977
 20
37.17727
 30
0.0
 10
-0.58701
 20
36.4939
 30
0.0
 10
-0.70096
 20
36.6796
 30
0.0
 10
-0.84179
 20
36.85832
 30
0.0
 10
-1.00308
 20
37.01986
 30
0.0
  0
SPLINE
  5
8D
330
1F
100
AcDbEntity
  8
Layer 1
 62
    12
370
    35
100
AcDbSpline
210
0.0
220
0.0
230
1.0
 70
    11
 71
     3
 72
    29
 73
    25
 74
     0
 42
0.0000000001
 43
0.0000000001
 40
0.0
 40
0.0
 40
0.0
 40
0.0
 40
0.125
 40
0.125
 40
0.125
 40
0.25
 40
0.25
 40
0.25
 40
0.375
 40
0.375
 40
0.375
 40
0.5
 40
0.5
 40
0.5
 40
0.625
 40
0.625
 40
0.625
 40
0.75
 40
0.75
 40
0.75
 40
0.875
 40
0.875
 40
0.875
 40
1.0
 40
1.0
 40
1.0
 40
1.0
 10
-0.63273
 20
35.60038
 30
0.0
 10
-0.65834
 20
35.43246
 30
0.0
 10
-1.05455
 20
34.7794
 30
0.0
 10
-1.49154
 20
34.46232
 30
0.0
 10
-1.58964
 20
34.3911
 30
0.0
 10
-1.68997
 20
34.33462
 30
0.0
 10
-1.79658
 20
34.28735
 30
0.0
 10
-1.75111
 20
34.52127
 30
0.0
 10
-1.6777
 20
35.24729
 30
0.0
 10
-1.56805
 20
35.63259
 30
0.0
 10
-1.49785
 20
35.87919
 30
0.0
 10
-1.46003
 20
36.09106
 30
0.0
 10
-1.50374
 20
36.3234
 30
0.0
 10
-1.53902
 20
36.51087
 30
0.0
 10
-1.65462
 20
36.90799
 30
0.0
 10
-1.77665
 20
37.19166
 30
0.0
 10
-1.74621
 20
37.17667
 30
0.0
 10
-1.71488
 20
37.15931
 30
0.0
 10
-1.68256
 20
37.13955
 30
0.0
 10
-1.26763
 20
36.88594
 30
0.0
 10
-0.91608
 20
36.47757
 30
0.0
 10
-0.71807
 20
36.01917
 30
0.0
 10
-0.66678
 20
35.90032
 30
0.0
 10
-0.61065
 20
35.74524
 30
0.0
 10
-0.63273
 20
35.60038
 30
0.0
  0
SPLINE
  5
8E
330
1F
100
AcDbEntity
  8
Layer 1
 62
    12
370
    35
100
AcDbSpline
210
0.0
220
0.0
230
1.0
 70
    11
 71
     3
 72
    20
 73
    16
 74
     0
 42
0.0000000001
 43
0.0000000001
 40
0.0
 40
0.0
 40
0.0
 40
0.0
 40
0.2
 40
0.2
 40
0.2
 40
0.4
 40
0.4
 40
0.4
 40
0.6000000000000001
 40
0.6000000000000001
 40
0.6000000000000001
 40
0.8
 40
0.8
 40
0.8
 40
1.0
 40
1.0
 40
1.0
 40
1.0
 10
-1.06972
 20
33.7368
 30
0.0
 10
-1.57825
 20
33.10907
 30
0.0
 10
-2.04279
 20
32.74895
 30
0.0
 10
-2.45367
 20
32.6633
 30
0.0
 10
-2.31118
 20
33.04028
 30
0.0
 10
-2.2486
 20
33.39831
 30
0.0
 10
-2.3769
 20
33.76615
 30
0.0
 10
-1.72966
 20
33.92032
 30
0.0
 10
-1.30051
 20
34.07116
 30
0.0
 10
-0.84359
 20
34.621
 30
0.0
 10
-0.81826
 20
34.5061
 30
0.0
 10
-0.80224
 20
34.39036
 30
0.0
 10
-0.79575
 20
34.275
 30
0.0
 10
-0.78499
 20
34.08337
 30
0.0
 10
-0.84331
 20
34.01606
 30
0.0
 10
-1.06972
 20
33.7368
 30
0.0
  0
SPLINE
  5
8F
330
1F
100
AcDbEntity
  8
Layer 1
 62
    12
370
    35
100
AcDbSpline
210
0.0
220
0.0
230
1.0
 70
    11
 71
     3
 72
    14
 73
    10
 74
     0
 42
0.0000000001
 43
0.0000000001
 40
0.0
 40
0.0
 40
0.0
 40
0.0
 40
0.3333333333333333
 40
0.3333333333333333
 40
0.3333333333333333
 40
0.6666666666666666
 40
0.6666666666666666
 40
0.6666666666666666
 40
1.0
 40
1.0
 40
1.0
 40
1.0
 10
-3.30174
 20
35.09443
 30
0.0
 10
-2.89471
 20
34.9554
 30
0.0
 10
-2.46203
 20
34.45827
 30
0.0
 10
-2.1398
 20
34.16765
 30
0.0
 10
-2.24754
 20
34.1377
 30
0.0
 10
-2.48563
 20
34.08136
 30
0.0
 10
-2.52429
 20
34.07409
 30
0.0
 10
-2.74305
 20
34.43431
 30
0.0
 10
-3.10027
 20
34.74733
 30
0.0
 10
-3.30174
 20
35.09443
 30
0.0
  0
SPLINE
  5
90
330
1F
100
AcDbEntity
  8
Layer 1
 62
    12
370
    35
100
AcDbSpline
210
0.0
220
0.0
230
1.0
 70
    11
 71
     3
 72
    71
 73
    67
 74
     0
 42
0.0000000001
 43
0.0000000001
 40
0.0
 40
0.0
 40
0.0
 40
0.0
 40
0.0454545454545455
 40
0.0454545454545455
 40
0.0454545454545455
 40
0.0909090909090909
 40
0.0909090909090909
 40
0.0909090909090909
 40
0.1363636363636364
 40
0.1363636363636364
 40
0.1363636363636364
 40
0.1818181818181818
 40
0.1818181818181818
 40
0.1818181818181818
 40
0.2272727272727273
 40
0.2272727272727273
 40
0.2272727272727273
 40
0.2727272727272727
 40
0.2727272727272727
 40
0.2727272727272727
 40
0.3181818181818182
 40
0.3181818181818182
 40
0.3181818181818182
 40
0.3636363636363636
 40
0.3636363636363636
 40
0.3636363636363636
 40
0.4090909090909091
 40
0.4090909090909091
 40
0.4090909090909091
 40
0.4545454545454546
 40
0.4545454545454546
 40
0.4545454545454546
 40
0.5
 40
0.5
 40
0.5
 40
0.5454545454545454
 40
0.5454545454545454
 40
0.5454545454545454
 40
0.5909090909090909
 40
0.5909090909090909
 40
0.5909090909090909
 40
0.6363636363636364
 40
0.6363636363636364
 40
0.6363636363636364
 40
0.6818181818181819
 40
0.6818181818181819
 40
0.6818181818181819
 40
0.7272727272727273
 40
0.7272727272727273
 40
0.7272727272727273
 40
0.7727272727272727
 40
0.7727272727272727
 40
0.7727272727272727
 40
0.8181818181818182
 40
0.8181818181818182
 40
0.8181818181818182
 40
0.8636363636363636
 40
0.8636363636363636
 40
0.8636363636363636
 40
0.9090909090909092
 40
0.9090909090909092
 40
0.9090909090909092
 40
0.9545454545454546
 40
0.9545454545454546
 40
0.9545454545454546
 40
1.0
 40
1.0
 40
1.0
 40
1.0
 10
-2.67652
 20
33.07647
 30
0.0
 10
-2.80175
 20
32.54067
 30
0.0
 10
-3.11435
 20
32.15974
 30
0.0
 10
-3.27239
 20
32.32163
 30
0.0
 10
-3.39357
 20
32.44556
 30
0.0
 10
-3.64574
 20
32.70344
 30
0.0
 10
-4.06812
 20
33.80333
 30
0.0
 10
-4.08738
 20
33.8535
 30
0.0
 10
-4.12322
 20
33.94684
 30
0.0
 10
-4.21244
 20
33.94928
 30
0.0
 10
-4.26045
 20
33.95048
 30
0.0
 10
-4.30155
 20
33.92331
 30
0.0
 10
-4.32177
 20
33.87819
 30
0.0
 10
-4.38632
 20
33.73398
 30
0.0
 10
-4.22052
 20
32.9137
 30
0.0
 10
-3.60947
 20
32.19643
 30
0.0
 10
-3.87243
 20
32.07864
 30
0.0
 10
-3.95071
 20
31.88542
 30
0.0
 10
-5.00026
 20
31.93485
 30
0.0
 10
-5.13231
 20
31.93993
 30
0.0
 10
-5.12476
 20
31.9413
 30
0.0
 10
-5.15058
 20
32.00322
 30
0.0
 10
-5.17595
 20
32.06411
 30
0.0
 10
-5.21429
 20
32.15604
 30
0.0
 10
-5.34736
 20
32.23256
 30
0.0
 10
-5.71608
 20
32.44458
 30
0.0
 10
-5.60291
 20
32.42979
 30
0.0
 10
-5.64722
 20
32.59962
 30
0.0
 10
-5.67361
 20
32.70083
 30
0.0
 10
-5.77186
 20
32.86625
 30
0.0
 10
-5.73471
 20
33.15419
 30
0.0
 10
-5.72515
 20
33.22852
 30
0.0
 10
-5.68211
 20
33.34307
 30
0.0
 10
-5.64052
 20
33.45391
 30
0.0
 10
-5.58993
 20
33.58863
 30
0.0
 10
-5.54358
 20
33.71204
 30
0.0
 10
-5.53232
 20
33.81466
 30
0.0
 10
-5.365
 20
33.839
 30
0.0
 10
-5.27084
 20
33.98904
 30
0.0
 10
-5.23341
 20
33.99535
 30
0.0
 10
-5.19757
 20
33.99535
 30
0.0
 10
-5.15446
 20
33.87244
 30
0.0
 10
-5.00665
 20
33.88733
 30
0.0
 10
-4.88261
 20
33.89993
 30
0.0
 10
-4.70739
 20
33.99613
 30
0.0
 10
-4.66975
 20
34.14779
 30
0.0
 10
-4.53121
 20
34.12151
 30
0.0
 10
-4.49883
 20
34.24995
 30
0.0
 10
-4.46725
 20
34.23767
 30
0.0
 10
-4.39687
 20
34.21055
 30
0.0
 10
-4.3158
 20
34.23542
 30
0.0
 10
-4.27315
 20
34.29243
 30
0.0
 10
-4.14795
 20
34.23954
 30
0.0
 10
-3.92221
 20
34.32047
 30
0.0
 10
-3.82019
 20
34.52134
 30
0.0
 10
-3.79249
 20
34.57592
 30
0.0
 10
-3.77817
 20
34.66429
 30
0.0
 10
-3.75838
 20
34.69343
 30
0.0
 10
-3.67798
 20
34.71022
 30
0.0
 10
-3.62383
 20
34.78064
 30
0.0
 10
-3.62574
 20
34.86728
 30
0.0
 10
-3.6263
 20
34.89247
 30
0.0
 10
-3.60676
 20
34.91268
 30
0.0
 10
-3.58492
 20
34.92108
 30
0.0
 10
-3.19775
 20
34.26844
 30
0.0
 10
-2.48542
 20
33.89428
 30
0.0
 10
-2.67652
 20
33.07647
 30
0.0
  0
SPLINE
  5
91
330
1F
100
AcDbEntity
  8
Layer 1
 62
    12
370
    35
100
AcDbSpline
210
0.0
220
0.0
230
1.0
 70
    11
 71
     3
 72
   116
 73
   112
 74
     0
 42
0.0000000001
 43
0.0000000001
 40
0.0
 40
0.0
 40
0.0
 40
0.0
 40
0.027027027027027
 40
0.027027027027027
 40
0.027027027027027
 40
0.0540540540540541
 40
0.0540540540540541
 40
0.0540540540540541
 40
0.0810810810810811
 40
0.0810810810810811
 40
0.0810810810810811
 40
0.1081081081081081
 40
0.1081081081081081
 40
0.1081081081081081
 40
0.1351351351351351
 40
0.1351351351351351
 40
0.1351351351351351
 40
0.1621621621621622
 40
0.1621621621621622
 40
0.1621621621621622
 40
0.1891891891891892
 40
0.1891891891891892
 40
0.1891891891891892
 40
0.2162162162162162
 40
0.2162162162162162
 40
0.2162162162162162
 40
0.2432432432432433
 40
0.2432432432432433
 40
0.2432432432432433
 40
0.2702702702702703
 40
0.2702702702702703
 40
0.2702702702702703
 40
0.2972972972972973
 40
0.2972972972972973
 40
0.2972972972972973
 40
0.3243243243243243
 40
0.3243243243243243
 40
0.3243243243243243
 40
0.3513513513513514
 40
0.3513513513513514
 40
0.3513513513513514
 40
0.3783783783783784
 40
0.3783783783783784
 40
0.3783783783783784
 40
0.4054054054054054
 40
0.4054054054054054
 40
0.4054054054054054
 40
0.4324324324324325
 40
0.4324324324324325
 40
0.4324324324324325
 40
0.4594594594594595
 40
0.4594594594594595
 40
0.4594594594594595
 40
0.4864864864864865
 40
0.4864864864864865
 40
0.4864864864864865
 40
0.5135135135135136
 40
0.5135135135135136
 40
0.5135135135135136
 40
0.5405405405405406
 40
0.5405405405405406
 40
0.5405405405405406
 40
0.5675675675675675
 40
0.5675675675675675
 40
0.5675675675675675
 40
0.5945945945945946
 40
0.5945945945945946
 40
0.5945945945945946
 40
0.6216216216216217
 40
0.6216216216216217
 40
0.6216216216216217
 40
0.6486486486486487
 40
0.6486486486486487
 40
0.6486486486486487
 40
0.6756756756756757
 40
0.6756756756756757
 40
0.6756756756756757
 40
0.7027027027027027
 40
0.7027027027027027
 40
0.7027027027027027
 40
0.7297297297297298
 40
0.7297297297297298
 40
0.7297297297297298
 40
0.7567567567567568
 40
0.7567567567567568
 40
0.7567567567567568
 40
0.7837837837837838
 40
0.7837837837837838
 40
0.7837837837837838
 40
0.8108108108108109
 40
0.8108108108108109
 40
0.8108108108108109
 40
0.8378378378378379
 40
0.8378378378378379
 40
0.8378378378378379
 40
0.8648648648648649
 40
0.8648648648648649
 40
0.8648648648648649
 40
0.8918918918918919
 40
0.8918918918918919
 40
0.8918918918918919
 40
0.918918918918919
 40
0.918918918918919
 40
0.918918918918919
 40
0.945945945945946
 40
0.945945945945946
 40
0.945945945945946
 40
0.972972972972973
 40
0.972972972972973
 40
0.972972972972973
 40
1.0
 40
1.0
 40
1.0
 40
1.0
 10
-5.98324
 20
34.16504
 30
0.0
 10
-6.00399
 20
34.2037
 30
0.0
 10
-6.03835
 20
34.24106
 30
0.0
 10
-6.11204
 20
34.26886
 30
0.0
 10
-6.22991
 20
34.31338
 30
0.0
 10
-6.34512
 20
34.25115
 30
0.0
 10
-6.38227
 20
34.275
 30
0.0
 10
-6.43378
 20
34.30777
 30
0.0
 10
-6.35779
 20
34.57193
 30
0.0
 10
-6.70743
 20
34.60178
 30
0.0
 10
-6.68792
 20
34.67099
 30
0.0
 10
-6.67014
 20
34.77873
 30
0.0
 10
-6.74644
 20
34.87183
 30
0.0
 10
-6.85658
 20
35.00613
 30
0.0
 10
-7.02503
 20
34.95702
 30
0.0
 10
-7.09308
 20
34.98747
 30
0.0
 10
-7.08945
 20
34.99022
 30
0.0
 10
-6.88357
 20
35.33153
 30
0.0
 10
-6.99099
 20
35.43437
 30
0.0
 10
-7.0844
 20
35.5239
 30
0.0
 10
-7.20728
 20
35.57075
 30
0.0
 10
-7.33152
 20
35.56818
 30
0.0
 10
-7.31509
 20
35.70766
 30
0.0
 10
-7.29071
 20
35.83925
 30
0.0
 10
-7.1484
 20
35.95376
 30
0.0
 10
-7.03794
 20
36.04259
 30
0.0
 10
-6.58371
 20
36.11668
 30
0.0
 10
-6.69494
 20
36.46529
 30
0.0
 10
-6.72115
 20
36.54738
 30
0.0
 10
-6.78461
 20
36.62168
 30
0.0
 10
-6.79495
 20
36.67219
 30
0.0
 10
-6.65931
 20
36.67826
 30
0.0
 10
-6.54353
 20
36.75249
 30
0.0
 10
-6.42531
 20
37.06374
 30
0.0
 10
-6.36721
 20
37.21678
 30
0.0
 10
-6.36516
 20
37.29591
 30
0.0
 10
-6.35694
 20
37.36858
 30
0.0
 10
-6.32177
 20
37.40304
 30
0.0
 10
-6.25608
 20
37.42171
 30
0.0
 10
-6.20567
 20
37.60056
 30
0.0
 10
-6.18302
 20
37.68089
 30
0.0
 10
-6.17861
 20
37.69035
 30
0.0
 10
-6.11677
 20
37.70555
 30
0.0
 10
-5.96148
 20
37.74355
 30
0.0
 10
-6.10047
 20
37.75603
 30
0.0
 10
-5.77055
 20
37.877
 30
0.0
 10
-5.76805
 20
37.78852
 30
0.0
 10
-5.71041
 20
37.69906
 30
0.0
 10
-5.61879
 20
37.65958
 30
0.0
 10
-5.46194
 20
37.59196
 30
0.0
 10
-5.34874
 20
37.67542
 30
0.0
 10
-5.25779
 20
37.74249
 30
0.0
 10
-4.91867
 20
37.99236
 30
0.0
 10
-4.76034
 20
37.81572
 30
0.0
 10
-4.35062
 20
37.62417
 30
0.0
 10
-4.20524
 20
37.55615
 30
0.0
 10
-4.31348
 20
37.35835
 30
0.0
 10
-3.89494
 20
37.50895
 30
0.0
 10
-3.79366
 20
37.5455
 30
0.0
 10
-3.80297
 20
37.45035
 30
0.0
 10
-3.58453
 20
37.17145
 30
0.0
 10
-3.50755
 20
37.0733
 30
0.0
 10
-3.74653
 20
37.01023
 30
0.0
 10
-3.63099
 20
36.75845
 30
0.0
 10
-3.60101
 20
36.69304
 30
0.0
 10
-3.56527
 20
36.63095
 30
0.0
 10
-3.53073
 20
36.57084
 30
0.0
 10
-3.52974
 20
36.56915
 30
0.0
 10
-3.52876
 20
36.56742
 30
0.0
 10
-3.5278
 20
36.56573
 30
0.0
 10
-3.55952
 20
36.51316
 30
0.0
 10
-3.59282
 20
36.45439
 30
0.0
 10
-3.60757
 20
36.38923
 30
0.0
 10
-3.64493
 20
36.22392
 30
0.0
 10
-3.50886
 20
36.1287
 30
0.0
 10
-3.50748
 20
36.09163
 30
0.0
 10
-3.51394
 20
36.04668
 30
0.0
 10
-3.71651
 20
35.95884
 30
0.0
 10
-3.78466
 20
35.8753
 30
0.0
 10
-3.899
 20
35.73515
 30
0.0
 10
-3.84873
 20
35.56962
 30
0.0
 10
-3.69036
 20
35.49589
 30
0.0
 10
-3.6917
 20
35.45822
 30
0.0
 10
-3.68571
 20
35.41754
 30
0.0
 10
-3.6687
 20
35.37796
 30
0.0
 10
-3.70261
 20
35.32758
 30
0.0
 10
-3.72786
 20
35.27216
 30
0.0
 10
-3.7436
 20
35.2136
 30
0.0
 10
-3.83941
 20
35.16418
 30
0.0
 10
-3.91043
 20
35.07746
 30
0.0
 10
-3.94094
 20
34.97223
 30
0.0
 10
-4.09426
 20
34.87317
 30
0.0
 10
-4.08406
 20
34.69509
 30
0.0
 10
-4.13638
 20
34.64333
 30
0.0
 10
-4.23946
 20
34.72779
 30
0.0
 10
-4.41426
 20
34.71848
 30
0.0
 10
-4.50973
 20
34.56964
 30
0.0
 10
-4.56603
 20
34.56435
 30
0.0
 10
-4.62022
 20
34.54579
 30
0.0
 10
-4.66728
 20
34.5158
 30
0.0
 10
-4.8643
 20
34.58622
 30
0.0
 10
-5.05046
 20
34.43308
 30
0.0
 10
-5.0094
 20
34.24237
 30
0.0
 10
-5.07064
 20
34.30227
 30
0.0
 10
-5.15563
 20
34.3265
 30
0.0
 10
-5.23384
 20
34.32728
 30
0.0
 10
-5.44494
 20
34.32763
 30
0.0
 10
-5.53839
 20
34.145
 30
0.0
 10
-5.59106
 20
34.14119
 30
0.0
 10
-5.64119
 20
34.13847
 30
0.0
 10
-5.82051
 20
34.21679
 30
0.0
 10
-5.98324
 20
34.16504
 30
0.0
  0
SPLINE
  5
92
330
1F
100
AcDbEntity
  8
Layer 1
 62
    12
370
    35
100
AcDbSpline
210
0.0
220
0.0
230
1.0
 70
    11
 71
     3
 72
    65
 73
    61
 74
     0
 42
0.0000000001
 43
0.0000000001
 40
0.0
 40
0.0
 40
0.0
 40
0.0
 40
0.05
 40
0.05
 40
0.05
 40
0.1
 40
0.1
 40
0.1
 40
0.15
 40
0.15
 40
0.15
 40
0.2
 40
0.2
 40
0.2
 40
0.25
 40
0.25
 40
0.25
 40
0.3
 40
0.3
 40
0.3
 40
0.35
 40
0.35
 40
0.35
 40
0.4
 40
0.4
 40
0.4
 40
0.45
 40
0.45
 40
0.45
 40
0.5
 40
0.5
 40
0.5
 40
0.55
 40
0.55
 40
0.55
 40
0.6000000000000001
 40
0.6000000000000001
 40
0.6000000000000001
 40
0.65
 40
0.65
 40
0.65
 40
0.7000000000000001
 40
0.7000000000000001
 40
0.7000000000000001
 40
0.75
 40
0.75
 40
0.75
 40
0.8
 40
0.8
 40
0.8
 40
0.8500000000000001
 40
0.8500000000000001
 40
0.8500000000000001
 40
0.9
 40
0.9
 40
0.9
 40
0.9500000000000001
 40
0.9500000000000001
 40
0.9500000000000001
 40
1.0
 40
1.0
 40
1.0
 40
1.0
 10
-6.04766
 20
32.76934
 30
0.0
 10
-5.90048
 20
32.08615
 30
0.0
 10
-6.1161
 20
32.28734
 30
0.0
 10
-6.3471
 20
31.75613
 30
0.0
 10
-6.39289
 20
31.65076
 30
0.0
 10
-6.44245
 20
31.60394
 30
0.0
 10
-6.46461
 20
31.59816
 30
0.0
 10
-6.52892
 20
31.579
 30
0.0
 10
-6.61274
 20
31.91054
 30
0.0
 10
-7.23014
 20
31.91054
 30
0.0
 10
-7.59748
 20
31.91054
 30
0.0
 10
-7.93192
 20
31.81716
 30
0.0
 10
-8.2897
 20
32.14475
 30
0.0
 10
-8.51679
 20
32.35268
 30
0.0
 10
-8.56046
 20
32.59666
 30
0.0
 10
-8.60668
 20
32.85496
 30
0.0
 10
-8.66146
 20
33.16103
 30
0.0
 10
-8.6858
 20
33.22739
 30
0.0
 10
-8.80264
 20
33.46964
 30
0.0
 10
-8.98669
 20
33.8511
 30
0.0
 10
-8.97014
 20
33.93958
 30
0.0
 10
-8.87447
 20
34.22914
 30
0.0
 10
-8.80952
 20
34.42563
 30
0.0
 10
-8.79474
 20
34.48882
 30
0.0
 10
-8.77492
 20
34.74571
 30
0.0
 10
-8.74715
 20
35.10607
 30
0.0
 10
-8.71353
 20
35.17222
 30
0.0
 10
-8.54691
 20
35.39108
 30
0.0
 10
-8.1958
 20
35.85241
 30
0.0
 10
-8.39794
 20
35.87206
 30
0.0
 10
-8.14249
 20
36.09272
 30
0.0
 10
-8.18765
 20
35.84684
 30
0.0
 10
-8.13533
 20
35.64332
 30
0.0
 10
-8.1391
 20
35.50891
 30
0.0
 10
-8.14475
 20
35.30377
 30
0.0
 10
-8.27739
 20
35.10145
 30
0.0
 10
-8.18232
 20
34.75421
 30
0.0
 10
-8.0381
 20
34.22751
 30
0.0
 10
-8.08876
 20
34.23588
 30
0.0
 10
-8.14051
 20
34.10591
 30
0.0
 10
-8.37116
 20
33.52605
 30
0.0
 10
-8.0307
 20
32.94612
 30
0.0
 10
-7.8736
 20
32.72366
 30
0.0
 10
-7.5215
 20
32.22511
 30
0.0
 10
-6.85573
 20
32.28392
 30
0.0
 10
-6.58131
 20
32.77844
 30
0.0
 10
-6.45766
 20
33.00126
 30
0.0
 10
-6.47713
 20
33.19052
 30
0.0
 10
-6.37458
 20
33.63587
 30
0.0
 10
-6.33666
 20
33.80051
 30
0.0
 10
-6.33944
 20
33.69281
 30
0.0
 10
-6.20331
 20
33.82863
 30
0.0
 10
-6.01602
 20
33.69013
 30
0.0
 10
-5.90754
 20
33.75818
 30
0.0
 10
-5.87145
 20
33.85682
 30
0.0
 10
-5.87007
 20
33.85731
 30
0.0
 10
-5.86863
 20
33.85777
 30
0.0
 10
-5.86714
 20
33.85819
 30
0.0
 10
-5.86926
 20
33.62405
 30
0.0
 10
-6.17304
 20
33.35125
 30
0.0
 10
-6.04766
 20
32.76934
 30
0.0
  0
SPLINE
  5
93
330
1F
100
AcDbEntity
  8
Layer 1
 62
    12
370
    35
100
AcDbSpline
210
0.0
220
0.0
230
1.0
 70
    11
 71
     3
 72
    41
 73
    37
 74
     0
 42
0.0000000001
 43
0.0000000001
 40
0.0
 40
0.0
 40
0.0
 40
0.0
 40
0.0833333333333333
 40
0.0833333333333333
 40
0.0833333333333333
 40
0.1666666666666667
 40
0.1666666666666667
 40
0.1666666666666667
 40
0.25
 40
0.25
 40
0.25
 40
0.3333333333333333
 40
0.3333333333333333
 40
0.3333333333333333
 40
0.4166666666666666
 40
0.4166666666666666
 40
0.4166666666666666
 40
0.5
 40
0.5
 40
0.5
 40
0.5833333333333333
 40
0.5833333333333333
 40
0.5833333333333333
 40
0.6666666666666666
 40
0.6666666666666666
 40
0.6666666666666666
 40
0.75
 40
0.75
 40
0.75
 40
0.8333333333333333
 40
0.8333333333333333
 40
0.8333333333333333
 40
0.9166666666666666
 40
0.9166666666666666
 40
0.9166666666666666
 40
1.0
 40
1.0
 40
1.0
 40
1.0
 10
-7.7616
 20
34.14158
 30
0.0
 10
-7.56065
 20
34.57197
 30
0.0
 10
-7.6358
 20
34.67537
 30
0.0
 10
-7.58845
 20
34.90442
 30
0.0
 10
-7.56168
 20
35.03396
 30
0.0
 10
-7.4666
 20
35.20048
 30
0.0
 10
-7.35336
 20
35.23434
 30
0.0
 10
-7.35827
 20
35.21332
 30
0.0
 10
-7.59064
 20
34.88474
 30
0.0
 10
-7.26111
 20
34.70038
 30
0.0
 10
-7.18004
 20
34.65505
 30
0.0
 10
-7.10642
 20
34.65438
 30
0.0
 10
-7.03823
 20
34.64834
 30
0.0
 10
-7.09509
 20
34.48169
 30
0.0
 10
-7.02348
 20
34.35695
 30
0.0
 10
-6.91281
 20
34.30498
 30
0.0
 10
-6.8473
 20
34.27426
 30
0.0
 10
-6.78433
 20
34.27659
 30
0.0
 10
-6.73702
 20
34.27271
 30
0.0
 10
-6.72351
 20
34.15777
 30
0.0
 10
-6.65627
 20
34.05141
 30
0.0
 10
-6.55086
 20
33.98819
 30
0.0
 10
-6.69875
 20
33.86352
 30
0.0
 10
-6.72785
 20
33.64466
 30
0.0
 10
-6.75851
 20
33.41397
 30
0.0
 10
-6.79876
 20
33.11108
 30
0.0
 10
-6.83679
 20
32.82501
 30
0.0
 10
-7.11975
 20
32.72888
 30
0.0
 10
-7.22774
 20
32.69208
 30
0.0
 10
-7.35266
 20
32.70475
 30
0.0
 10
-7.44568
 20
32.76172
 30
0.0
 10
-7.53102
 20
32.8139
 30
0.0
 10
-7.60327
 20
32.90058
 30
0.0
 10
-7.67989
 20
33.04268
 30
0.0
 10
-7.99866
 20
33.6339
 30
0.0
 10
-7.88881
 20
33.86913
 30
0.0
 10
-7.7616
 20
34.14158
 30
0.0
  0
SPLINE
  5
94
330
1F
100
AcDbEntity
  8
Layer 1
 62
    12
370
    35
100
AcDbSpline
210
0.0
220
0.0
230
1.0
 70
    11
 71
     3
 72
    38
 73
    34
 74
     0
 42
0.0000000001
 43
0.0000000001
 40
0.0
 40
0.0
 40
0.0
 40
0.0
 40
0.0909090909090909
 40
0.0909090909090909
 40
0.0909090909090909
 40
0.1818181818181818
 40
0.1818181818181818
 40
0.1818181818181818
 40
0.2727272727272727
 40
0.2727272727272727
 40
0.2727272727272727
 40
0.3636363636363636
 40
0.3636363636363636
 40
0.3636363636363636
 40
0.4545454545454546
 40
0.4545454545454546
 40
0.4545454545454546
 40
0.5454545454545454
 40
0.5454545454545454
 40
0.5454545454545454
 40
0.6363636363636364
 40
0.6363636363636364
 40
0.6363636363636364
 40
0.7272727272727273
 40
0.7272727272727273
 40
0.7272727272727273
 40
0.8181818181818182
 40
0.8181818181818182
 40
0.8181818181818182
 40
0.9090909090909092
 40
0.9090909090909092
 40
0.9090909090909092
 40
1.0
 40
1.0
 40
1.0
 40
1.0
 10
-7.81832
 20
35.70474
 30
0.0
 10
-7.8718
 20
36.2616
 30
0.0
 10
-7.64966
 20
36.33519
 30
0.0
 10
-7.49278
 20
36.58693
 30
0.0
 10
-7.3426
 20
36.82788
 30
0.0
 10
-7.48431
 20
36.66419
 30
0.0
 10
-7.03999
 20
37.16076
 30
0.0
 10
-6.18944
 20
38.11128
 30
0.0
 10
-6.63722
 20
37.56031
 30
0.0
 10
-6.69106
 20
37.35831
 30
0.0
 10
-6.71625
 20
37.26377
 30
0.0
 10
-6.77399
 20
37.04716
 30
0.0
 10
-6.82367
 20
37.00246
 30
0.0
 10
-7.01882
 20
37.00246
 30
0.0
 10
-7.12473
 20
36.85698
 30
0.0
 10
-7.1291
 20
36.69484
 30
0.0
 10
-7.13291
 20
36.55296
 30
0.0
 10
-7.0522
 20
36.44973
 30
0.0
 10
-7.02253
 20
36.38549
 30
0.0
 10
-7.09933
 20
36.33928
 30
0.0
 10
-7.21888
 20
36.33335
 30
0.0
 10
-7.3782
 20
36.19549
 30
0.0
 10
-7.501
 20
36.08926
 30
0.0
 10
-7.59043
 20
35.94657
 30
0.0
 10
-7.62994
 20
35.79367
 30
0.0
 10
-7.66871
 20
35.64381
 30
0.0
 10
-7.66769
 20
35.58126
 30
0.0
 10
-7.66702
 20
35.53988
 30
0.0
 10
-7.66557
 20
35.45
 30
0.0
 10
-7.83159
 20
35.21466
 30
0.0
 10
-7.88105
 20
35.08649
 30
0.0
 10
-7.84468
 20
35.3177
 30
0.0
 10
-7.78312
 20
35.33855
 30
0.0
 10
-7.81832
 20
35.70474
 30
0.0
  0
SPLINE
  5
95
330
1F
100
AcDbEntity
  8
Layer 1
 62
    12
370
    35
100
AcDbSpline
210
0.0
220
0.0
230
1.0
 70
    11
 71
     3
 72
    32
 73
    28
 74
     0
 42
0.0000000001
 43
0.0000000001
 40
0.0
 40
0.0
 40
0.0
 40
0.0
 40
0.1111111111111111
 40
0.1111111111111111
 40
0.1111111111111111
 40
0.2222222222222222
 40
0.2222222222222222
 40
0.2222222222222222
 40
0.3333333333333333
 40
0.3333333333333333
 40
0.3333333333333333
 40
0.4444444444444444
 40
0.4444444444444444
 40
0.4444444444444444
 40
0.5555555555555556
 40
0.5555555555555556
 40
0.5555555555555556
 40
0.6666666666666666
 40
0.6666666666666666
 40
0.6666666666666666
 40
0.7777777777777777
 40
0.7777777777777777
 40
0.7777777777777777
 40
0.8888888888888888
 40
0.8888888888888888
 40
0.8888888888888888
 40
1.0
 40
1.0
 40
1.0
 40
1.0
 10
-6.15124
 20
39.1101
 30
0.0
 10
-6.00152
 20
39.23537
 30
0.0
 10
-5.83462
 20
39.34113
 30
0.0
 10
-5.69972
 20
39.5013
 30
0.0
 10
-5.45937
 20
39.78669
 30
0.0
 10
-5.42473
 20
40.13249
 30
0.0
 10
-5.03953
 20
40.27398
 30
0.0
 10
-4.94862
 20
40.30736
 30
0.0
 10
-4.72055
 20
40.37424
 30
0.0
 10
-4.5661
 20
40.2749
 30
0.0
 10
-4.4989
 20
40.23162
 30
0.0
 10
-4.41896
 20
40.1654
 30
0.0
 10
-4.4198
 20
40.09562
 30
0.0
 10
-4.42213
 20
39.9036
 30
0.0
 10
-4.91454
 20
39.66012
 30
0.0
 10
-5.07399
 20
39.54395
 30
0.0
 10
-5.31043
 20
39.37179
 30
0.0
 10
-5.69245
 20
39.09363
 30
0.0
 10
-5.66581
 20
38.71555
 30
0.0
 10
-5.81155
 20
38.70557
 30
0.0
 10
-5.91248
 20
38.75715
 30
0.0
 10
-6.27541
 20
38.53232
 30
0.0
 10
-6.38693
 20
38.46325
 30
0.0
 10
-6.52483
 20
38.3778
 30
0.0
 10
-6.6429
 20
38.26671
 30
0.0
 10
-6.63158
 20
38.41636
 30
0.0
 10
-6.68326
 20
38.66525
 30
0.0
 10
-6.15124
 20
39.1101
 30
0.0
  0
SPLINE
  5
96
330
1F
100
AcDbEntity
  8
Layer 1
 62
    12
370
    35
100
AcDbSpline
210
0.0
220
0.0
230
1.0
 70
    11
 71
     3
 72
    17
 73
    13
 74
     0
 42
0.0000000001
 43
0.0000000001
 40
0.0
 40
0.0
 40
0.0
 40
0.0
 40
0.25
 40
0.25
 40
0.25
 40
0.5
 40
0.5
 40
0.5
 40
0.75
 40
0.75
 40
0.75
 40
1.0
 40
1.0
 40
1.0
 40
1.0
 10
-5.0184
 20
38.21972
 30
0.0
 10
-5.15979
 20
38.18635
 30
0.0
 10
-5.33523
 20
38.10278
 30
0.0
 10
-5.44296
 20
38.01839
 30
0.0
 10
-5.45164
 20
38.09558
 30
0.0
 10
-5.56682
 20
38.19348
 30
0.0
 10
-5.65555
 20
38.23281
 30
0.0
 10
-5.50696
 20
38.23881
 30
0.0
 10
-5.26559
 20
38.20378
 30
0.0
 10
-5.05611
 20
38.21807
 30
0.0
 10
-5.04284
 20
38.21898
 30
0.0
 10
-5.03043
 20
38.21948
 30
0.0
 10
-5.0184
 20
38.21972
 30
0.0
  0
SPLINE
  5
97
330
1F
100
AcDbEntity
  8
Layer 1
 62
    12
370
    35
100
AcDbSpline
210
0.0
220
0.0
230
1.0
 70
    11
 71
     3
 72
    20
 73
    16
 74
     0
 42
0.0000000001
 43
0.0000000001
 40
0.0
 40
0.0
 40
0.0
 40
0.0
 40
0.2
 40
0.2
 40
0.2
 40
0.4
 40
0.4
 40
0.4
 40
0.6000000000000001
 40
0.6000000000000001
 40
0.6000000000000001
 40
0.8
 40
0.8
 40
0.8
 40
1.0
 40
1.0
 40
1.0
 40
1.0
 10
-4.94946
 20
38.55504
 30
0.0
 10
-5.01131
 20
38.55779
 30
0.0
 10
-5.0626
 20
38.5513
 30
0.0
 10
-5.11781
 20
38.54784
 30
0.0
 10
-4.93948
 20
38.60009
 30
0.0
 10
-4.75014
 20
38.63336
 30
0.0
 10
-4.55135
 20
38.64704
 30
0.0
 10
-4.24447
 20
38.66846
 30
0.0
 10
-4.19357
 20
38.63184
 30
0.0
 10
-4.07161
 20
38.54611
 30
0.0
 10
-4.01023
 20
38.50293
 30
0.0
 10
-3.94839
 20
38.46039
 30
0.0
 10
-3.87303
 20
38.43619
 30
0.0
 10
-4.45071
 20
38.29374
 30
0.0
 10
-4.66216
 20
38.54125
 30
0.0
 10
-4.94946
 20
38.55504
 30
0.0
  0
SPLINE
  5
98
330
1F
100
AcDbEntity
  8
Layer 1
 62
    12
370
    35
100
AcDbSpline
210
0.0
220
0.0
230
1.0
 70
    11
 71
     3
 72
    14
 73
    10
 74
     0
 42
0.0000000001
 43
0.0000000001
 40
0.0
 40
0.0
 40
0.0
 40
0.0
 40
0.3333333333333333
 40
0.3333333333333333
 40
0.3333333333333333
 40
0.6666666666666666
 40
0.6666666666666666
 40
0.6666666666666666
 40
1.0
 40
1.0
 40
1.0
 40
1.0
 10
-3.67957
 20
37.94516
 30
0.0
 10
-3.49732
 20
38.1981
 30
0.0
 10
-3.40303
 20
38.34634
 30
0.0
 10
-3.07681
 20
38.21422
 30
0.0
 10
-2.87612
 20
38.13291
 30
0.0
 10
-2.63771
 20
37.99695
 30
0.0
 10
-2.58264
 20
37.78655
 30
0.0
 10
-2.92572
 20
37.83618
 30
0.0
 10
-3.42271
 20
37.84049
 30
0.0
 10
-3.67957
 20
37.94516
 30
0.0
  0
SPLINE
  5
99
330
1F
100
AcDbEntity
  8
Layer 1
 62
    12
370
    35
100
AcDbSpline
210
0.0
220
0.0
230
1.0
 70
    11
 71
     3
 72
    47
 73
    43
 74
     0
 42
0.0000000001
 43
0.0000000001
 40
0.0
 40
0.0
 40
0.0
 40
0.0
 40
0.0714285714285714
 40
0.0714285714285714
 40
0.0714285714285714
 40
0.1428571428571428
 40
0.1428571428571428
 40
0.1428571428571428
 40
0.2142857142857143
 40
0.2142857142857143
 40
0.2142857142857143
 40
0.2857142857142857
 40
0.2857142857142857
 40
0.2857142857142857
 40
0.3571428571428571
 40
0.3571428571428571
 40
0.3571428571428571
 40
0.4285714285714285
 40
0.4285714285714285
 40
0.4285714285714285
 40
0.5
 40
0.5
 40
0.5
 40
0.5714285714285714
 40
0.5714285714285714
 40
0.5714285714285714
 40
0.6428571428571428
 40
0.6428571428571428
 40
0.6428571428571428
 40
0.7142857142857142
 40
0.7142857142857142
 40
0.7142857142857142
 40
0.7857142857142857
 40
0.7857142857142857
 40
0.7857142857142857
 40
0.8571428571428571
 40
0.8571428571428571
 40
0.8571428571428571
 40
0.9285714285714285
 40
0.9285714285714285
 40
0.9285714285714285
 40
1.0
 40
1.0
 40
1.0
 40
1.0
 10
-3.4153
 20
35.73758
 30
0.0
 10
-3.3408
 20
35.78453
 30
0.0
 10
-3.26252
 20
35.84158
 30
0.0
 10
-3.21464
 20
35.94371
 30
0.0
 10
-3.15421
 20
36.07258
 30
0.0
 10
-3.16984
 20
36.2127
 30
0.0
 10
-3.27232
 20
36.33878
 30
0.0
 10
-3.23577
 20
36.40779
 30
0.0
 10
-3.14589
 20
36.50724
 30
0.0
 10
-3.17887
 20
36.61829
 30
0.0
 10
-3.20762
 20
36.71523
 30
0.0
 10
-3.30153
 20
36.82459
 30
0.0
 10
-3.32009
 20
36.88111
 30
0.0
 10
-3.31713
 20
36.88707
 30
0.0
 10
-3.29659
 20
36.91656
 30
0.0
 10
-3.28933
 20
36.92704
 30
0.0
 10
-3.223
 20
37.02289
 30
0.0
 10
-3.15446
 20
37.12199
 30
0.0
 10
-3.26491
 20
37.29202
 30
0.0
 10
-3.32492
 20
37.38442
 30
0.0
 10
-3.37971
 20
37.47939
 30
0.0
 10
-3.43012
 20
37.55587
 30
0.0
 10
-3.08718
 20
37.51279
 30
0.0
 10
-2.56984
 20
37.49385
 30
0.0
 10
-2.38551
 20
37.39246
 30
0.0
 10
-2.22821
 20
37.30603
 30
0.0
 10
-2.18848
 20
37.32318
 30
0.0
 10
-2.0727
 20
37.03612
 30
0.0
 10
-1.97205
 20
36.78664
 30
0.0
 10
-1.82032
 20
36.33727
 30
0.0
 10
-1.81472
 20
36.1219
 30
0.0
 10
-1.80628
 20
35.79727
 30
0.0
 10
-1.96704
 20
34.99163
 30
0.0
 10
-2.09842
 20
34.58262
 30
0.0
 10
-2.42576
 20
34.89374
 30
0.0
 10
-2.82835
 20
35.32808
 30
0.0
 10
-3.28432
 20
35.43641
 30
0.0
 10
-3.2949
 20
35.46838
 30
0.0
 10
-3.31596
 20
35.49744
 30
0.0
 10
-3.34531
 20
35.51745
 30
0.0
 10
-3.33318
 20
35.57043
 30
0.0
 10
-3.324
 20
35.66113
 30
0.0
 10
-3.4153
 20
35.73758
 30
0.0
  0
SPLINE
  5
9A
330
1F
100
AcDbEntity
  8
Layer 1
 62
    12
370
    35
100
AcDbSpline
210
0.0
220
0.0
230
1.0
 70
    11
 71
     3
 72
    35
 73
    31
 74
     0
 42
0.0000000001
 43
0.0000000001
 40
0.0
 40
0.0
 40
0.0
 40
0.0
 40
0.1
 40
0.1
 40
0.1
 40
0.2
 40
0.2
 40
0.2
 40
0.3
 40
0.3
 40
0.3
 40
0.4
 40
0.4
 40
0.4
 40
0.5
 40
0.5
 40
0.5
 40
0.6000000000000001
 40
0.6000000000000001
 40
0.6000000000000001
 40
0.7000000000000001
 40
0.7000000000000001
 40
0.7000000000000001
 40
0.8
 40
0.8
 40
0.8
 40
0.9
 40
0.9
 40
0.9
 40
1.0
 40
1.0
 40
1.0
 40
1.0
 10
-3.6354
 20
39.78027
 30
0.0
 10
-3.23757
 20
39.63373
 30
0.0
 10
-3.15076
 20
39.56818
 30
0.0
 10
-3.01935
 20
39.46902
 30
0.0
 10
-2.84229
 20
39.33535
 30
0.0
 10
-2.81269
 20
39.31803
 30
0.0
 10
-2.6484
 20
39.25703
 30
0.0
 10
-2.3932
 20
39.16217
 30
0.0
 10
-2.41842
 20
39.14682
 30
0.0
 10
-1.84632
 20
38.58894
 30
0.0
 10
-2.01608
 20
38.45146
 30
0.0
 10
-2.10114
 20
38.23941
 30
0.0
 10
-2.33651
 20
38.05558
 30
0.0
 10
-2.48383
 20
38.30072
 30
0.0
 10
-2.82373
 20
38.49105
 30
0.0
 10
-3.06193
 20
38.56513
 30
0.0
 10
-3.18053
 20
38.70698
 30
0.0
 10
-3.40878
 20
38.71887
 30
0.0
 10
-3.57878
 20
38.72772
 30
0.0
 10
-3.73351
 20
38.73573
 30
0.0
 10
-3.76314
 20
38.73714
 30
0.0
 10
-3.88616
 20
38.82301
 30
0.0
 10
-3.99389
 20
38.89822
 30
0.0
 10
-4.1283
 20
38.99192
 30
0.0
 10
-4.45413
 20
38.98434
 30
0.0
 10
-4.73938
 20
38.97788
 30
0.0
 10
-5.05667
 20
38.92211
 30
0.0
 10
-5.3191
 20
38.83476
 30
0.0
 10
-5.18276
 20
39.19092
 30
0.0
 10
-3.96045
 20
39.90032
 30
0.0
 10
-3.6354
 20
39.78027
 30
0.0
  0
SPLINE
  5
9B
330
1F
100
AcDbEntity
  8
Layer 1
 62
    12
370
    35
100
AcDbSpline
210
0.0
220
0.0
230
1.0
 70
    11
 71
     3
 72
   113
 73
   109
 74
     0
 42
0.0000000001
 43
0.0000000001
 40
0.0
 40
0.0
 40
0.0
 40
0.0
 40
0.0277777777777778
 40
0.0277777777777778
 40
0.0277777777777778
 40
0.0555555555555556
 40
0.0555555555555556
 40
0.0555555555555556
 40
0.0833333333333333
 40
0.0833333333333333
 40
0.0833333333333333
 40
0.1111111111111111
 40
0.1111111111111111
 40
0.1111111111111111
 40
0.1388888888888889
 40
0.1388888888888889
 40
0.1388888888888889
 40
0.1666666666666667
 40
0.1666666666666667
 40
0.1666666666666667
 40
0.1944444444444444
 40
0.1944444444444444
 40
0.1944444444444444
 40
0.2222222222222222
 40
0.2222222222222222
 40
0.2222222222222222
 40
0.25
 40
0.25
 40
0.25
 40
0.2777777777777778
 40
0.2777777777777778
 40
0.2777777777777778
 40
0.3055555555555555
 40
0.3055555555555555
 40
0.3055555555555555
 40
0.3333333333333333
 40
0.3333333333333333
 40
0.3333333333333333
 40
0.3611111111111111
 40
0.3611111111111111
 40
0.3611111111111111
 40
0.3888888888888888
 40
0.3888888888888888
 40
0.3888888888888888
 40
0.4166666666666666
 40
0.4166666666666666
 40
0.4166666666666666
 40
0.4444444444444444
 40
0.4444444444444444
 40
0.4444444444444444
 40
0.4722222222222222
 40
0.4722222222222222
 40
0.4722222222222222
 40
0.5
 40
0.5
 40
0.5
 40
0.5277777777777778
 40
0.5277777777777778
 40
0.5277777777777778
 40
0.5555555555555556
 40
0.5555555555555556
 40
0.5555555555555556
 40
0.5833333333333333
 40
0.5833333333333333
 40
0.5833333333333333
 40
0.611111111111111
 40
0.611111111111111
 40
0.611111111111111
 40
0.6388888888888888
 40
0.6388888888888888
 40
0.6388888888888888
 40
0.6666666666666666
 40
0.6666666666666666
 40
0.6666666666666666
 40
0.6944444444444444
 40
0.6944444444444444
 40
0.6944444444444444
 40
0.7222222222222222
 40
0.7222222222222222
 40
0.7222222222222222
 40
0.75
 40
0.75
 40
0.75
 40
0.7777777777777777
 40
0.7777777777777777
 40
0.7777777777777777
 40
0.8055555555555555
 40
0.8055555555555555
 40
0.8055555555555555
 40
0.8333333333333333
 40
0.8333333333333333
 40
0.8333333333333333
 40
0.861111111111111
 40
0.861111111111111
 40
0.861111111111111
 40
0.8888888888888888
 40
0.8888888888888888
 40
0.8888888888888888
 40
0.9166666666666666
 40
0.9166666666666666
 40
0.9166666666666666
 40
0.9444444444444444
 40
0.9444444444444444
 40
0.9444444444444444
 40
0.9722222222222222
 40
0.9722222222222222
 40
0.9722222222222222
 40
1.0
 40
1.0
 40
1.0
 40
1.0
 10
-0.2995
 20
35.7434
 30
0.0
 10
-0.1774
 20
35.89111
 30
0.0
 10
-0.19624
 20
36.25017
 30
0.0
 10
-0.23124
 20
36.42885
 30
0.0
 10
-0.2832
 20
36.69417
 30
0.0
 10
-0.31947
 20
36.73146
 30
0.0
 10
-0.32458
 20
37.01167
 30
0.0
 10
-0.32889
 20
37.24235
 30
0.0
 10
-0.33294
 20
37.32864
 30
0.0
 10
-0.52722
 20
37.59975
 30
0.0
 10
-0.64938
 20
37.77018
 30
0.0
 10
-0.6563
 20
37.799
 30
0.0
 10
-0.69267
 20
37.91655
 30
0.0
 10
-0.76206
 20
38.14098
 30
0.0
 10
-0.86476
 20
38.47305
 30
0.0
 10
-1.39646
 20
38.58171
 30
0.0
 10
-1.4032
 20
38.60933
 30
0.0
 10
-1.41752
 20
38.63456
 30
0.0
 10
-1.43848
 20
38.65495
 30
0.0
 10
-2.22253
 20
39.41966
 30
0.0
 10
-2.19603
 20
39.43444
 30
0.0
 10
-2.49963
 20
39.551
 30
0.0
 10
-2.65313
 20
39.60995
 30
0.0
 10
-2.66392
 20
39.62015
 30
0.0
 10
-2.78164
 20
39.70728
 30
0.0
 10
-2.94904
 20
39.83104
 30
0.0
 10
-3.13876
 20
39.97127
 30
0.0
 10
-3.56897
 20
40.10973
 30
0.0
 10
-3.73249
 20
40.16244
 30
0.0
 10
-3.8906
 20
40.13079
 30
0.0
 10
-4.0533
 20
40.07488
 30
0.0
 10
-4.06755
 20
40.57522
 30
0.0
 10
-4.75388
 20
40.80731
 30
0.0
 10
-5.27995
 20
40.53095
 30
0.0
 10
-5.74244
 20
40.28799
 30
0.0
 10
-5.75528
 20
39.87291
 30
0.0
 10
-6.06943
 20
39.60036
 30
0.0
 10
-6.17741
 20
39.50669
 30
0.0
 10
-6.92156
 20
38.95537
 30
0.0
 10
-7.13319
 20
38.41908
 30
0.0
 10
-7.28418
 20
38.0361
 30
0.0
 10
-7.46209
 20
38.13746
 30
0.0
 10
-7.65358
 20
37.46721
 30
0.0
 10
-7.76964
 20
37.05933
 30
0.0
 10
-7.8149
 20
36.88799
 30
0.0
 10
-7.83106
 20
36.80928
 30
0.0
 10
-8.26857
 20
36.41618
 30
0.0
 10
-8.50578
 20
36.19266
 30
0.0
 10
-8.53616
 20
36.14476
 30
0.0
 10
-8.65762
 20
35.95327
 30
0.0
 10
-8.40012
 20
36.32196
 30
0.0
 10
-8.947
 20
35.39771
 30
0.0
 10
-9.11069
 20
35.12117
 30
0.0
 10
-9.0825
 20
34.82226
 30
0.0
 10
-9.13034
 20
34.54872
 30
0.0
 10
-9.14424
 20
34.46934
 30
0.0
 10
-9.1684
 20
34.39604
 30
0.0
 10
-9.19402
 20
34.31846
 30
0.0
 10
-9.36875
 20
33.78866
 30
0.0
 10
-9.24383
 20
33.6569
 30
0.0
 10
-9.04003
 20
33.19172
 30
0.0
 10
-8.86336
 20
32.78804
 30
0.0
 10
-8.98355
 20
32.34615
 30
0.0
 10
-8.52998
 20
31.91488
 30
0.0
 10
-8.31225
 20
31.7078
 30
0.0
 10
-8.03256
 20
31.58468
 30
0.0
 10
-7.74251
 20
31.56817
 30
0.0
 10
-7.43835
 20
31.55099
 30
0.0
 10
-7.11799
 20
31.64194
 30
0.0
 10
-6.87648
 20
31.50492
 30
0.0
 10
-6.77287
 20
31.44611
 30
0.0
 10
-6.6779
 20
31.26439
 30
0.0
 10
-6.46905
 20
31.26439
 30
0.0
 10
-6.30279
 20
31.26439
 30
0.0
 10
-6.15342
 20
31.38173
 30
0.0
 10
-6.05701
 20
31.58937
 30
0.0
 10
-5.97876
 20
31.75747
 30
0.0
 10
-5.99273
 20
31.75684
 30
0.0
 10
-5.87917
 20
31.89121
 30
0.0
 10
-5.83169
 20
31.94737
 30
0.0
 10
-5.78036
 20
32.00808
 30
0.0
 10
-5.74043
 20
32.08263
 30
0.0
 10
-5.64405
 20
32.00964
 30
0.0
 10
-5.5494
 20
31.96632
 30
0.0
 10
-5.515
 20
31.94603
 30
0.0
 10
-5.41457
 20
31.88683
 30
0.0
 10
-5.44353
 20
31.63029
 30
0.0
 10
-5.06271
 20
31.605
 30
0.0
 10
-3.73093
 20
31.51628
 30
0.0
 10
-3.67375
 20
31.86997
 30
0.0
 10
-3.36433
 20
31.92769
 30
0.0
 10
-3.17901
 20
31.9624
 30
0.0
 10
-2.89933
 20
31.94684
 30
0.0
 10
-2.6375
 20
32.31154
 30
0.0
 10
-2.24108
 20
32.31405
 30
0.0
 10
-1.83786
 20
32.50607
 30
0.0
 10
-1.40722
 20
32.89701
 30
0.0
 10
-1.11046
 20
33.16639
 30
0.0
 10
-0.81674
 20
33.49652
 30
0.0
 10
-0.60137
 20
33.80274
 30
0.0
 10
-0.51014
 20
33.93245
 30
0.0
 10
-0.46717
 20
34.04661
 30
0.0
 10
-0.46213
 20
34.17298
 30
0.0
 10
-0.4525
 20
34.41389
 30
0.0
 10
-0.49646
 20
34.67882
 30
0.0
 10
-0.5929
 20
34.96115
 30
0.0
 10
-0.40103
 20
35.24655
 30
0.0
 10
-0.27329
 20
35.45
 30
0.0
 10
-0.2995
 20
35.7434
 30
0.0
  0
SPLINE
  5
9C
330
1F
100
AcDbEntity
  8
Layer 1
 62
    12
370
    35
100
AcDbSpline
210
0.0
220
0.0
230
1.0
 70
    11
 71
     3
 72
    14
 73
    10
 74
     0
 42
0.0000000001
 43
0.0000000001
 40
0.0
 40
0.0
 40
0.0
 40
0.0
 40
0.3333333333333333
 40
0.3333333333333333
 40
0.3333333333333333
 40
0.6666666666666666
 40
0.6666666666666666
 40
0.6666666666666666
 40
1.0
 40
1.0
 40
1.0
 40
1.0
 10
14.93817
 20
-2.68835
 30
0.0
 10
14.79043
 20
-2.38909
 30
0.0
 10
14.59407
 20
-2.04689
 30
0.0
 10
14.34847
 20
-1.72932
 30
0.0
 10
14.5644
 20
-1.93601
 30
0.0
 10
14.87707
 20
-2.17827
 30
0.0
 10
14.9471
 20
-2.21206
 30
0.0
 10
14.94738
 20
-2.36587
 30
0.0
 10
14.94463
 20
-2.52494
 30
0.0
 10
14.93817
 20
-2.68835
 30
0.0
  0
SPLINE
  5
9D
330
1F
100
AcDbEntity
  8
Layer 1
 62
    12
370
    35
100
AcDbSpline
210
0.0
220
0.0
230
1.0
 70
    11
 71
     3
 72
   572
 73
   568
 74
     0
 42
0.0000000001
 43
0.0000000001
 40
0.0
 40
0.0
 40
0.0
 40
0.0
 40
0.0052910052910053
 40
0.0052910052910053
 40
0.0052910052910053
 40
0.0105820105820106
 40
0.0105820105820106
 40
0.0105820105820106
 40
0.0158730158730159
 40
0.0158730158730159
 40
0.0158730158730159
 40
0.0211640211640212
 40
0.0211640211640212
 40
0.0211640211640212
 40
0.0264550264550265
 40
0.0264550264550265
 40
0.0264550264550265
 40
0.0317460317460317
 40
0.0317460317460317
 40
0.0317460317460317
 40
0.037037037037037
 40
0.037037037037037
 40
0.037037037037037
 40
0.0423280423280423
 40
0.0423280423280423
 40
0.0423280423280423
 40
0.0476190476190476
 40
0.0476190476190476
 40
0.0476190476190476
 40
0.0529100529100529
 40
0.0529100529100529
 40
0.0529100529100529
 40
0.0582010582010582
 40
0.0582010582010582
 40
0.0582010582010582
 40
0.0634920634920635
 40
0.0634920634920635
 40
0.0634920634920635
 40
0.0687830687830688
 40
0.0687830687830688
 40
0.0687830687830688
 40
0.0740740740740741
 40
0.0740740740740741
 40
0.0740740740740741
 40
0.0793650793650794
 40
0.0793650793650794
 40
0.0793650793650794
 40
0.0846560846560847
 40
0.0846560846560847
 40
0.0846560846560847
 40
0.0899470899470899
 40
0.0899470899470899
 40
0.0899470899470899
 40
0.0952380952380952
 40
0.0952380952380952
 40
0.0952380952380952
 40
0.1005291005291005
 40
0.1005291005291005
 40
0.1005291005291005
 40
0.1058201058201058
 40
0.1058201058201058
 40
0.1058201058201058
 40
0.1111111111111111
 40
0.1111111111111111
 40
0.1111111111111111
 40
0.1164021164021164
 40
0.1164021164021164
 40
0.1164021164021164
 40
0.1216931216931217
 40
0.1216931216931217
 40
0.1216931216931217
 40
0.126984126984127
 40
0.126984126984127
 40
0.126984126984127
 40
0.1322751322751323
 40
0.1322751322751323
 40
0.1322751322751323
 40
0.1375661375661376
 40
0.1375661375661376
 40
0.1375661375661376
 40
0.1428571428571428
 40
0.1428571428571428
 40
0.1428571428571428
 40
0.1481481481481481
 40
0.1481481481481481
 40
0.1481481481481481
 40
0.1534391534391534
 40
0.1534391534391534
 40
0.1534391534391534
 40
0.1587301587301587
 40
0.1587301587301587
 40
0.1587301587301587
 40
0.164021164021164
 40
0.164021164021164
 40
0.164021164021164
 40
0.1693121693121693
 40
0.1693121693121693
 40
0.1693121693121693
 40
0.1746031746031746
 40
0.1746031746031746
 40
0.1746031746031746
 40
0.1798941798941799
 40
0.1798941798941799
 40
0.1798941798941799
 40
0.1851851851851852
 40
0.1851851851851852
 40
0.1851851851851852
 40
0.1904761904761905
 40
0.1904761904761905
 40
0.1904761904761905
 40
0.1957671957671958
 40
0.1957671957671958
 40
0.1957671957671958
 40
0.201058201058201
 40
0.201058201058201
 40
0.201058201058201
 40
0.2063492063492063
 40
0.2063492063492063
 40
0.2063492063492063
 40
0.2116402116402116
 40
0.2116402116402116
 40
0.2116402116402116
 40
0.2169312169312169
 40
0.2169312169312169
 40
0.2169312169312169
 40
0.2222222222222222
 40
0.2222222222222222
 40
0.2222222222222222
 40
0.2275132275132275
 40
0.2275132275132275
 40
0.2275132275132275
 40
0.2328042328042328
 40
0.2328042328042328
 40
0.2328042328042328
 40
0.2380952380952381
 40
0.2380952380952381
 40
0.2380952380952381
 40
0.2433862433862434
 40
0.2433862433862434
 40
0.2433862433862434
 40
0.2486772486772487
 40
0.2486772486772487
 40
0.2486772486772487
 40
0.253968253968254
 40
0.253968253968254
 40
0.253968253968254
 40
0.2592592592592592
 40
0.2592592592592592
 40
0.2592592592592592
 40
0.2645502645502645
 40
0.2645502645502645
 40
0.2645502645502645
 40
0.2698412698412698
 40
0.2698412698412698
 40
0.2698412698412698
 40
0.2751322751322751
 40
0.2751322751322751
 40
0.2751322751322751
 40
0.2804232804232804
 40
0.2804232804232804
 40
0.2804232804232804
 40
0.2857142857142857
 40
0.2857142857142857
 40
0.2857142857142857
 40
0.291005291005291
 40
0.291005291005291
 40
0.291005291005291
 40
0.2962962962962963
 40
0.2962962962962963
 40
0.2962962962962963
 40
0.3015873015873016
 40
0.3015873015873016
 40
0.3015873015873016
 40
0.3068783068783069
 40
0.3068783068783069
 40
0.3068783068783069
 40
0.3121693121693122
 40
0.3121693121693122
 40
0.3121693121693122
 40
0.3174603174603174
 40
0.3174603174603174
 40
0.3174603174603174
 40
0.3227513227513227
 40
0.3227513227513227
 40
0.3227513227513227
 40
0.328042328042328
 40
0.328042328042328
 40
0.328042328042328
 40
0.3333333333333333
 40
0.3333333333333333
 40
0.3333333333333333
 40
0.3386243386243386
 40
0.3386243386243386
 40
0.3386243386243386
 40
0.3439153439153439
 40
0.3439153439153439
 40
0.3439153439153439
 40
0.3492063492063492
 40
0.3492063492063492
 40
0.3492063492063492
 40
0.3544973544973545
 40
0.3544973544973545
 40
0.3544973544973545
 40
0.3597883597883598
 40
0.3597883597883598
 40
0.3597883597883598
 40
0.3650793650793651
 40
0.3650793650793651
 40
0.3650793650793651
 40
0.3703703703703703
 40
0.3703703703703703
 40
0.3703703703703703
 40
0.3756613756613756
 40
0.3756613756613756
 40
0.3756613756613756
 40
0.3809523809523809
 40
0.3809523809523809
 40
0.3809523809523809
 40
0.3862433862433862
 40
0.3862433862433862
 40
0.3862433862433862
 40
0.3915343915343915
 40
0.3915343915343915
 40
0.3915343915343915
 40
0.3968253968253968
 40
0.3968253968253968
 40
0.3968253968253968
 40
0.4021164021164021
 40
0.4021164021164021
 40
0.4021164021164021
 40
0.4074074074074074
 40
0.4074074074074074
 40
0.4074074074074074
 40
0.4126984126984127
 40
0.4126984126984127
 40
0.4126984126984127
 40
0.417989417989418
 40
0.417989417989418
 40
0.417989417989418
 40
0.4232804232804233
 40
0.4232804232804233
 40
0.4232804232804233
 40
0.4285714285714285
 40
0.4285714285714285
 40
0.4285714285714285
 40
0.4338624338624338
 40
0.4338624338624338
 40
0.4338624338624338
 40
0.4391534391534391
 40
0.4391534391534391
 40
0.4391534391534391
 40
0.4444444444444444
 40
0.4444444444444444
 40
0.4444444444444444
 40
0.4497354497354497
 40
0.4497354497354497
 40
0.4497354497354497
 40
0.455026455026455
 40
0.455026455026455
 40
0.455026455026455
 40
0.4603174603174603
 40
0.4603174603174603
 40
0.4603174603174603
 40
0.4656084656084656
 40
0.4656084656084656
 40
0.4656084656084656
 40
0.4708994708994709
 40
0.4708994708994709
 40
0.4708994708994709
 40
0.4761904761904762
 40
0.4761904761904762
 40
0.4761904761904762
 40
0.4814814814814815
 40
0.4814814814814815
 40
0.4814814814814815
 40
0.4867724867724867
 40
0.4867724867724867
 40
0.4867724867724867
 40
0.492063492063492
 40
0.492063492063492
 40
0.492063492063492
 40
0.4973544973544973
 40
0.4973544973544973
 40
0.4973544973544973
 40
0.5026455026455026
 40
0.5026455026455026
 40
0.5026455026455026
 40
0.5079365079365079
 40
0.5079365079365079
 40
0.5079365079365079
 40
0.5132275132275133
 40
0.5132275132275133
 40
0.5132275132275133
 40
0.5185185185185185
 40
0.5185185185185185
 40
0.5185185185185185
 40
0.5238095238095237
 40
0.5238095238095237
 40
0.5238095238095237
 40
0.5291005291005291
 40
0.5291005291005291
 40
0.5291005291005291
 40
0.5343915343915344
 40
0.5343915343915344
 40
0.5343915343915344
 40
0.5396825396825397
 40
0.5396825396825397
 40
0.5396825396825397
 40
0.5449735449735449
 40
0.5449735449735449
 40
0.5449735449735449
 40
0.5502645502645502
 40
0.5502645502645502
 40
0.5502645502645502
 40
0.5555555555555556
 40
0.5555555555555556
 40
0.5555555555555556
 40
0.5608465608465608
 40
0.5608465608465608
 40
0.5608465608465608
 40
0.566137566137566
 40
0.566137566137566
 40
0.566137566137566
 40
0.5714285714285714
 40
0.5714285714285714
 40
0.5714285714285714
 40
0.5767195767195767
 40
0.5767195767195767
 40
0.5767195767195767
 40
0.582010582010582
 40
0.582010582010582
 40
0.582010582010582
 40
0.5873015873015872
 40
0.5873015873015872
 40
0.5873015873015872
 40
0.5925925925925926
 40
0.5925925925925926
 40
0.5925925925925926
 40
0.5978835978835979
 40
0.5978835978835979
 40
0.5978835978835979
 40
0.6031746031746031
 40
0.6031746031746031
 40
0.6031746031746031
 40
0.6084656084656084
 40
0.6084656084656084
 40
0.6084656084656084
 40
0.6137566137566137
 40
0.6137566137566137
 40
0.6137566137566137
 40
0.6190476190476191
 40
0.6190476190476191
 40
0.6190476190476191
 40
0.6243386243386243
 40
0.6243386243386243
 40
0.6243386243386243
 40
0.6296296296296295
 40
0.6296296296296295
 40
0.6296296296296295
 40
0.6349206349206349
 40
0.6349206349206349
 40
0.6349206349206349
 40
0.6402116402116402
 40
0.6402116402116402
 40
0.6402116402116402
 40
0.6455026455026455
 40
0.6455026455026455
 40
0.6455026455026455
 40
0.6507936507936507
 40
0.6507936507936507
 40
0.6507936507936507
 40
0.656084656084656
 40
0.656084656084656
 40
0.656084656084656
 40
0.6613756613756614
 40
0.6613756613756614
 40
0.6613756613756614
 40
0.6666666666666666
 40
0.6666666666666666
 40
0.6666666666666666
 40
0.6719576719576719
 40
0.6719576719576719
 40
0.6719576719576719
 40
0.6772486772486772
 40
0.6772486772486772
 40
0.6772486772486772
 40
0.6825396825396826
 40
0.6825396825396826
 40
0.6825396825396826
 40
0.6878306878306878
 40
0.6878306878306878
 40
0.6878306878306878
 40
0.693121693121693
 40
0.693121693121693
 40
0.693121693121693
 40
0.6984126984126984
 40
0.6984126984126984
 40
0.6984126984126984
 40
0.7037037037037037
 40
0.7037037037037037
 40
0.7037037037037037
 40
0.708994708994709
 40
0.708994708994709
 40
0.708994708994709
 40
0.7142857142857142
 40
0.7142857142857142
 40
0.7142857142857142
 40
0.7195767195767195
 40
0.7195767195767195
 40
0.7195767195767195
 40
0.7248677248677249
 40
0.7248677248677249
 40
0.7248677248677249
 40
0.7301587301587301
 40
0.7301587301587301
 40
0.7301587301587301
 40
0.7354497354497354
 40
0.7354497354497354
 40
0.7354497354497354
 40
0.7407407407407407
 40
0.7407407407407407
 40
0.7407407407407407
 40
0.746031746031746
 40
0.746031746031746
 40
0.746031746031746
 40
0.7513227513227513
 40
0.7513227513227513
 40
0.7513227513227513
 40
0.7566137566137565
 40
0.7566137566137565
 40
0.7566137566137565
 40
0.7619047619047619
 40
0.7619047619047619
 40
0.7619047619047619
 40
0.7671957671957672
 40
0.7671957671957672
 40
0.7671957671957672
 40
0.7724867724867724
 40
0.7724867724867724
 40
0.7724867724867724
 40
0.7777777777777777
 40
0.7777777777777777
 40
0.7777777777777777
 40
0.783068783068783
 40
0.783068783068783
 40
0.783068783068783
 40
0.7883597883597884
 40
0.7883597883597884
 40
0.7883597883597884
 40
0.7936507936507936
 40
0.7936507936507936
 40
0.7936507936507936
 40
0.7989417989417988
 40
0.7989417989417988
 40
0.7989417989417988
 40
0.8042328042328042
 40
0.8042328042328042
 40
0.8042328042328042
 40
0.8095238095238095
 40
0.8095238095238095
 40
0.8095238095238095
 40
0.8148148148148148
 40
0.8148148148148148
 40
0.8148148148148148
 40
0.82010582010582
 40
0.82010582010582
 40
0.82010582010582
 40
0.8253968253968254
 40
0.8253968253968254
 40
0.8253968253968254
 40
0.8306878306878307
 40
0.8306878306878307
 40
0.8306878306878307
 40
0.8359788359788359
 40
0.8359788359788359
 40
0.8359788359788359
 40
0.8412698412698412
 40
0.8412698412698412
 40
0.8412698412698412
 40
0.8465608465608465
 40
0.8465608465608465
 40
0.8465608465608465
 40
0.8518518518518519
 40
0.8518518518518519
 40
0.8518518518518519
 40
0.8571428571428571
 40
0.8571428571428571
 40
0.8571428571428571
 40
0.8624338624338623
 40
0.8624338624338623
 40
0.8624338624338623
 40
0.8677248677248677
 40
0.8677248677248677
 40
0.8677248677248677
 40
0.873015873015873
 40
0.873015873015873
 40
0.873015873015873
 40
0.8783068783068783
 40
0.8783068783068783
 40
0.8783068783068783
 40
0.8835978835978835
 40
0.8835978835978835
 40
0.8835978835978835
 40
0.8888888888888888
 40
0.8888888888888888
 40
0.8888888888888888
 40
0.8941798941798942
 40
0.8941798941798942
 40
0.8941798941798942
 40
0.8994708994708994
 40
0.8994708994708994
 40
0.8994708994708994
 40
0.9047619047619047
 40
0.9047619047619047
 40
0.9047619047619047
 40
0.91005291005291
 40
0.91005291005291
 40
0.91005291005291
 40
0.9153439153439153
 40
0.9153439153439153
 40
0.9153439153439153
 40
0.9206349206349206
 40
0.9206349206349206
 40
0.9206349206349206
 40
0.9259259259259258
 40
0.9259259259259258
 40
0.9259259259259258
 40
0.9312169312169312
 40
0.9312169312169312
 40
0.9312169312169312
 40
0.9365079365079365
 40
0.9365079365079365
 40
0.9365079365079365
 40
0.9417989417989417
 40
0.9417989417989417
 40
0.9417989417989417
 40
0.947089947089947
 40
0.947089947089947
 40
0.947089947089947
 40
0.9523809523809523
 40
0.9523809523809523
 40
0.9523809523809523
 40
0.9576719576719577
 40
0.9576719576719577
 40
0.9576719576719577
 40
0.9629629629629629
 40
0.9629629629629629
 40
0.9629629629629629
 40
0.9682539682539681
 40
0.9682539682539681
 40
0.9682539682539681
 40
0.9735449735449735
 40
0.9735449735449735
 40
0.9735449735449735
 40
0.9788359788359788
 40
0.9788359788359788
 40
0.9788359788359788
 40
0.9841269841269841
 40
0.9841269841269841
 40
0.9841269841269841
 40
0.9894179894179893
 40
0.9894179894179893
 40
0.9894179894179893
 40
0.9947089947089947
 40
0.9947089947089947
 40
0.9947089947089947
 40
1.0
 40
1.0
 40
1.0
 40
1.0
 10
14.84888
 20
-3.70876
 30
0.0
 10
14.35256
 20
-3.06381
 30
0.0
 10
13.41985
 20
-2.08094
 30
0.0
 10
12.32942
 20
-2.05663
 30
0.0
 10
12.49183
 20
-2.30742
 30
0.0
 10
12.66441
 20
-2.53059
 30
0.0
 10
12.84119
 20
-2.72952
 30
0.0
 10
12.78767
 20
-2.70592
 30
0.0
 10
12.73328
 20
-2.68397
 30
0.0
 10
12.67722
 20
-2.66528
 30
0.0
 10
12.83392
 20
-3.22037
 30
0.0
 10
13.05663
 20
-3.68932
 30
0.0
 10
13.29938
 20
-4.07879
 30
0.0
 10
13.09099
 20
-3.83724
 30
0.0
 10
12.84426
 20
-3.63312
 30
0.0
 10
12.55198
 20
-3.50041
 30
0.0
 10
12.58197
 20
-3.67436
 30
0.0
 10
12.61926
 20
-3.84059
 30
0.0
 10
12.66191
 20
-3.99987
 30
0.0
 10
12.51706
 20
-3.97105
 30
0.0
 10
12.36459
 20
-3.97715
 30
0.0
 10
12.21706
 20
-3.97563
 30
0.0
 10
12.07894
 20
-3.97429
 30
0.0
 10
11.94298
 20
-3.95422
 30
0.0
 10
11.81157
 20
-3.93482
 30
0.0
 10
11.61239
 20
-3.90536
 30
0.0
 10
11.40697
 20
-3.87502
 30
0.0
 10
11.19241
 20
-3.90977
 30
0.0
 10
10.94494
 20
-3.69581
 30
0.0
 10
10.81399
 20
-3.67016
 30
0.0
 10
10.51293
 20
-3.77025
 30
0.0
 10
10.35072
 20
-3.82461
 30
0.0
 10
10.31251
 20
-3.82761
 30
0.0
 10
10.07566
 20
-3.83435
 30
0.0
 10
9.87645
 20
-3.83967
 30
0.0
 10
9.67871
 20
-3.84673
 30
0.0
 10
9.49269
 20
-3.93284
 30
0.0
 10
9.29923
 20
-3.83029
 30
0.0
 10
8.92448
 20
-3.84973
 30
0.0
 10
8.63961
 20
-4.0451
 30
0.0
 10
8.42487
 20
-4.19242
 30
0.0
 10
7.938
 20
-4.54283
 30
0.0
 10
7.82377
 20
-4.76568
 30
0.0
 10
7.72249
 20
-4.82696
 30
0.0
 10
7.65642
 20
-4.89938
 30
0.0
 10
7.59232
 20
-4.96962
 30
0.0
 10
7.05765
 20
-5.55537
 30
0.0
 10
7.07377
 20
-5.21575
 30
0.0
 10
6.39615
 20
-5.73917
 30
0.0
 10
6.11982
 20
-5.9526
 30
0.0
 10
5.91189
 20
-6.16981
 30
0.0
 10
5.76055
 20
-6.40324
 30
0.0
 10
5.38537
 20
-6.98172
 30
0.0
 10
5.43205
 20
-7.69804
 30
0.0
 10
5.60124
 20
-8.36659
 30
0.0
 10
5.53858
 20
-8.33265
 30
0.0
 10
5.47484
 20
-8.29921
 30
0.0
 10
5.40908
 20
-8.26679
 30
0.0
 10
5.41726
 20
-8.32531
 30
0.0
 10
5.42898
 20
-8.38278
 30
0.0
 10
5.44242
 20
-8.43968
 30
0.0
 10
5.27898
 20
-8.22964
 30
0.0
 10
5.09091
 20
-8.01935
 30
0.0
 10
4.87385
 20
-7.81403
 30
0.0
 10
4.69936
 20
-8.89071
 30
0.0
 10
5.49618
 20
-9.98665
 30
0.0
 10
6.04009
 20
-10.59205
 30
0.0
 10
5.89503
 20
-10.58535
 30
0.0
 10
5.7524
 20
-10.57529
 30
0.0
 10
5.61214
 20
-10.56288
 30
0.0
 10
5.35334
 20
-9.98898
 30
0.0
 10
4.73407
 20
-8.94342
 30
0.0
 10
3.43515
 20
-8.18537
 30
0.0
 10
3.46079
 20
-8.55825
 30
0.0
 10
3.59838
 20
-8.90729
 30
0.0
 10
3.79463
 20
-9.22401
 30
0.0
 10
3.48171
 20
-8.86249
 30
0.0
 10
3.06716
 20
-8.48999
 30
0.0
 10
2.52286
 20
-8.17235
 30
0.0
 10
2.58559
 20
-9.08386
 30
0.0
 10
3.37228
 20
-9.84173
 30
0.0
 10
3.97663
 20
-10.29441
 30
0.0
 10
3.72852
 20
-10.23553
 30
0.0
 10
3.49244
 20
-10.17165
 30
0.0
 10
3.27107
 20
-10.10596
 30
0.0
 10
3.26486
 20
-10.09904
 30
0.0
 10
3.25788
 20
-10.09287
 30
0.0
 10
3.25012
 20
-10.08754
 30
0.0
 10
2.9952
 20
-9.60173
 30
0.0
 10
2.41752
 20
-8.75239
 30
0.0
 10
1.28959
 20
-8.17027
 30
0.0
 10
1.37147
 20
-8.84615
 30
0.0
 10
1.87897
 20
-9.4082
 30
0.0
 10
2.37801
 20
-9.80712
 30
0.0
 10
2.13791
 20
-9.71748
 30
0.0
 10
1.93584
 20
-9.6343
 30
0.0
 10
1.77942
 20
-9.56646
 30
0.0
 10
1.43222
 20
-9.23869
 30
0.0
 10
0.78554
 20
-8.74844
 30
0.0
 10
-0.1695
 20
-8.49578
 30
0.0
 10
-0.02366
 20
-8.34373
 30
0.0
 10
0.1487
 20
-8.18233
 30
0.0
 10
0.34841
 20
-8.02461
 30
0.0
 10
0.68701
 20
-7.75713
 30
0.0
 10
0.83052
 20
-7.45808
 30
0.0
 10
0.88047
 20
-7.19339
 30
0.0
 10
1.17116
 20
-7.36371
 30
0.0
 10
1.53357
 20
-7.23516
 30
0.0
 10
1.66142
 20
-6.93763
 30
0.0
 10
1.7809
 20
-6.65953
 30
0.0
 10
1.65235
 20
-6.33723
 30
0.0
 10
1.37425
 20
-6.21771
 30
0.0
 10
1.30991
 20
-6.19009
 30
0.0
 10
1.24323
 20
-6.17626
 30
0.0
 10
1.17723
 20
-6.17393
 30
0.0
 10
1.15116
 20
-5.969
 30
0.0
 10
1.02105
 20
-5.78267
 30
0.0
 10
0.81754
 20
-5.69521
 30
0.0
 10
0.33614
 20
-5.48835
 30
0.0
 10
-0.16312
 20
-5.95567
 30
0.0
 10
0.01133
 20
-6.44974
 30
0.0
 10
-0.26803
 20
-6.64235
 30
0.0
 10
-0.22697
 20
-7.0695
 30
0.0
 10
0.08633
 20
-7.20412
 30
0.0
 10
0.28304
 20
-7.28864
 30
0.0
 10
0.50741
 20
-7.21586
 30
0.0
 10
0.62023
 20
-7.04223
 30
0.0
 10
0.59871
 20
-7.27114
 30
0.0
 10
0.49259
 20
-7.55104
 30
0.0
 10
0.17347
 20
-7.8031
 30
0.0
 10
-0.0933
 20
-8.01381
 30
0.0
 10
-0.31326
 20
-8.22904
 30
0.0
 10
-0.48852
 20
-8.42307
 30
0.0
 10
-0.54627
 20
-8.41196
 30
0.0
 10
-0.60465
 20
-8.40141
 30
0.0
 10
-0.66441
 20
-8.39213
 30
0.0
 10
-0.64102
 20
-8.44141
 30
0.0
 10
-0.61478
 20
-8.48876
 30
0.0
 10
-0.58687
 20
-8.53493
 30
0.0
 10
-0.68008
 20
-8.64408
 30
0.0
 10
-0.75765
 20
-8.74388
 30
0.0
 10
-0.82009
 20
-8.82922
 30
0.0
 10
-0.94124
 20
-7.99592
 30
0.0
 10
-0.82729
 20
-7.26359
 30
0.0
 10
-1.06679
 20
-6.56372
 30
0.0
 10
-0.8722
 20
-6.57504
 30
0.0
 10
-0.68255
 20
-6.46596
 30
0.0
 10
-0.60112
 20
-6.27649
 30
0.0
 10
-0.4972
 20
-6.03462
 30
0.0
 10
-0.60903
 20
-5.7543
 30
0.0
 10
-0.85089
 20
-5.65038
 30
0.0
 10
-0.98615
 20
-5.59227
 30
0.0
 10
-1.13336
 20
-5.60169
 30
0.0
 10
-1.25507
 20
-5.66353
 30
0.0
 10
-1.32178
 20
-5.56402
 30
0.0
 10
-1.41661
 20
-5.48168
 30
0.0
 10
-1.53489
 20
-5.43084
 30
0.0
 10
-1.86149
 20
-5.29051
 30
0.0
 10
-2.24002
 20
-5.4415
 30
0.0
 10
-2.38036
 20
-5.7681
 30
0.0
 10
-2.51459
 20
-6.08048
 30
0.0
 10
-2.38184
 20
-6.43982
 30
0.0
 10
-2.08431
 20
-6.59335
 30
0.0
 10
-2.15151
 20
-6.82153
 30
0.0
 10
-2.0394
 20
-7.06907
 30
0.0
 10
-1.81539
 20
-7.16534
 30
0.0
 10
-1.60753
 20
-7.25467
 30
0.0
 10
-1.37156
 20
-7.18432
 30
0.0
 10
-1.24329
 20
-7.00931
 30
0.0
 10
-1.11946
 20
-7.70231
 30
0.0
 10
-1.23627
 20
-8.6601
 30
0.0
 10
-0.97122
 20
-9.41529
 30
0.0
 10
-1.0888
 20
-9.25178
 30
0.0
 10
-1.20977
 20
-9.06347
 30
0.0
 10
-1.32326
 20
-8.85198
 30
0.0
 10
-1.52727
 20
-8.47175
 30
0.0
 10
-1.79658
 20
-8.27808
 30
0.0
 10
-2.04843
 20
-8.18254
 30
0.0
 10
-1.83024
 20
-7.92678
 30
0.0
 10
-1.89247
 20
-7.54719
 30
0.0
 10
-2.16351
 20
-7.3689
 30
0.0
 10
-2.41638
 20
-7.20253
 30
0.0
 10
-2.75621
 20
-7.27266
 30
0.0
 10
-2.92258
 20
-7.52553
 30
0.0
 10
-2.96107
 20
-7.58402
 30
0.0
 10
-2.98633
 20
-7.64724
 30
0.0
 10
-3.00019
 20
-7.71183
 30
0.0
 10
-3.20653
 20
-7.7016
 30
0.0
 10
-3.41273
 20
-7.79706
 30
0.0
 10
-3.53451
 20
-7.98213
 30
0.0
 10
-3.65516
 20
-8.16554
 30
0.0
 10
-3.69809
 20
-8.39107
 30
0.0
 10
-3.66955
 20
-8.58513
 30
0.0
 10
-3.77161
 20
-8.49595
 30
0.0
 10
-3.87268
 20
-8.40568
 30
0.0
 10
-3.97163
 20
-8.31314
 30
0.0
 10
-4.25781
 20
-7.81908
 30
0.0
 10
-4.53869
 20
-7.21054
 30
0.0
 10
-4.75847
 20
-6.47958
 30
0.0
 10
-4.46443
 20
-6.60341
 30
0.0
 10
-4.12513
 20
-6.46716
 30
0.0
 10
-3.99897
 20
-6.17355
 30
0.0
 10
-3.9039
 20
-5.95228
 30
0.0
 10
-3.95689
 20
-5.70463
 30
0.0
 10
-4.11384
 20
-5.54123
 30
0.0
 10
-3.99767
 20
-5.19064
 30
0.0
 10
-4.16679
 20
-4.80353
 30
0.0
 10
-4.51241
 20
-4.65501
 30
0.0
 10
-4.87736
 20
-4.4982
 30
0.0
 10
-5.30034
 20
-4.6669
 30
0.0
 10
-5.45715
 20
-5.03185
 30
0.0
 10
-5.51557
 20
-5.16778
 30
0.0
 10
-5.52869
 20
-5.31171
 30
0.0
 10
-5.50343
 20
-5.447
 30
0.0
 10
-5.69351
 20
-5.53653
 30
0.0
 10
-5.97322
 20
-5.55721
 30
0.0
 10
-5.95315
 20
-5.90565
 30
0.0
 10
-6.19526
 20
-5.51777
 30
0.0
 10
-6.41593
 20
-5.11514
 30
0.0
 10
-6.61299
 20
-4.69922
 30
0.0
 10
-6.46542
 20
-4.18106
 30
0.0
 10
-6.61969
 20
-3.57463
 30
0.0
 10
-6.52603
 20
-3.41895
 30
0.0
 10
-6.70813
 20
-3.48333
 30
0.0
 10
-6.89087
 20
-3.5432
 30
0.0
 10
-7.0631
 20
-3.61284
 30
0.0
 10
-7.35029
 20
-2.80893
 30
0.0
 10
-7.5537
 20
-1.96561
 30
0.0
 10
-7.66204
 20
-1.09312
 30
0.0
 10
-7.42494
 20
-1.28824
 30
0.0
 10
-7.25765
 20
-1.52309
 30
0.0
 10
-6.93726
 20
-1.46601
 30
0.0
 10
-6.31704
 20
-1.35559
 30
0.0
 10
-5.94786
 20
-0.81111
 30
0.0
 10
-5.53687
 20
-0.29073
 30
0.0
 10
-5.80393
 20
-0.34848
 30
0.0
 10
-6.73272
 20
0.31993
 30
0.0
 10
-7.5167
 20
0.03044
 30
0.0
 10
-7.56118
 20
0.014
 30
0.0
 10
-7.60443
 20
-0.00381
 30
0.0
 10
-7.64666
 20
-0.02251
 30
0.0
 10
-7.1786
 20
0.52122
 30
0.0
 10
-6.63641
 20
1.03349
 30
0.0
 10
-6.28773
 20
2.19515
 30
0.0
 10
-6.04406
 20
2.20556
 30
0.0
 10
-5.80248
 20
2.24045
 30
0.0
 10
-5.61064
 20
2.13162
 30
0.0
 10
-5.50703
 20
2.07281
 30
0.0
 10
-5.41206
 20
1.8911
 30
0.0
 10
-5.20322
 20
1.8911
 30
0.0
 10
-5.03695
 20
1.8911
 30
0.0
 10
-4.88759
 20
2.00843
 30
0.0
 10
-4.79117
 20
2.21607
 30
0.0
 10
-4.71293
 20
2.38417
 30
0.0
 10
-4.7269
 20
2.38354
 30
0.0
 10
-4.61334
 20
2.51791
 30
0.0
 10
-4.56585
 20
2.57407
 30
0.0
 10
-4.51452
 20
2.63479
 30
0.0
 10
-4.47459
 20
2.70933
 30
0.0
 10
-4.37821
 20
2.63634
 30
0.0
 10
-4.28356
 20
2.59298
 30
0.0
 10
-4.24916
 20
2.57273
 30
0.0
 10
-4.14873
 20
2.51354
 30
0.0
 10
-4.17769
 20
2.25703
 30
0.0
 10
-3.79687
 20
2.2317
 30
0.0
 10
-2.4651
 20
2.14298
 30
0.0
 10
-2.40791
 20
2.49667
 30
0.0
 10
-2.09849
 20
2.55439
 30
0.0
 10
-1.91318
 20
2.5891
 30
0.0
 10
-1.63349
 20
2.57354
 30
0.0
 10
-1.37166
 20
2.93825
 30
0.0
 10
-0.97525
 20
2.94075
 30
0.0
 10
-0.57202
 20
3.13277
 30
0.0
 10
-0.14138
 20
3.52372
 30
0.0
 10
0.15537
 20
3.7931
 30
0.0
 10
0.44909
 20
4.12323
 30
0.0
 10
0.66447
 20
4.42944
 30
0.0
 10
0.75569
 20
4.55915
 30
0.0
 10
0.79866
 20
4.67331
 30
0.0
 10
0.80371
 20
4.79968
 30
0.0
 10
0.81334
 20
5.04059
 30
0.0
 10
0.76938
 20
5.30553
 30
0.0
 10
0.67293
 20
5.58785
 30
0.0
 10
0.86481
 20
5.87336
 30
0.0
 10
0.99255
 20
6.07677
 30
0.0
 10
0.96634
 20
6.37021
 30
0.0
 10
1.08843
 20
6.51792
 30
0.0
 10
1.0696
 20
6.87697
 30
0.0
 10
1.0346
 20
7.05566
 30
0.0
 10
0.98264
 20
7.32098
 30
0.0
 10
0.94637
 20
7.35827
 30
0.0
 10
0.94126
 20
7.63848
 30
0.0
 10
0.93695
 20
7.86916
 30
0.0
 10
0.93289
 20
7.95545
 30
0.0
 10
0.73862
 20
8.22656
 30
0.0
 10
0.61645
 20
8.39699
 30
0.0
 10
0.60954
 20
8.42581
 30
0.0
 10
0.57317
 20
8.54336
 30
0.0
 10
0.535
 20
8.66676
 30
0.0
 10
0.48663
 20
8.82265
 30
0.0
 10
0.36256
 20
8.95611
 30
0.0
 10
0.41953
 20
8.94873
 30
0.0
 10
0.47781
 20
8.94559
 30
0.0
 10
0.53782
 20
8.94789
 30
0.0
 10
1.06935
 20
8.96799
 30
0.0
 10
1.85117
 20
9.71472
 30
0.0
 10
1.89005
 20
9.71211
 30
0.0
 10
1.92639
 20
9.70967
 30
0.0
 10
1.44626
 20
10.18822
 30
0.0
 10
0.74751
 20
10.28643
 30
0.0
 10
0.61656
 20
10.30485
 30
0.0
 10
0.48744
 20
10.29458
 30
0.0
 10
0.36252
 20
10.26572
 30
0.0
 10
0.65434
 20
10.62386
 30
0.0
 10
0.89067
 20
11.00253
 30
0.0
 10
1.11062
 20
11.35595
 30
0.0
 10
1.25537
 20
11.58853
 30
0.0
 10
1.39066
 20
11.80577
 30
0.0
 10
1.52817
 20
11.99881
 30
0.0
 10
1.62229
 20
12.02009
 30
0.0
 10
1.71677
 20
12.04027
 30
0.0
 10
1.8117
 20
12.05928
 30
0.0
 10
1.99652
 20
12.02478
 30
0.0
 10
1.99881
 20
11.9798
 30
0.0
 10
2.18734
 20
11.80958
 30
0.0
 10
2.12024
 20
11.71056
 30
0.0
 10
2.08126
 20
11.5933
 30
0.0
 10
2.0331
 20
11.53978
 30
0.0
 10
1.81463
 20
11.29608
 30
0.0
 10
1.9031
 20
11.22941
 30
0.0
 10
2.12962
 20
10.84992
 30
0.0
 10
1.99786
 20
10.73199
 30
0.0
 10
1.86151
 20
10.61458
 30
0.0
 10
1.71592
 20
10.51722
 30
0.0
 10
1.67789
 20
10.49178
 30
0.0
 10
1.6532
 20
10.45248
 30
0.0
 10
1.64762
 20
10.40267
 30
0.0
 10
1.64064
 20
10.33511
 30
0.0
 10
1.67517
 20
10.27204
 30
0.0
 10
1.69853
 20
10.24815
 30
0.0
 10
1.87347
 20
10.06923
 30
0.0
 10
2.11174
 20
10.06961
 30
0.0
 10
2.2538
 20
9.95715
 30
0.0
 10
2.38115
 20
9.85629
 30
0.0
 10
2.50092
 20
9.72671
 30
0.0
 10
2.76293
 20
9.63171
 30
0.0
 10
2.76219
 20
9.31774
 30
0.0
 10
2.75489
 20
8.97812
 30
0.0
 10
2.99181
 20
8.75904
 30
0.0
 10
3.16125
 20
8.60238
 30
0.0
 10
3.33147
 20
8.59511
 30
0.0
 10
3.58176
 20
8.42927
 30
0.0
 10
3.65059
 20
8.38365
 30
0.0
 10
3.72146
 20
8.3367
 30
0.0
 10
3.86938
 20
8.27292
 30
0.0
 10
3.93609
 20
7.86422
 30
0.0
 10
4.56016
 20
7.36166
 30
0.0
 10
4.7376
 20
7.33206
 30
0.0
 10
4.82883
 20
7.31682
 30
0.0
 10
4.88753
 20
7.3727
 30
0.0
 10
4.90344
 20
7.43108
 30
0.0
 10
4.90344
 20
7.43108
 30
0.0
 10
4.93269
 20
7.53826
 30
0.0
 10
4.93269
 20
7.53826
 30
0.0
 10
5.09966
 20
7.501
 30
0.0
 10
5.2716
 20
7.45955
 30
0.0
 10
5.41973
 20
7.45775
 30
0.0
 10
5.48697
 20
7.3588
 30
0.0
 10
5.5637
 20
7.28394
 30
0.0
 10
6.00284
 20
6.96573
 30
0.0
 10
6.10448
 20
6.89204
 30
0.0
 10
6.20953
 20
6.81584
 30
0.0
 10
6.24421
 20
6.71942
 30
0.0
 10
6.27712
 20
6.62791
 30
0.0
 10
6.36098
 20
6.60124
 30
0.0
 10
6.42681
 20
6.62216
 30
0.0
 10
6.57215
 20
6.66838
 30
0.0
 10
6.6795
 20
7.00383
 30
0.0
 10
6.63237
 20
7.17352
 30
0.0
 10
6.60704
 20
7.26496
 30
0.0
 10
6.564
 20
7.32243
 30
0.0
 10
6.55928
 20
7.35661
 30
0.0
 10
6.55928
 20
7.35661
 30
0.0
 10
6.98861
 20
7.38917
 30
0.0
 10
6.98861
 20
7.38917
 30
0.0
 10
7.01746
 20
7.39136
 30
0.0
 10
7.0471
 20
7.39281
 30
0.0
 10
7.07708
 20
7.39432
 30
0.0
 10
7.20938
 20
7.40088
 30
0.0
 10
7.35931
 20
7.40833
 30
0.0
 10
7.49273
 20
7.47634
 30
0.0
 10
7.61366
 20
7.53797
 30
0.0
 10
7.7256
 20
7.64889
 30
0.0
 10
7.82734
 20
7.80753
 30
0.0
 10
7.9307
 20
7.21321
 30
0.0
 10
7.94531
 20
7.10674
 30
0.0
 10
8.03576
 20
7.05118
 30
0.0
 10
8.08331
 20
7.01699
 30
0.0
 10
8.14575
 20
7.01142
 30
0.0
 10
8.19976
 20
7.03784
 30
0.0
 10
8.38878
 20
7.13016
 30
0.0
 10
8.52989
 20
7.31498
 30
0.0
 10
8.60782
 20
7.57237
 30
0.0
 10
8.64211
 20
7.68561
 30
0.0
 10
8.66836
 20
7.80093
 30
0.0
 10
8.69379
 20
7.91245
 30
0.0
 10
8.71623
 20
8.01077
 30
0.0
 10
8.73937
 20
8.11244
 30
0.0
 10
8.76742
 20
8.20917
 30
0.0
 10
8.97129
 20
8.91236
 30
0.0
 10
9.13861
 20
9.07863
 30
0.0
 10
9.19834
 20
9.36882
 30
0.0
 10
9.25404
 20
9.64028
 30
0.0
 10
9.13392
 20
9.77656
 30
0.0
 10
9.04608
 20
9.87601
 30
0.0
 10
8.91386
 20
10.02601
 30
0.0
 10
8.93418
 20
10.1129
 30
0.0
 10
8.75133
 20
10.38101
 30
0.0
 10
9.10407
 20
9.93824
 30
0.0
 10
9.49929
 20
9.67306
 30
0.0
 10
9.93109
 20
9.5886
 30
0.0
 10
9.93875
 20
9.53762
 30
0.0
 10
9.95155
 20
9.48672
 30
0.0
 10
9.97081
 20
9.43662
 30
0.0
 10
10.10586
 20
9.08554
 30
0.0
 10
10.48619
 20
8.90157
 30
0.0
 10
10.84098
 20
9.00415
 30
0.0
 10
10.99821
 20
8.84103
 30
0.0
 10
11.24364
 20
8.77852
 30
0.0
 10
11.46839
 20
8.86498
 30
0.0
 10
11.72147
 20
8.96235
 30
0.0
 10
11.86671
 20
9.21748
 30
0.0
 10
11.83644
 20
9.47494
 30
0.0
 10
12.29442
 20
9.08741
 30
0.0
 10
12.72301
 20
8.66626
 30
0.0
 10
13.11798
 20
8.21481
 30
0.0
 10
13.01783
 20
8.10182
 30
0.0
 10
12.96537
 20
7.95577
 30
0.0
 10
12.96699
 20
7.80757
 30
0.0
 10
12.58663
 20
7.74132
 30
0.0
 10
12.39334
 20
7.31371
 30
0.0
 10
12.59199
 20
6.98478
 30
0.0
 10
12.75949
 20
6.70739
 30
0.0
 10
13.13629
 20
6.63003
 30
0.0
 10
13.40063
 20
6.83842
 30
0.0
 10
13.48635
 20
6.58308
 30
0.0
 10
13.66948
 20
6.30646
 30
0.0
 10
14.04152
 20
6.08792
 30
0.0
 10
14.24846
 20
5.96635
 30
0.0
 10
14.43194
 20
5.83822
 30
0.0
 10
14.59083
 20
5.71443
 30
0.0
 10
14.47289
 20
5.761
 30
0.0
 10
14.35305
 20
5.79966
 30
0.0
 10
14.23219
 20
5.82679
 30
0.0
 10
13.82167
 20
5.91883
 30
0.0
 10
13.44377
 20
5.94677
 30
0.0
 10
13.07829
 20
5.97376
 30
0.0
 10
12.76436
 20
5.99694
 30
0.0
 10
12.47271
 20
6.01884
 30
0.0
 10
12.19716
 20
6.07917
 30
0.0
 10
12.37697
 20
6.20059
 30
0.0
 10
12.45638
 20
6.43367
 30
0.0
 10
12.37514
 20
6.64485
 30
0.0
 10
12.28761
 20
6.87239
 30
0.0
 10
12.04458
 20
6.99396
 30
0.0
 10
11.81397
 20
6.93564
 30
0.0
 10
11.67205
 20
7.23889
 30
0.0
 10
11.31811
 20
7.3854
 30
0.0
 10
11.00078
 20
7.26334
 30
0.0
 10
10.66903
 20
7.1357
 30
0.0
 10
10.50351
 20
6.76331
 30
0.0
 10
10.63114
 20
6.43152
 30
0.0
 10
10.67736
 20
6.31137
 30
0.0
 10
10.75596
 20
6.21343
 30
0.0
 10
10.85286
 20
6.14291
 30
0.0
 10
10.7864
 20
6.02368
 30
0.0
 10
10.77127
 20
5.87692
 30
0.0
 10
10.82411
 20
5.73955
 30
0.0
 10
10.91862
 20
5.49384
 30
0.0
 10
11.19442
 20
5.37128
 30
0.0
 10
11.44013
 20
5.46579
 30
0.0
 10
11.63257
 20
5.53984
 30
0.0
 10
11.74892
 20
5.72512
 30
0.0
 10
11.74511
 20
5.92003
 30
0.0
 10
12.16262
 20
5.75888
 30
0.0
 10
12.6007
 20
5.72607
 30
0.0
 10
13.05751
 20
5.69231
 30
0.0
 10
13.36041
 20
5.66995
 30
0.0
 10
13.67223
 20
5.64659
 30
0.0
 10
13.9994
 20
5.58605
 30
0.0
 10
13.73411
 20
5.40723
 30
0.0
 10
13.33049
 20
5.09492
 30
0.0
 10
12.93563
 20
4.63285
 30
0.0
 10
12.67136
 20
4.32364
 30
0.0
 10
12.38755
 20
4.22842
 30
0.0
 10
12.15804
 20
4.21576
 30
0.0
 10
12.33594
 20
4.32181
 30
0.0
 10
12.41736
 20
4.54317
 30
0.0
 10
12.34046
 20
4.74306
 30
0.0
 10
12.21804
 20
5.0613
 30
0.0
 10
11.79277
 20
5.11884
 30
0.0
 10
11.58953
 20
4.84713
 30
0.0
 10
11.45361
 20
4.9011
 30
0.0
 10
11.29807
 20
4.90671
 30
0.0
 10
11.15079
 20
4.85005
 30
0.0
 10
10.83992
 20
4.73046
 30
0.0
 10
10.68484
 20
4.38153
 30
0.0
 10
10.80443
 20
4.07063
 30
0.0
 10
10.88398
 20
3.86386
 30
0.0
 10
11.06513
 20
3.72667
 30
0.0
 10
11.2689
 20
3.6927
 30
0.0
 10
11.26752
 20
3.30662
 30
0.0
 10
11.65462
 20
3.04143
 30
0.0
 10
12.01329
 20
3.1794
 30
0.0
 10
12.31672
 20
3.2961
 30
0.0
 10
12.4574
 20
3.65414
 30
0.0
 10
12.29908
 20
3.9498
 30
0.0
 10
12.56549
 20
3.98952
 30
0.0
 10
12.86991
 20
4.1215
 30
0.0
 10
13.15015
 20
4.44948
 30
0.0
 10
13.66955
 20
5.05724
 30
0.0
 10
14.21537
 20
5.39651
 30
0.0
 10
14.3804
 20
5.49144
 30
0.0
 10
14.61838
 20
5.41023
 30
0.0
 10
14.85192
 20
5.28602
 30
0.0
 10
15.06881
 20
5.14494
 30
0.0
 10
15.60319
 20
3.92493
 30
0.0
 10
15.93883
 20
2.59905
 30
0.0
 10
16.0345
 20
1.20801
 30
0.0
 10
15.58002
 20
0.84641
 30
0.0
 10
15.26865
 20
0.28853
 30
0.0
 10
15.06821
 20
-0.19174
 30
0.0
 10
15.0076
 20
0.19949
 30
0.0
 10
14.9405
 20
0.52126
 30
0.0
 10
14.88688
 20
0.75081
 30
0.0
 10
14.86673
 20
1.42589
 30
0.0
 10
14.71624
 20
2.69776
 30
0.0
 10
13.90524
 20
3.28429
 30
0.0
 10
13.86894
 20
2.04
 30
0.0
 10
14.31383
 20
1.13418
 30
0.0
 10
14.61549
 20
0.66738
 30
0.0
 10
14.65373
 20
0.50126
 30
0.0
 10
14.69881
 20
0.28737
 30
0.0
 10
14.7433
 20
0.03485
 30
0.0
 10
14.44181
 20
0.59824
 30
0.0
 10
13.9814
 20
1.19976
 30
0.0
 10
13.33155
 20
1.40327
 30
0.0
 10
13.79634
 20
-0.13448
 30
0.0
 10
14.78743
 20
-0.78384
 30
0.0
 10
14.87457
 20
-0.89737
 30
0.0
 10
14.89884
 20
-1.12688
 30
0.0
 10
14.9187
 20
-1.37058
 30
0.0
 10
14.93143
 20
-1.62529
 30
0.0
 10
14.59626
 20
-0.94866
 30
0.0
 10
13.99414
 20
-0.03729
 30
0.0
 10
13.1093
 20
0.19018
 30
0.0
 10
13.32266
 20
-0.40284
 30
0.0
 10
13.61353
 20
-0.87821
 30
0.0
 10
13.91208
 20
-1.2517
 30
0.0
 10
13.63635
 20
-1.00112
 30
0.0
 10
13.31818
 20
-0.80233
 30
0.0
 10
12.95616
 20
-0.70926
 30
0.0
 10
13.46529
 20
-2.12443
 30
0.0
 10
14.38075
 20
-2.92354
 30
0.0
 10
14.89799
 20
-3.28243
 30
0.0
 10
14.8848
 20
-3.42287
 30
0.0
 10
14.86867
 20
-3.56493
 30
0.0
 10
14.84888
 20
-3.70876
 30
0.0
  0
SPLINE
  5
9E
330
1F
100
AcDbEntity
  8
Layer 1
 62
    12
370
    35
100
AcDbSpline
210
0.0
220
0.0
230
1.0
 70
    11
 71
     3
 72
    14
 73
    10
 74
     0
 42
0.0000000001
 43
0.0000000001
 40
0.0
 40
0.0
 40
0.0
 40
0.0
 40
0.3333333333333333
 40
0.3333333333333333
 40
0.3333333333333333
 40
0.6666666666666666
 40
0.6666666666666666
 40
0.6666666666666666
 40
1.0
 40
1.0
 40
1.0
 40
1.0
 10
14.58716
 20
-4.96105
 30
0.0
 10
14.44263
 20
-4.57744
 30
0.0
 10
14.21967
 20
-4.08655
 30
0.0
 10
13.90386
 20
-3.64928
 30
0.0
 10
14.24119
 20
-3.87082
 30
0.0
 10
14.54969
 20
-4.01832
 30
0.0
 10
14.78422
 20
-4.11265
 30
0.0
 10
14.73338
 20
-4.39272
 30
0.0
 10
14.66879
 20
-4.67671
 30
0.0
 10
14.58716
 20
-4.96105
 30
0.0
  0
SPLINE
  5
9F
330
1F
100
AcDbEntity
  8
Layer 1
 62
    12
370
    35
100
AcDbSpline
210
0.0
220
0.0
230
1.0
 70
    11
 71
     3
 72
    17
 73
    13
 74
     0
 42
0.0000000001
 43
0.0000000001
 40
0.0
 40
0.0
 40
0.0
 40
0.0
 40
0.25
 40
0.25
 40
0.25
 40
0.5
 40
0.5
 40
0.5
 40
0.75
 40
0.75
 40
0.75
 40
1.0
 40
1.0
 40
1.0
 40
1.0
 10
14.21307
 20
-5.98537
 30
0.0
 10
14.10742
 20
-5.58106
 30
0.0
 10
13.93209
 20
-5.05672
 30
0.0
 10
13.65424
 20
-4.58089
 30
0.0
 10
13.94673
 20
-4.94789
 30
0.0
 10
14.23643
 20
-5.21159
 30
0.0
 10
14.45141
 20
-5.38248
 30
0.0
 10
14.45169
 20
-5.38315
 30
0.0
 10
14.45201
 20
-5.38382
 30
0.0
 10
14.45229
 20
-5.38449
 30
0.0
 10
14.38202
 20
-5.58603
 30
0.0
 10
14.30271
 20
-5.78676
 30
0.0
 10
14.21307
 20
-5.98537
 30
0.0
  0
SPLINE
  5
A0
330
1F
100
AcDbEntity
  8
Layer 1
 62
    12
370
    35
100
AcDbSpline
210
0.0
220
0.0
230
1.0
 70
    11
 71
     3
 72
    17
 73
    13
 74
     0
 42
0.0000000001
 43
0.0000000001
 40
0.0
 40
0.0
 40
0.0
 40
0.0
 40
0.25
 40
0.25
 40
0.25
 40
0.5
 40
0.5
 40
0.5
 40
0.75
 40
0.75
 40
0.75
 40
1.0
 40
1.0
 40
1.0
 40
1.0
 10
13.63667
 20
-6.81366
 30
0.0
 10
13.60517
 20
-6.51803
 30
0.0
 10
13.6246
 20
-6.76424
 30
0.0
 10
13.62422
 20
-6.52692
 30
0.0
 10
13.62365
 20
-6.19616
 30
0.0
 10
13.61003
 20
-6.19034
 30
0.0
 10
13.66704
 20
-5.98357
 30
0.0
 10
13.77972
 20
-6.1226
 30
0.0
 10
13.88686
 20
-6.23983
 30
0.0
 10
13.98186
 20
-6.33614
 30
0.0
 10
13.87067
 20
-6.49828
 30
0.0
 10
13.75556
 20
-6.65745
 30
0.0
 10
13.63667
 20
-6.81366
 30
0.0
  0
SPLINE
  5
A1
330
1F
100
AcDbEntity
  8
Layer 1
 62
    12
370
    35
100
AcDbSpline
210
0.0
220
0.0
230
1.0
 70
    11
 71
     3
 72
    17
 73
    13
 74
     0
 42
0.0000000001
 43
0.0000000001
 40
0.0
 40
0.0
 40
0.0
 40
0.0
 40
0.25
 40
0.25
 40
0.25
 40
0.5
 40
0.5
 40
0.5
 40
0.75
 40
0.75
 40
0.75
 40
1.0
 40
1.0
 40
1.0
 40
1.0
 10
6.15351
 20
-9.652
 30
0.0
 10
6.48953
 20
-10.00387
 30
0.0
 10
6.88228
 20
-10.28944
 30
0.0
 10
7.21361
 20
-10.49758
 30
0.0
 10
7.24402
 20
-10.51938
 30
0.0
 10
7.27767
 20
-10.54122
 30
0.0
 10
7.31496
 20
-10.56298
 30
0.0
 10
7.02191
 20
-10.59124
 30
0.0
 10
6.73235
 20
-10.60292
 30
0.0
 10
6.44903
 20
-10.60196
 30
0.0
 10
6.3989
 20
-10.35421
 30
0.0
 10
6.31
 20
-10.02397
 30
0.0
 10
6.15351
 20
-9.652
 30
0.0
  0
SPLINE
  5
A2
330
1F
100
AcDbEntity
  8
Layer 1
 62
    12
370
    35
100
AcDbSpline
210
0.0
220
0.0
230
1.0
 70
    11
 71
     3
 72
    17
 73
    13
 74
     0
 42
0.0000000001
 43
0.0000000001
 40
0.0
 40
0.0
 40
0.0
 40
0.0
 40
0.25
 40
0.25
 40
0.25
 40
0.5
 40
0.5
 40
0.5
 40
0.75
 40
0.75
 40
0.75
 40
1.0
 40
1.0
 40
1.0
 40
1.0
 10
7.12436
 20
-11.15117
 30
0.0
 10
6.8029
 20
-11.23397
 30
0.0
 10
6.47595
 20
-11.30283
 30
0.0
 10
6.14466
 20
-11.35878
 30
0.0
 10
6.2356
 20
-11.18415
 30
0.0
 10
6.30672
 20
-11.02343
 30
0.0
 10
6.36172
 20
-10.88362
 30
0.0
 10
6.68123
 20
-10.88754
 30
0.0
 10
6.99884
 20
-10.8765
 30
0.0
 10
7.33147
 20
-10.84485
 30
0.0
 10
7.26413
 20
-10.9388
 30
0.0
 10
7.19421
 20
-11.04146
 30
0.0
 10
7.12436
 20
-11.15117
 30
0.0
  0
SPLINE
  5
A3
330
1F
100
AcDbEntity
  8
Layer 1
 62
    12
370
    35
100
AcDbSpline
210
0.0
220
0.0
230
1.0
 70
    11
 71
     3
 72
    17
 73
    13
 74
     0
 42
0.0000000001
 43
0.0000000001
 40
0.0
 40
0.0
 40
0.0
 40
0.0
 40
0.25
 40
0.25
 40
0.25
 40
0.5
 40
0.5
 40
0.5
 40
0.75
 40
0.75
 40
0.75
 40
1.0
 40
1.0
 40
1.0
 40
1.0
 10
5.2238
 20
-11.47738
 30
0.0
 10
5.04508
 20
-11.49336
 30
0.0
 10
4.86534
 20
-11.50553
 30
0.0
 10
4.68447
 20
-11.51347
 30
0.0
 10
4.9922
 20
-11.26649
 30
0.0
 10
5.22581
 20
-11.02241
 30
0.0
 10
5.39179
 20
-10.8251
 30
0.0
 10
5.53943
 20
-10.84087
 30
0.0
 10
5.69017
 20
-10.85395
 30
0.0
 10
5.84363
 20
-10.86376
 30
0.0
 10
5.64579
 20
-11.03454
 30
0.0
 10
5.42838
 20
-11.24152
 30
0.0
 10
5.2238
 20
-11.47738
 30
0.0
  0
SPLINE
  5
A4
330
1F
100
AcDbEntity
  8
Layer 1
 62
    12
370
    35
100
AcDbSpline
210
0.0
220
0.0
230
1.0
 70
    11
 71
     3
 72
    17
 73
    13
 74
     0
 42
0.0000000001
 43
0.0000000001
 40
0.0
 40
0.0
 40
0.0
 40
0.0
 40
0.25
 40
0.25
 40
0.25
 40
0.5
 40
0.5
 40
0.5
 40
0.75
 40
0.75
 40
0.75
 40
1.0
 40
1.0
 40
1.0
 40
1.0
 10
4.54382
 20
-10.39697
 30
0.0
 10
4.46674
 20
-10.22174
 30
0.0
 10
4.35089
 20
-9.99314
 30
0.0
 10
4.18473
 20
-9.73988
 30
0.0
 10
4.45235
 20
-10.03918
 30
0.0
 10
4.75305
 20
-10.29448
 30
0.0
 10
5.02046
 20
-10.49419
 30
0.0
 10
4.85857
 20
-10.47084
 30
0.0
 10
4.70169
 20
-10.44456
 30
0.0
 10
4.55049
 20
-10.4163
 30
0.0
 10
4.54876
 20
-10.40991
 30
0.0
 10
4.54668
 20
-10.40346
 30
0.0
 10
4.54382
 20
-10.39697
 30
0.0
  0
SPLINE
  5
A5
330
1F
100
AcDbEntity
  8
Layer 1
 62
    12
370
    35
100
AcDbSpline
210
0.0
220
0.0
230
1.0
 70
    11
 71
     3
 72
    20
 73
    16
 74
     0
 42
0.0000000001
 43
0.0000000001
 40
0.0
 40
0.0
 40
0.0
 40
0.0
 40
0.2
 40
0.2
 40
0.2
 40
0.4
 40
0.4
 40
0.4
 40
0.6000000000000001
 40
0.6000000000000001
 40
0.6000000000000001
 40
0.8
 40
0.8
 40
0.8
 40
1.0
 40
1.0
 40
1.0
 40
1.0
 10
2.63198
 20
-11.2443
 30
0.0
 10
2.42006
 20
-11.28279
 30
0.0
 10
2.12151
 20
-11.30466
 30
0.0
 10
1.71218
 20
-11.27344
 30
0.0
 10
1.59594
 20
-11.2491
 30
0.0
 10
1.48044
 20
-11.22275
 30
0.0
 10
1.36544
 20
-11.19502
 30
0.0
 10
2.19926
 20
-11.00918
 30
0.0
 10
2.80188
 20
-10.6377
 30
0.0
 10
3.15391
 20
-10.36627
 30
0.0
 10
3.38964
 20
-10.43669
 30
0.0
 10
3.64258
 20
-10.50537
 30
0.0
 10
3.91009
 20
-10.56873
 30
0.0
 10
3.51174
 20
-10.71288
 30
0.0
 10
3.03372
 20
-10.93121
 30
0.0
 10
2.63198
 20
-11.2443
 30
0.0
  0
SPLINE
  5
A6
330
1F
100
AcDbEntity
  8
Layer 1
 62
    12
370
    35
100
AcDbSpline
210
0.0
220
0.0
230
1.0
 70
    11
 71
     3
 72
    23
 73
    19
 74
     0
 42
0.0000000001
 43
0.0000000001
 40
0.0
 40
0.0
 40
0.0
 40
0.0
 40
0.1666666666666667
 40
0.1666666666666667
 40
0.1666666666666667
 40
0.3333333333333333
 40
0.3333333333333333
 40
0.3333333333333333
 40
0.5
 40
0.5
 40
0.5
 40
0.6666666666666666
 40
0.6666666666666666
 40
0.6666666666666666
 40
0.8333333333333333
 40
0.8333333333333333
 40
0.8333333333333333
 40
1.0
 40
1.0
 40
1.0
 40
1.0
 10
0.80642
 20
-11.04579
 30
0.0
 10
0.64538
 20
-10.99852
 30
0.0
 10
0.4855
 20
-10.94853
 30
0.0
 10
0.32732
 20
-10.89474
 30
0.0
 10
0.01864
 20
-10.56358
 30
0.0
 10
-0.53544
 20
-9.90011
 30
0.0
 10
-0.7403
 20
-9.21371
 30
0.0
 10
-0.69182
 20
-9.13649
 30
0.0
 10
-0.58398
 20
-8.97418
 30
0.0
 10
-0.41574
 20
-8.7714
 30
0.0
 10
0.12687
 20
-9.40672
 30
0.0
 10
1.08925
 20
-9.69755
 30
0.0
 10
1.64826
 20
-9.8183
 30
0.0
 10
1.86419
 20
-9.91281
 30
0.0
 10
2.16839
 20
-10.03731
 30
0.0
 10
2.54209
 20
-10.16808
 30
0.0
 10
1.95771
 20
-10.29417
 30
0.0
 10
1.24595
 20
-10.54563
 30
0.0
 10
0.80642
 20
-11.04579
 30
0.0
  0
SPLINE
  5
A7
330
1F
100
AcDbEntity
  8
Layer 1
 62
    12
370
    35
100
AcDbSpline
210
0.0
220
0.0
230
1.0
 70
    11
 71
     3
 72
    20
 73
    16
 74
     0
 42
0.0000000001
 43
0.0000000001
 40
0.0
 40
0.0
 40
0.0
 40
0.0
 40
0.2
 40
0.2
 40
0.2
 40
0.4
 40
0.4
 40
0.4
 40
0.6000000000000001
 40
0.6000000000000001
 40
0.6000000000000001
 40
0.8
 40
0.8
 40
0.8
 40
1.0
 40
1.0
 40
1.0
 40
1.0
 10
-2.91619
 20
-9.19251
 30
0.0
 10
-2.66579
 20
-9.26042
 30
0.0
 10
-2.30832
 20
-9.16619
 30
0.0
 10
-2.17688
 20
-8.96638
 30
0.0
 10
-2.05923
 20
-8.78756
 30
0.0
 10
-2.09154
 20
-8.55398
 30
0.0
 10
-2.24267
 20
-8.41248
 30
0.0
 10
-2.02109
 20
-8.47376
 30
0.0
 10
-1.76416
 20
-8.62726
 30
0.0
 10
-1.5719
 20
-8.98554
 30
0.0
 10
-1.05289
 20
-9.95278
 30
0.0
 10
-0.71444
 20
-10.0777
 30
0.0
 10
-0.22242
 20
-10.69224
 30
0.0
 10
-1.18864
 20
-10.30898
 30
0.0
 10
-2.09285
 20
-9.80243
 30
0.0
 10
-2.91619
 20
-9.19251
 30
0.0
  0
SPLINE
  5
A8
330
1F
100
AcDbEntity
  8
Layer 1
 62
    12
370
    35
100
AcDbSpline
210
0.0
220
0.0
230
1.0
 70
    11
 71
     3
 72
    14
 73
    10
 74
     0
 42
0.0000000001
 43
0.0000000001
 40
0.0
 40
0.0
 40
0.0
 40
0.0
 40
0.3333333333333333
 40
0.3333333333333333
 40
0.3333333333333333
 40
0.6666666666666666
 40
0.6666666666666666
 40
0.6666666666666666
 40
1.0
 40
1.0
 40
1.0
 40
1.0
 10
-5.63703
 20
-6.38571
 30
0.0
 10
-5.50646
 20
-6.44123
 30
0.0
 10
-5.21673
 20
-6.37632
 30
0.0
 10
-5.09735
 20
-6.32185
 30
0.0
 10
-4.96319
 20
-6.81472
 30
0.0
 10
-4.8026
 20
-7.25629
 30
0.0
 10
-4.62918
 20
-7.64911
 30
0.0
 10
-4.99275
 20
-7.25174
 30
0.0
 10
-5.32941
 20
-6.8295
 30
0.0
 10
-5.63703
 20
-6.38571
 30
0.0
  0
SPLINE
  5
A9
330
1F
100
AcDbEntity
  8
Layer 1
 62
    12
370
    35
100
AcDbSpline
210
0.0
220
0.0
230
1.0
 70
    11
 71
     3
 72
    14
 73
    10
 74
     0
 42
0.0000000001
 43
0.0000000001
 40
0.0
 40
0.0
 40
0.0
 40
0.0
 40
0.3333333333333333
 40
0.3333333333333333
 40
0.3333333333333333
 40
0.6666666666666666
 40
0.6666666666666666
 40
0.6666666666666666
 40
1.0
 40
1.0
 40
1.0
 40
1.0
 10
-7.52372
 20
-5.64593
 30
0.0
 10
-7.36462
 20
-5.5685
 30
0.0
 10
-7.17447
 20
-5.45226
 30
0.0
 10
-6.99677
 20
-5.28832
 30
0.0
 10
-6.74912
 20
-5.77526
 30
0.0
 10
-6.47008
 20
-6.24354
 30
0.0
 10
-6.16164
 20
-6.69238
 30
0.0
 10
-6.65112
 20
-6.39738
 30
0.0
 10
-7.12303
 20
-6.04715
 30
0.0
 10
-7.52372
 20
-5.64593
 30
0.0
  0
SPLINE
  5
AA
330
1F
100
AcDbEntity
  8
Layer 1
 62
    12
370
    35
100
AcDbSpline
210
0.0
220
0.0
230
1.0
 70
    11
 71
     3
 72
    26
 73
    22
 74
     0
 42
0.0000000001
 43
0.0000000001
 40
0.0
 40
0.0
 40
0.0
 40
0.0
 40
0.1428571428571428
 40
0.1428571428571428
 40
0.1428571428571428
 40
0.2857142857142857
 40
0.2857142857142857
 40
0.2857142857142857
 40
0.4285714285714285
 40
0.4285714285714285
 40
0.4285714285714285
 40
0.5714285714285714
 40
0.5714285714285714
 40
0.5714285714285714
 40
0.7142857142857142
 40
0.7142857142857142
 40
0.7142857142857142
 40
0.8571428571428571
 40
0.8571428571428571
 40
0.8571428571428571
 40
1.0
 40
1.0
 40
1.0
 40
1.0
 10
-7.84672
 20
-4.21796
 30
0.0
 10
-7.9746
 20
-4.44941
 30
0.0
 10
-7.98064
 20
-4.8265
 30
0.0
 10
-7.95711
 20
-5.1512
 30
0.0
 10
-8.28614
 20
-4.71611
 30
0.0
 10
-8.49791
 20
-4.26163
 30
0.0
 10
-8.59122
 20
-3.79032
 30
0.0
 10
-8.4928
 20
-3.56691
 30
0.0
 10
-8.37328
 20
-3.17899
 30
0.0
 10
-8.41558
 20
-2.74349
 30
0.0
 10
-8.43286
 20
-2.56555
 30
0.0
 10
-8.50038
 20
-2.40323
 30
0.0
 10
-8.59235
 20
-2.25627
 30
0.0
 10
-8.53108
 20
-1.71899
 30
0.0
 10
-8.42126
 20
-1.31477
 30
0.0
 10
-8.27866
 20
-0.98591
 30
0.0
 10
-8.17001
 20
-1.98833
 30
0.0
 10
-7.94208
 20
-2.96796
 30
0.0
 10
-7.5954
 20
-3.91439
 30
0.0
 10
-7.69443
 20
-3.99842
 30
0.0
 10
-7.78005
 20
-4.09734
 30
0.0
 10
-7.84672
 20
-4.21796
 30
0.0
  0
SPLINE
  5
AB
330
1F
100
AcDbEntity
  8
Layer 1
 62
    12
370
    35
100
AcDbSpline
210
0.0
220
0.0
230
1.0
 70
    11
 71
     3
 72
    14
 73
    10
 74
     0
 42
0.0000000001
 43
0.0000000001
 40
0.0
 40
0.0
 40
0.0
 40
0.0
 40
0.3333333333333333
 40
0.3333333333333333
 40
0.3333333333333333
 40
0.6666666666666666
 40
0.6666666666666666
 40
0.6666666666666666
 40
1.0
 40
1.0
 40
1.0
 40
1.0
 10
-7.64504
 20
1.98603
 30
0.0
 10
-7.44004
 20
1.76847
 30
0.0
 10
-7.19242
 20
1.57607
 30
0.0
 10
-7.04369
 20
1.46138
 30
0.0
 10
-7.26065
 20
1.06376
 30
0.0
 10
-7.50749
 20
0.77611
 30
0.0
 10
-7.75189
 20
0.49914
 30
0.0
 10
-7.74703
 20
1.0028
 30
0.0
 10
-7.71087
 20
1.49902
 30
0.0
 10
-7.64504
 20
1.98603
 30
0.0
  0
SPLINE
  5
AC
330
1F
100
AcDbEntity
  8
Layer 1
 62
    12
370
    35
100
AcDbSpline
210
0.0
220
0.0
230
1.0
 70
    11
 71
     3
 72
    23
 73
    19
 74
     0
 42
0.0000000001
 43
0.0000000001
 40
0.0
 40
0.0
 40
0.0
 40
0.0
 40
0.1666666666666667
 40
0.1666666666666667
 40
0.1666666666666667
 40
0.3333333333333333
 40
0.3333333333333333
 40
0.3333333333333333
 40
0.5
 40
0.5
 40
0.5
 40
0.6666666666666666
 40
0.6666666666666666
 40
0.6666666666666666
 40
0.8333333333333333
 40
0.8333333333333333
 40
0.8333333333333333
 40
1.0
 40
1.0
 40
1.0
 40
1.0
 10
-7.14251
 20
8.04971
 30
0.0
 10
-6.9513
 20
8.39007
 30
0.0
 10
-6.59595
 20
8.56216
 30
0.0
 10
-6.13645
 20
8.64697
 30
0.0
 10
-6.21654
 20
8.54321
 30
0.0
 10
-6.30064
 20
8.39812
 30
0.0
 10
-6.3876
 20
8.09385
 30
0.0
 10
-6.50366
 20
7.68596
 30
0.0
 10
-6.54892
 20
7.51462
 30
0.0
 10
-6.56508
 20
7.43592
 30
0.0
 10
-7.00259
 20
7.04282
 30
0.0
 10
-7.2398
 20
6.8193
 30
0.0
 10
-7.27018
 20
6.77139
 30
0.0
 10
-7.31156
 20
6.70616
 30
0.0
 10
-7.30895
 20
6.70591
 30
0.0
 10
-7.30916
 20
6.69745
 30
0.0
 10
-7.46301
 20
7.07612
 30
0.0
 10
-7.46406
 20
7.47733
 30
0.0
 10
-7.14251
 20
8.04971
 30
0.0
  0
SPLINE
  5
AD
330
1F
100
AcDbEntity
  8
Layer 1
 62
    12
370
    35
100
AcDbSpline
210
0.0
220
0.0
230
1.0
 70
    11
 71
     3
 72
    23
 73
    19
 74
     0
 42
0.0000000001
 43
0.0000000001
 40
0.0
 40
0.0
 40
0.0
 40
0.0
 40
0.1666666666666667
 40
0.1666666666666667
 40
0.1666666666666667
 40
0.3333333333333333
 40
0.3333333333333333
 40
0.3333333333333333
 40
0.5
 40
0.5
 40
0.5
 40
0.6666666666666666
 40
0.6666666666666666
 40
0.6666666666666666
 40
0.8333333333333333
 40
0.8333333333333333
 40
0.8333333333333333
 40
1.0
 40
1.0
 40
1.0
 40
1.0
 10
0.11731
 20
11.58596
 30
0.0
 10
0.23944
 20
11.45384
 30
0.0
 10
0.37406
 20
11.32614
 30
0.0
 10
0.5103
 20
11.1972
 30
0.0
 10
0.18409
 20
10.69198
 30
0.0
 10
-0.18266
 20
10.19848
 30
0.0
 10
-0.71366
 20
9.81329
 30
0.0
 10
-0.97323
 20
10.06598
 30
0.0
 10
-1.02735
 20
10.09844
 30
0.0
 10
-1.23369
 20
10.17767
 30
0.0
 10
-1.38718
 20
10.23662
 30
0.0
 10
-1.39798
 20
10.24681
 30
0.0
 10
-1.5157
 20
10.33395
 30
0.0
 10
-1.62873
 20
10.41752
 30
0.0
 10
-1.75227
 20
10.50861
 30
0.0
 10
-1.95286
 20
10.6016
 30
0.0
 10
-1.30051
 20
10.99297
 30
0.0
 10
-0.6079
 20
11.32374
 30
0.0
 10
0.11731
 20
11.58596
 30
0.0
  0
SPLINE
  5
AE
330
1F
100
AcDbEntity
  8
Layer 1
 62
    12
370
    35
100
AcDbSpline
210
0.0
220
0.0
230
1.0
 70
    11
 71
     3
 72
    17
 73
    13
 74
     0
 42
0.0000000001
 43
0.0000000001
 40
0.0
 40
0.0
 40
0.0
 40
0.0
 40
0.25
 40
0.25
 40
0.25
 40
0.5
 40
0.5
 40
0.5
 40
0.75
 40
0.75
 40
0.75
 40
1.0
 40
1.0
 40
1.0
 40
1.0
 10
9.9451
 20
10.78558
 30
0.0
 10
10.15835
 20
10.66641
 30
0.0
 10
10.36804
 20
10.54156
 30
0.0
 10
10.57301
 20
10.40994
 30
0.0
 10
10.35023
 20
10.38828
 30
0.0
 10
10.16146
 20
10.26922
 30
0.0
 10
10.04454
 20
10.09378
 30
0.0
 10
9.83503
 20
10.20889
 30
0.0
 10
9.52254
 20
10.52473
 30
0.0
 10
9.41311
 20
10.69301
 30
0.0
 10
9.59729
 20
10.70546
 30
0.0
 10
9.77495
 20
10.73555
 30
0.0
 10
9.9451
 20
10.78558
 30
0.0
  0
SPLINE
  5
AF
330
1F
100
AcDbEntity
  8
Layer 1
 62
    12
370
    35
100
AcDbSpline
210
0.0
220
0.0
230
1.0
 70
    11
 71
     3
 72
    17
 73
    13
 74
     0
 42
0.0000000001
 43
0.0000000001
 40
0.0
 40
0.0
 40
0.0
 40
0.0
 40
0.25
 40
0.25
 40
0.25
 40
0.5
 40
0.5
 40
0.5
 40
0.75
 40
0.75
 40
0.75
 40
1.0
 40
1.0
 40
1.0
 40
1.0
 10
14.63404
 20
6.03588
 30
0.0
 10
14.49872
 20
6.13469
 30
0.0
 10
14.34882
 20
6.2346
 30
0.0
 10
14.18457
 20
6.33109
 30
0.0
 10
13.83387
 20
6.53707
 30
0.0
 10
13.69043
 20
6.79986
 30
0.0
 10
13.63776
 20
7.02362
 30
0.0
 10
13.75591
 20
6.88717
 30
0.0
 10
13.94733
 20
6.83838
 30
0.0
 10
14.11599
 20
6.90139
 30
0.0
 10
14.30028
 20
6.62075
 30
0.0
 10
14.47349
 20
6.33225
 30
0.0
 10
14.63404
 20
6.03588
 30
0.0
  0
SPLINE
  5
B0
330
1F
100
AcDbEntity
  8
Layer 1
 62
    12
370
    35
100
AcDbSpline
210
0.0
220
0.0
230
1.0
 70
    11
 71
     3
 72
    26
 73
    22
 74
     0
 42
0.0000000001
 43
0.0000000001
 40
0.0
 40
0.0
 40
0.0
 40
0.0
 40
0.1428571428571428
 40
0.1428571428571428
 40
0.1428571428571428
 40
0.2857142857142857
 40
0.2857142857142857
 40
0.2857142857142857
 40
0.4285714285714285
 40
0.4285714285714285
 40
0.4285714285714285
 40
0.5714285714285714
 40
0.5714285714285714
 40
0.5714285714285714
 40
0.7142857142857142
 40
0.7142857142857142
 40
0.7142857142857142
 40
0.8571428571428571
 40
0.8571428571428571
 40
0.8571428571428571
 40
1.0
 40
1.0
 40
1.0
 40
1.0
 10
16.08414
 20
4.69272
 30
0.0
 10
16.00233
 20
4.77093
 30
0.0
 10
15.90852
 20
4.85662
 30
0.0
 10
15.80502
 20
4.94506
 30
0.0
 10
15.7648
 20
5.04761
 30
0.0
 10
15.72335
 20
5.14981
 30
0.0
 10
15.68035
 20
5.25152
 30
0.0
 10
15.28269
 20
6.19167
 30
0.0
 10
14.77649
 20
7.07114
 30
0.0
 10
14.16855
 20
7.88094
 30
0.0
 10
14.15927
 20
7.96526
 30
0.0
 10
14.1326
 20
8.04894
 30
0.0
 10
14.0859
 20
8.1263
 30
0.0
 10
14.01075
 20
8.25076
 30
0.0
 10
13.89776
 20
8.33829
 30
0.0
 10
13.77058
 20
8.38312
 30
0.0
 10
13.60513
 20
8.58146
 30
0.0
 10
13.43322
 20
8.77517
 30
0.0
 10
13.25489
 20
8.96404
 30
0.0
 10
15.23803
 20
7.84715
 30
0.0
 10
15.47644
 20
7.2699
 30
0.0
 10
16.08414
 20
4.69272
 30
0.0
  0
SPLINE
  5
B1
330
1F
100
AcDbEntity
  8
Layer 1
 62
    12
370
    35
100
AcDbSpline
210
0.0
220
0.0
230
1.0
 70
    11
 71
     3
 72
    17
 73
    13
 74
     0
 42
0.0000000001
 43
0.0000000001
 40
0.0
 40
0.0
 40
0.0
 40
0.0
 40
0.25
 40
0.25
 40
0.25
 40
0.5
 40
0.5
 40
0.5
 40
0.75
 40
0.75
 40
0.75
 40
1.0
 40
1.0
 40
1.0
 40
1.0
 10
16.02713
 20
-0.55253
 30
0.0
 10
15.68521
 20
-0.8775
 30
0.0
 10
15.41181
 20
-1.27156
 30
0.0
 10
15.21344
 20
-1.61008
 30
0.0
 10
15.19979
 20
-1.33552
 30
0.0
 10
15.17827
 20
-1.07428
 30
0.0
 10
15.15192
 20
-0.8297
 30
0.0
 10
15.41259
 20
-0.59599
 30
0.0
 10
15.76244
 20
-0.22074
 30
0.0
 10
16.06283
 20
0.31217
 30
0.0
 10
16.0611
 20
0.02141
 30
0.0
 10
16.04939
 20
-0.26702
 30
0.0
 10
16.02713
 20
-0.55253
 30
0.0
  0
SPLINE
  5
B2
330
1F
100
AcDbEntity
  8
Layer 1
 62
    12
370
    35
100
AcDbSpline
210
0.0
220
0.0
230
1.0
 70
    11
 71
     3
 72
    14
 73
    10
 74
     0
 42
0.0000000001
 43
0.0000000001
 40
0.0
 40
0.0
 40
0.0
 40
0.0
 40
0.3333333333333333
 40
0.3333333333333333
 40
0.3333333333333333
 40
0.6666666666666666
 40
0.6666666666666666
 40
0.6666666666666666
 40
1.0
 40
1.0
 40
1.0
 40
1.0
 10
15.22741
 20
-2.43294
 30
0.0
 10
15.22893
 20
-2.34185
 30
0.0
 10
15.22943
 20
-2.25239
 30
0.0
 10
15.2289
 20
-2.16461
 30
0.0
 10
15.35233
 20
-2.08954
 30
0.0
 10
15.49768
 20
-1.99225
 30
0.0
 10
15.65505
 20
-1.86983
 30
0.0
 10
15.49309
 20
-2.05723
 30
0.0
 10
15.35011
 20
-2.25034
 30
0.0
 10
15.22741
 20
-2.43294
 30
0.0
  0
SPLINE
  5
B3
330
1F
100
AcDbEntity
  8
Layer 1
 62
    12
370
    35
100
AcDbSpline
210
0.0
220
0.0
230
1.0
 70
    11
 71
     3
 72
    17
 73
    13
 74
     0
 42
0.0000000001
 43
0.0000000001
 40
0.0
 40
0.0
 40
0.0
 40
0.0
 40
0.25
 40
0.25
 40
0.25
 40
0.5
 40
0.5
 40
0.5
 40
0.75
 40
0.75
 40
0.75
 40
1.0
 40
1.0
 40
1.0
 40
1.0
 10
15.47256
 20
-3.32331
 30
0.0
 10
15.35752
 20
-3.40456
 30
0.0
 10
15.25017
 20
-3.48615
 30
0.0
 10
15.15196
 20
-3.56489
 30
0.0
 10
15.17019
 20
-3.41218
 30
0.0
 10
15.18445
 20
-3.26179
 30
0.0
 10
15.19581
 20
-3.11376
 30
0.0
 10
15.32122
 20
-3.04254
 30
0.0
 10
15.46494
 20
-2.95304
 30
0.0
 10
15.61953
 20
-2.84301
 30
0.0
 10
15.57398
 20
-3.00461
 30
0.0
 10
15.52467
 20
-3.16456
 30
0.0
 10
15.47256
 20
-3.32331
 30
0.0
  0
SPLINE
  5
B4
330
1F
100
AcDbEntity
  8
Layer 1
 62
    12
370
    35
100
AcDbSpline
210
0.0
220
0.0
230
1.0
 70
    11
 71
     3
 72
   395
 73
   391
 74
     0
 42
0.0000000001
 43
0.0000000001
 40
0.0
 40
0.0
 40
0.0
 40
0.0
 40
0.0076923076923077
 40
0.0076923076923077
 40
0.0076923076923077
 40
0.0153846153846154
 40
0.0153846153846154
 40
0.0153846153846154
 40
0.0230769230769231
 40
0.0230769230769231
 40
0.0230769230769231
 40
0.0307692307692308
 40
0.0307692307692308
 40
0.0307692307692308
 40
0.0384615384615385
 40
0.0384615384615385
 40
0.0384615384615385
 40
0.0461538461538462
 40
0.0461538461538462
 40
0.0461538461538462
 40
0.0538461538461538
 40
0.0538461538461538
 40
0.0538461538461538
 40
0.0615384615384615
 40
0.0615384615384615
 40
0.0615384615384615
 40
0.0692307692307692
 40
0.0692307692307692
 40
0.0692307692307692
 40
0.0769230769230769
 40
0.0769230769230769
 40
0.0769230769230769
 40
0.0846153846153846
 40
0.0846153846153846
 40
0.0846153846153846
 40
0.0923076923076923
 40
0.0923076923076923
 40
0.0923076923076923
 40
0.1
 40
0.1
 40
0.1
 40
0.1076923076923077
 40
0.1076923076923077
 40
0.1076923076923077
 40
0.1153846153846154
 40
0.1153846153846154
 40
0.1153846153846154
 40
0.1230769230769231
 40
0.1230769230769231
 40
0.1230769230769231
 40
0.1307692307692308
 40
0.1307692307692308
 40
0.1307692307692308
 40
0.1384615384615385
 40
0.1384615384615385
 40
0.1384615384615385
 40
0.1461538461538462
 40
0.1461538461538462
 40
0.1461538461538462
 40
0.1538461538461539
 40
0.1538461538461539
 40
0.1538461538461539
 40
0.1615384615384615
 40
0.1615384615384615
 40
0.1615384615384615
 40
0.1692307692307692
 40
0.1692307692307692
 40
0.1692307692307692
 40
0.1769230769230769
 40
0.1769230769230769
 40
0.1769230769230769
 40
0.1846153846153846
 40
0.1846153846153846
 40
0.1846153846153846
 40
0.1923076923076923
 40
0.1923076923076923
 40
0.1923076923076923
 40
0.2
 40
0.2
 40
0.2
 40
0.2076923076923077
 40
0.2076923076923077
 40
0.2076923076923077
 40
0.2153846153846154
 40
0.2153846153846154
 40
0.2153846153846154
 40
0.2230769230769231
 40
0.2230769230769231
 40
0.2230769230769231
 40
0.2307692307692308
 40
0.2307692307692308
 40
0.2307692307692308
 40
0.2384615384615385
 40
0.2384615384615385
 40
0.2384615384615385
 40
0.2461538461538462
 40
0.2461538461538462
 40
0.2461538461538462
 40
0.2538461538461538
 40
0.2538461538461538
 40
0.2538461538461538
 40
0.2615384615384616
 40
0.2615384615384616
 40
0.2615384615384616
 40
0.2692307692307693
 40
0.2692307692307693
 40
0.2692307692307693
 40
0.2769230769230769
 40
0.2769230769230769
 40
0.2769230769230769
 40
0.2846153846153846
 40
0.2846153846153846
 40
0.2846153846153846
 40
0.2923076923076923
 40
0.2923076923076923
 40
0.2923076923076923
 40
0.3
 40
0.3
 40
0.3
 40
0.3076923076923077
 40
0.3076923076923077
 40
0.3076923076923077
 40
0.3153846153846154
 40
0.3153846153846154
 40
0.3153846153846154
 40
0.3230769230769231
 40
0.3230769230769231
 40
0.3230769230769231
 40
0.3307692307692308
 40
0.3307692307692308
 40
0.3307692307692308
 40
0.3384615384615385
 40
0.3384615384615385
 40
0.3384615384615385
 40
0.3461538461538461
 40
0.3461538461538461
 40
0.3461538461538461
 40
0.3538461538461539
 40
0.3538461538461539
 40
0.3538461538461539
 40
0.3615384615384616
 40
0.3615384615384616
 40
0.3615384615384616
 40
0.3692307692307693
 40
0.3692307692307693
 40
0.3692307692307693
 40
0.3769230769230769
 40
0.3769230769230769
 40
0.3769230769230769
 40
0.3846153846153846
 40
0.3846153846153846
 40
0.3846153846153846
 40
0.3923076923076924
 40
0.3923076923076924
 40
0.3923076923076924
 40
0.4
 40
0.4
 40
0.4
 40
0.4076923076923077
 40
0.4076923076923077
 40
0.4076923076923077
 40
0.4153846153846154
 40
0.4153846153846154
 40
0.4153846153846154
 40
0.4230769230769231
 40
0.4230769230769231
 40
0.4230769230769231
 40
0.4307692307692308
 40
0.4307692307692308
 40
0.4307692307692308
 40
0.4384615384615385
 40
0.4384615384615385
 40
0.4384615384615385
 40
0.4461538461538462
 40
0.4461538461538462
 40
0.4461538461538462
 40
0.4538461538461539
 40
0.4538461538461539
 40
0.4538461538461539
 40
0.4615384615384616
 40
0.4615384615384616
 40
0.4615384615384616
 40
0.4692307692307692
 40
0.4692307692307692
 40
0.4692307692307692
 40
0.4769230769230769
 40
0.4769230769230769
 40
0.4769230769230769
 40
0.4846153846153847
 40
0.4846153846153847
 40
0.4846153846153847
 40
0.4923076923076923
 40
0.4923076923076923
 40
0.4923076923076923
 40
0.5
 40
0.5
 40
0.5
 40
0.5076923076923077
 40
0.5076923076923077
 40
0.5076923076923077
 40
0.5153846153846154
 40
0.5153846153846154
 40
0.5153846153846154
 40
0.5230769230769231
 40
0.5230769230769231
 40
0.5230769230769231
 40
0.5307692307692308
 40
0.5307692307692308
 40
0.5307692307692308
 40
0.5384615384615385
 40
0.5384615384615385
 40
0.5384615384615385
 40
0.5461538461538462
 40
0.5461538461538462
 40
0.5461538461538462
 40
0.5538461538461539
 40
0.5538461538461539
 40
0.5538461538461539
 40
0.5615384615384615
 40
0.5615384615384615
 40
0.5615384615384615
 40
0.5692307692307692
 40
0.5692307692307692
 40
0.5692307692307692
 40
0.576923076923077
 40
0.576923076923077
 40
0.576923076923077
 40
0.5846153846153846
 40
0.5846153846153846
 40
0.5846153846153846
 40
0.5923076923076923
 40
0.5923076923076923
 40
0.5923076923076923
 40
0.6000000000000001
 40
0.6000000000000001
 40
0.6000000000000001
 40
0.6076923076923078
 40
0.6076923076923078
 40
0.6076923076923078
 40
0.6153846153846154
 40
0.6153846153846154
 40
0.6153846153846154
 40
0.6230769230769231
 40
0.6230769230769231
 40
0.6230769230769231
 40
0.6307692307692307
 40
0.6307692307692307
 40
0.6307692307692307
 40
0.6384615384615385
 40
0.6384615384615385
 40
0.6384615384615385
 40
0.6461538461538462
 40
0.6461538461538462
 40
0.6461538461538462
 40
0.6538461538461539
 40
0.6538461538461539
 40
0.6538461538461539
 40
0.6615384615384616
 40
0.6615384615384616
 40
0.6615384615384616
 40
0.6692307692307693
 40
0.6692307692307693
 40
0.6692307692307693
 40
0.676923076923077
 40
0.676923076923077
 40
0.676923076923077
 40
0.6846153846153846
 40
0.6846153846153846
 40
0.6846153846153846
 40
0.6923076923076923
 40
0.6923076923076923
 40
0.6923076923076923
 40
0.7000000000000001
 40
0.7000000000000001
 40
0.7000000000000001
 40
0.7076923076923077
 40
0.7076923076923077
 40
0.7076923076923077
 40
0.7153846153846154
 40
0.7153846153846154
 40
0.7153846153846154
 40
0.7230769230769232
 40
0.7230769230769232
 40
0.7230769230769232
 40
0.7307692307692308
 40
0.7307692307692308
 40
0.7307692307692308
 40
0.7384615384615385
 40
0.7384615384615385
 40
0.7384615384615385
 40
0.7461538461538462
 40
0.7461538461538462
 40
0.7461538461538462
 40
0.7538461538461538
 40
0.7538461538461538
 40
0.7538461538461538
 40
0.7615384615384616
 40
0.7615384615384616
 40
0.7615384615384616
 40
0.7692307692307693
 40
0.7692307692307693
 40
0.7692307692307693
 40
0.7769230769230769
 40
0.7769230769230769
 40
0.7769230769230769
 40
0.7846153846153847
 40
0.7846153846153847
 40
0.7846153846153847
 40
0.7923076923076924
 40
0.7923076923076924
 40
0.7923076923076924
 40
0.8
 40
0.8
 40
0.8
 40
0.8076923076923077
 40
0.8076923076923077
 40
0.8076923076923077
 40
0.8153846153846154
 40
0.8153846153846154
 40
0.8153846153846154
 40
0.8230769230769232
 40
0.8230769230769232
 40
0.8230769230769232
 40
0.8307692307692308
 40
0.8307692307692308
 40
0.8307692307692308
 40
0.8384615384615385
 40
0.8384615384615385
 40
0.8384615384615385
 40
0.8461538461538463
 40
0.8461538461538463
 40
0.8461538461538463
 40
0.8538461538461539
 40
0.8538461538461539
 40
0.8538461538461539
 40
0.8615384615384616
 40
0.8615384615384616
 40
0.8615384615384616
 40
0.8692307692307693
 40
0.8692307692307693
 40
0.8692307692307693
 40
0.8769230769230769
 40
0.8769230769230769
 40
0.8769230769230769
 40
0.8846153846153847
 40
0.8846153846153847
 40
0.8846153846153847
 40
0.8923076923076924
 40
0.8923076923076924
 40
0.8923076923076924
 40
0.9
 40
0.9
 40
0.9
 40
0.9076923076923078
 40
0.9076923076923078
 40
0.9076923076923078
 40
0.9153846153846155
 40
0.9153846153846155
 40
0.9153846153846155
 40
0.9230769230769231
 40
0.9230769230769231
 40
0.9230769230769231
 40
0.9307692307692308
 40
0.9307692307692308
 40
0.9307692307692308
 40
0.9384615384615385
 40
0.9384615384615385
 40
0.9384615384615385
 40
0.9461538461538462
 40
0.9461538461538462
 40
0.9461538461538462
 40
0.9538461538461539
 40
0.9538461538461539
 40
0.9538461538461539
 40
0.9615384615384616
 40
0.9615384615384616
 40
0.9615384615384616
 40
0.9692307692307693
 40
0.9692307692307693
 40
0.9692307692307693
 40
0.976923076923077
 40
0.976923076923077
 40
0.976923076923077
 40
0.9846153846153847
 40
0.9846153846153847
 40
0.9846153846153847
 40
0.9923076923076923
 40
0.9923076923076923
 40
0.9923076923076923
 40
1.0
 40
1.0
 40
1.0
 40
1.0
 10
15.56862
 20
-4.74176
 30
0.0
 10
15.60669
 20
-4.65702
 30
0.0
 10
15.64408
 20
-4.57193
 30
0.0
 10
15.68035
 20
-4.48621
 30
0.0
 10
15.77217
 20
-4.26911
 30
0.0
 10
15.85691
 20
-4.04993
 30
0.0
 10
15.93597
 20
-3.82916
 30
0.0
 10
16.50694
 20
-3.60864
 30
0.0
 10
17.17905
 20
-3.23508
 30
0.0
 10
17.81405
 20
-2.60135
 30
0.0
 10
17.27677
 20
-2.49834
 30
0.0
 10
16.72771
 20
-2.63977
 30
0.0
 10
16.2353
 20
-2.87246
 30
0.0
 10
16.29922
 20
-2.63508
 30
0.0
 10
16.35641
 20
-2.39604
 30
0.0
 10
16.40605
 20
-2.15527
 30
0.0
 10
16.73466
 20
-1.80524
 30
0.0
 10
17.06027
 20
-1.36416
 30
0.0
 10
17.33001
 20
-0.81369
 30
0.0
 10
17.06221
 20
-0.85179
 30
0.0
 10
16.8111
 20
-0.9475
 30
0.0
 10
16.57845
 20
-1.08028
 30
0.0
 10
16.58554
 20
-1.01907
 30
0.0
 10
16.59281
 20
-0.9579
 30
0.0
 10
16.59901
 20
-0.89655
 30
0.0
 10
16.80154
 20
-0.62022
 30
0.0
 10
16.99363
 20
-0.2987
 30
0.0
 10
17.15693
 20
0.07373
 30
0.0
 10
16.97984
 20
0.04081
 30
0.0
 10
16.81195
 20
-0.01944
 30
0.0
 10
16.65345
 20
-0.09963
 30
0.0
 10
16.65948
 20
0.06067
 30
0.0
 10
16.66347
 20
0.22136
 30
0.0
 10
16.66347
 20
0.38262
 30
0.0
 10
16.66347
 20
0.92501
 30
0.0
 10
16.62886
 20
1.46212
 30
0.0
 10
16.56091
 20
1.99259
 30
0.0
 10
16.60275
 20
2.18432
 30
0.0
 10
16.63274
 20
2.43127
 30
0.0
 10
16.63362
 20
2.74616
 30
0.0
 10
16.63577
 20
3.53836
 30
0.0
 10
16.45928
 20
4.52712
 30
0.0
 10
16.1077
 20
5.70046
 30
0.0
 10
16.00211
 20
6.35677
 30
0.0
 10
15.74342
 20
8.10863
 30
0.0
 10
15.77313
 20
9.34762
 30
0.0
 10
15.89801
 20
9.1967
 30
0.0
 10
16.10954
 20
9.13454
 30
0.0
 10
16.30247
 20
9.20877
 30
0.0
 10
16.54416
 20
9.30172
 30
0.0
 10
16.6647
 20
9.57301
 30
0.0
 10
16.57171
 20
9.8147
 30
0.0
 10
16.50479
 20
9.98865
 30
0.0
 10
16.34544
 20
10.09928
 30
0.0
 10
16.17131
 20
10.11329
 30
0.0
 10
16.27986
 20
10.27154
 30
0.0
 10
16.31143
 20
10.47869
 30
0.0
 10
16.23731
 20
10.67135
 30
0.0
 10
16.11772
 20
10.98221
 30
0.0
 10
15.76879
 20
11.1373
 30
0.0
 10
15.45788
 20
11.0177
 30
0.0
 10
14.91157
 20
10.80755
 30
0.0
 10
14.9568
 20
10.01793
 30
0.0
 10
15.5241
 20
9.87128
 30
0.0
 10
15.44705
 20
9.19173
 30
0.0
 10
15.50502
 20
8.24466
 30
0.0
 10
15.59441
 20
7.39549
 30
0.0
 10
14.91753
 20
8.68655
 30
0.0
 10
14.623
 20
9.82814
 30
0.0
 10
14.4767
 20
11.31312
 30
0.0
 10
14.5722
 20
11.26751
 30
0.0
 10
14.68537
 20
11.25943
 30
0.0
 10
14.79195
 20
11.30042
 30
0.0
 10
14.99772
 20
11.37958
 30
0.0
 10
15.10034
 20
11.61055
 30
0.0
 10
15.02118
 20
11.81632
 30
0.0
 10
14.96668
 20
11.95803
 30
0.0
 10
14.84014
 20
12.05078
 30
0.0
 10
14.69945
 20
12.06898
 30
0.0
 10
14.8438
 20
12.24121
 30
0.0
 10
14.89295
 20
12.48445
 30
0.0
 10
14.80655
 20
12.70906
 30
0.0
 10
14.67987
 20
13.03834
 30
0.0
 10
14.31026
 20
13.2026
 30
0.0
 10
13.98098
 20
13.07592
 30
0.0
 10
13.6517
 20
12.94923
 30
0.0
 10
13.48744
 20
12.57963
 30
0.0
 10
13.61413
 20
12.25038
 30
0.0
 10
13.61554
 20
12.24671
 30
0.0
 10
13.61741
 20
12.24332
 30
0.0
 10
13.61889
 20
12.23969
 30
0.0
 10
13.37995
 20
12.13058
 30
0.0
 10
13.26392
 20
11.85329
 30
0.0
 10
13.35953
 20
11.60483
 30
0.0
 10
13.4897
 20
11.26648
 30
0.0
 10
13.92626
 20
11.17409
 30
0.0
 10
14.1821
 20
11.43162
 30
0.0
 10
14.21152
 20
11.0841
 30
0.0
 10
14.27075
 20
10.60788
 30
0.0
 10
14.38456
 20
9.97031
 30
0.0
 10
14.48034
 20
9.43356
 30
0.0
 10
14.65027
 20
8.8205
 30
0.0
 10
14.96128
 20
8.05952
 30
0.0
 10
14.50986
 20
8.49993
 30
0.0
 10
13.74642
 20
9.10847
 30
0.0
 10
12.60568
 20
9.6043
 30
0.0
 10
12.30197
 20
9.88306
 30
0.0
 10
11.98641
 20
10.14578
 30
0.0
 10
11.65928
 20
10.39163
 30
0.0
 10
11.58728
 20
10.5344
 30
0.0
 10
11.45132
 20
10.62785
 30
0.0
 10
11.30065
 20
10.65078
 30
0.0
 10
10.58994
 20
11.1464
 30
0.0
 10
9.82942
 20
11.56719
 30
0.0
 10
9.02406
 20
11.90783
 30
0.0
 10
8.2706
 20
12.22653
 30
0.0
 10
7.49414
 20
12.4679
 30
0.0
 10
6.70025
 20
12.63202
 30
0.0
 10
6.62697
 20
12.74804
 30
0.0
 10
6.56256
 20
12.8495
 30
0.0
 10
6.50904
 20
12.90775
 30
0.0
 10
6.34951
 20
13.08138
 30
0.0
 10
6.13298
 20
13.13733
 30
0.0
 10
5.94192
 20
13.18672
 30
0.0
 10
5.74605
 20
13.23738
 30
0.0
 10
5.54374
 20
13.27629
 30
0.0
 10
5.34216
 20
13.25012
 30
0.0
 10
5.13924
 20
13.35073
 30
0.0
 10
4.57981
 20
13.39391
 30
0.0
 10
4.30704
 20
13.37997
 30
0.0
 10
4.01935
 20
13.36523
 30
0.0
 10
3.78609
 20
13.31326
 30
0.0
 10
3.39525
 20
13.21484
 30
0.0
 10
3.28384
 20
13.23788
 30
0.0
 10
3.3036
 20
13.68883
 30
0.0
 10
2.48864
 20
13.64466
 30
0.0
 10
2.34658
 20
13.63697
 30
0.0
 10
2.19972
 20
13.629
 30
0.0
 10
2.05409
 20
13.60205
 30
0.0
 10
1.6151
 20
13.52084
 30
0.0
 10
1.2983
 20
13.22673
 30
0.0
 10
1.18435
 20
12.87427
 30
0.0
 10
1.17822
 20
12.91801
 30
0.0
 10
1.17007
 20
12.96176
 30
0.0
 10
1.1586
 20
13.00532
 30
0.0
 10
0.94577
 20
13.8135
 30
0.0
 10
0.31557
 20
14.31152
 30
0.0
 10
0.324
 20
14.26919
 30
0.0
 10
0.54671
 20
13.15137
 30
0.0
 10
-0.43694
 20
13.20027
 30
0.0
 10
-0.38657
 20
12.57229
 30
0.0
 10
-0.3726
 20
12.39798
 30
0.0
 10
-0.32338
 20
12.23976
 30
0.0
 10
-0.24948
 20
12.09226
 30
0.0
 10
-0.40502
 20
12.03367
 30
0.0
 10
-0.55992
 20
11.97274
 30
0.0
 10
-0.71363
 20
11.90773
 30
0.0
 10
-1.44613
 20
11.59792
 30
0.0
 10
-2.14167
 20
11.222
 30
0.0
 10
-2.79628
 20
10.78367
 30
0.0
 10
-2.87901
 20
11.2263
 30
0.0
 10
-3.51764
 20
11.41818
 30
0.0
 10
-4.01393
 20
11.15747
 30
0.0
 10
-4.47642
 20
10.91452
 30
0.0
 10
-4.48926
 20
10.49944
 30
0.0
 10
-4.80341
 20
10.22688
 30
0.0
 10
-4.90692
 20
10.1371
 30
0.0
 10
-5.59441
 20
9.62698
 30
0.0
 10
-5.83776
 20
9.1126
 30
0.0
 10
-6.57789
 20
9.04038
 30
0.0
 10
-7.18971
 20
8.82974
 30
0.0
 10
-7.51155
 20
8.25694
 30
0.0
 10
-7.6256
 20
8.05395
 30
0.0
 10
-7.70515
 20
7.86655
 30
0.0
 10
-7.75729
 20
7.69129
 30
0.0
 10
-7.83434
 20
7.88243
 30
0.0
 10
-7.94328
 20
8.06083
 30
0.0
 10
-8.10249
 20
8.20162
 30
0.0
 10
-8.72856
 20
8.7552
 30
0.0
 10
-9.52926
 20
8.81898
 30
0.0
 10
-9.49874
 20
8.78847
 30
0.0
 10
-8.69237
 20
7.98297
 30
0.0
 10
-9.53727
 20
7.47694
 30
0.0
 10
-9.14643
 20
6.98288
 30
0.0
 10
-8.78716
 20
6.52875
 30
0.0
 10
-8.20525
 20
6.43501
 30
0.0
 10
-7.60648
 20
6.33296
 30
0.0
 10
-7.58993
 20
6.30138
 30
0.0
 10
-7.57254
 20
6.27013
 30
0.0
 10
-7.55483
 20
6.23894
 30
0.0
 10
-7.59131
 20
6.17636
 30
0.0
 10
-7.6329
 20
6.10556
 30
0.0
 10
-7.68102
 20
6.0242
 30
0.0
 10
-7.84471
 20
5.7477
 30
0.0
 10
-7.81652
 20
5.44875
 30
0.0
 10
-7.86436
 20
5.17521
 30
0.0
 10
-7.87826
 20
5.09583
 30
0.0
 10
-7.90243
 20
5.02253
 30
0.0
 10
-7.92804
 20
4.94495
 30
0.0
 10
-8.08446
 20
4.47071
 30
0.0
 10
-8.00067
 20
4.31521
 30
0.0
 10
-7.83522
 20
3.95421
 30
0.0
 10
-8.17865
 20
2.80151
 30
0.0
 10
-8.35306
 20
1.60535
 30
0.0
 10
-8.35306
 20
0.38255
 30
0.0
 10
-8.35306
 20
0.18055
 30
0.0
 10
-8.34802
 20
-0.02064
 30
0.0
 10
-8.33856
 20
-0.22113
 30
0.0
 10
-8.60519
 20
-0.61119
 30
0.0
 10
-8.82942
 20
-1.09238
 30
0.0
 10
-8.95681
 20
-1.82111
 30
0.0
 10
-9.16653
 20
-1.61534
 30
0.0
 10
-9.36236
 20
-1.46075
 30
0.0
 10
-9.38751
 20
-1.35689
 30
0.0
 10
-9.63195
 20
-1.86059
 30
0.0
 10
-9.91001
 20
-2.34136
 30
0.0
 10
-9.76594
 20
-2.85338
 30
0.0
 10
-9.67838
 20
-3.16449
 30
0.0
 10
-9.30856
 20
-3.50235
 30
0.0
 10
-9.03022
 20
-3.72837
 30
0.0
 10
-8.8871
 20
-4.64284
 30
0.0
 10
-8.35278
 20
-5.51237
 30
0.0
 10
-7.45891
 20
-6.28142
 30
0.0
 10
-7.77465
 20
-6.19327
 30
0.0
 10
-8.12214
 20
-6.14984
 30
0.0
 10
-8.44514
 20
-6.26911
 30
0.0
 10
-9.22912
 20
-6.5586
 30
0.0
 10
-9.6643
 20
-7.23371
 30
0.0
 10
-9.62299
 20
-7.22126
 30
0.0
 10
-8.53175
 20
-6.89219
 30
0.0
 10
-8.48592
 20
-7.87602
 30
0.0
 10
-7.8657
 20
-7.76556
 30
0.0
 10
-7.35513
 20
-7.67465
 30
0.0
 10
-7.01466
 20
-7.28956
 30
0.0
 10
-6.68097
 20
-6.86594
 30
0.0
 10
-6.24243
 20
-7.15547
 30
0.0
 10
-5.83762
 20
-7.36512
 30
0.0
 10
-5.56058
 20
-7.49579
 30
0.0
 10
-5.28813
 20
-7.8309
 30
0.0
 10
-4.99801
 20
-8.15355
 30
0.0
 10
-4.68943
 20
-8.46209
 30
0.0
 10
-3.91131
 20
-9.24021
 30
0.0
 10
-3.65061
 20
-9.33867
 30
0.0
 10
-3.32898
 20
-9.6949
 30
0.0
 10
-4.07514
 20
-9.35574
 30
0.0
 10
-4.68178
 20
-9.16168
 30
0.0
 10
-5.21606
 20
-9.04491
 30
0.0
 10
-5.84876
 20
-8.90659
 30
0.0
 10
-6.32233
 20
-8.82897
 30
0.0
 10
-6.66844
 20
-8.78618
 30
0.0
 10
-6.40136
 20
-8.54061
 30
0.0
 10
-6.4766
 20
-8.10074
 30
0.0
 10
-6.8098
 20
-7.95758
 30
0.0
 10
-7.05442
 20
-7.85249
 30
0.0
 10
-7.33593
 20
-7.95768
 30
0.0
 10
-7.45419
 20
-8.19225
 30
0.0
 10
-7.78791
 20
-8.04203
 30
0.0
 10
-8.1656
 20
-8.20022
 30
0.0
 10
-8.30378
 20
-8.52181
 30
0.0
 10
-8.44306
 20
-8.84594
 30
0.0
 10
-8.2932
 20
-9.22162
 30
0.0
 10
-7.96906
 20
-9.36089
 30
0.0
 10
-7.74798
 20
-9.4559
 30
0.0
 10
-7.50301
 20
-9.41617
 30
0.0
 10
-7.32532
 20
-9.27859
 30
0.0
 10
-7.31258
 20
-9.41988
 30
0.0
 10
-7.22477
 20
-9.54991
 30
0.0
 10
-7.08529
 20
-9.60985
 30
0.0
 10
-6.75452
 20
-9.75198
 30
0.0
 10
-6.41907
 20
-9.41561
 30
0.0
 10
-6.56148
 20
-9.0852
 30
0.0
 10
-6.24
 20
-9.12947
 30
0.0
 10
-5.81874
 20
-9.20204
 30
0.0
 10
-5.27635
 20
-9.32064
 30
0.0
 10
-4.18651
 20
-9.55887
 30
0.0
 10
-3.21926
 20
-10.04923
 30
0.0
 10
-2.69024
 20
-10.35319
 30
0.0
 10
-3.53528
 20
-10.23105
 30
0.0
 10
-4.47925
 20
-10.13662
 30
0.0
 10
-5.16117
 20
-10.18745
 30
0.0
 10
-5.20121
 20
-10.00358
 30
0.0
 10
-5.32591
 20
-9.84099
 30
0.0
 10
-5.51197
 20
-9.76105
 30
0.0
 10
-5.818
 20
-9.62953
 30
0.0
 10
-6.17269
 20
-9.77103
 30
0.0
 10
-6.30417
 20
-10.07707
 30
0.0
 10
-6.43568
 20
-10.3831
 30
0.0
 10
-6.29418
 20
-10.73778
 30
0.0
 10
-5.98815
 20
-10.86926
 30
0.0
 10
-5.79849
 20
-10.95076
 30
0.0
 10
-5.59028
 20
-10.92723
 30
0.0
 10
-5.42797
 20
-10.82485
 30
0.0
 10
-5.4207
 20
-10.9994
 30
0.0
 10
-5.31628
 20
-11.16292
 30
0.0
 10
-5.14504
 20
-11.23647
 30
0.0
 10
-4.90713
 20
-11.33871
 30
0.0
 10
-4.6314
 20
-11.22871
 30
0.0
 10
-4.52916
 20
-10.9908
 30
0.0
 10
-4.44757
 20
-10.8009
 30
0.0
 10
-4.50147
 20
-10.58715
 30
0.0
 10
-4.64745
 20
-10.45651
 30
0.0
 10
-3.55987
 20
-10.4725
 30
0.0
 10
-2.08611
 20
-10.72558
 30
0.0
 10
-1.30104
 20
-10.87576
 30
0.0
 10
-1.10789
 20
-10.96938
 30
0.0
 10
-0.9122
 20
-11.05857
 30
0.0
 10
-0.71359
 20
-11.1426
 30
0.0
 10
0.16596
 20
-11.5146
 30
0.0
 10
1.07676
 20
-11.78165
 30
0.0
 10
2.01024
 20
-11.94277
 30
0.0
 10
1.96883
 20
-12.01671
 30
0.0
 10
1.93171
 20
-12.09337
 30
0.0
 10
1.90092
 20
-12.17355
 30
0.0
 10
2.09639
 20
-12.12773
 30
0.0
 10
2.28061
 20
-12.07252
 30
0.0
 10
2.45453
 20
-12.01068
 30
0.0
 10
2.62027
 20
-12.03315
 30
0.0
 10
2.7866
 20
-12.05269
 30
0.0
 10
2.95361
 20
-12.06853
 30
0.0
 10
2.86665
 20
-12.20463
 30
0.0
 10
2.79429
 20
-12.34984
 30
0.0
 10
2.74204
 20
-12.5052
 30
0.0
 10
3.11366
 20
-12.40127
 30
0.0
 10
3.44675
 20
-12.26768
 30
0.0
 10
3.7434
 20
-12.11827
 30
0.0
 10
3.88039
 20
-12.12268
 30
0.0
 10
4.01758
 20
-12.12568
 30
0.0
 10
4.15527
 20
-12.12568
 30
0.0
 10
4.35935
 20
-12.12568
 30
0.0
 10
4.56266
 20
-12.1206
 30
0.0
 10
4.76519
 20
-12.11097
 30
0.0
 10
4.55229
 20
-12.4774
 30
0.0
 10
4.4091
 20
-12.88204
 30
0.0
 10
4.41185
 20
-13.30639
 30
0.0
 10
4.9915
 20
-12.90687
 30
0.0
 10
5.41758
 20
-12.45574
 30
0.0
 10
5.7293
 20
-12.02807
 30
0.0
 10
6.0693
 20
-11.98552
 30
0.0
 10
6.40638
 20
-11.92834
 30
0.0
 10
6.74053
 20
-11.8581
 30
0.0
 10
6.49581
 20
-12.40692
 30
0.0
 10
6.34803
 20
-13.02932
 30
0.0
 10
6.50019
 20
-13.61786
 30
0.0
 10
6.88757
 20
-13.17689
 30
0.0
 10
7.16263
 20
-12.72717
 30
0.0
 10
7.35818
 20
-12.30535
 30
0.0
 10
7.25986
 20
-12.63806
 30
0.0
 10
7.22073
 20
-12.98456
 30
0.0
 10
7.28099
 20
-13.32784
 30
0.0
 10
7.74775
 20
-12.87456
 30
0.0
 10
8.07774
 20
-12.39965
 30
0.0
 10
8.31159
 20
-11.95635
 30
0.0
 10
8.22312
 20
-12.2511
 30
0.0
 10
8.18442
 20
-12.55752
 30
0.0
 10
8.22439
 20
-12.86482
 30
0.0
 10
8.98074
 20
-12.19296
 30
0.0
 10
9.41
 20
-11.45392
 30
0.0
 10
9.65286
 20
-10.85529
 30
0.0
 10
9.84265
 20
-10.76244
 30
0.0
 10
10.02966
 20
-10.66487
 30
0.0
 10
10.21391
 20
-10.56281
 30
0.0
 10
10.2269
 20
-10.56383
 30
0.0
 10
10.23984
 20
-10.56485
 30
0.0
 10
10.25395
 20
-10.56609
 30
0.0
 10
10.54154
 20
-10.59078
 30
0.0
 10
10.84426
 20
-10.54517
 30
0.0
 10
10.87442
 20
-10.54503
 30
0.0
 10
11.37674
 20
-10.54284
 30
0.0
 10
12.65845
 20
-9.47988
 30
0.0
 10
13.12595
 20
-8.33304
 30
0.0
 10
13.42091
 20
-8.02969
 30
0.0
 10
13.69915
 20
-7.7137
 30
0.0
 10
13.95992
 20
-7.38541
 30
0.0
 10
14.62857
 20
-7.31499
 30
0.0
 10
15.66288
 20
-7.06692
 30
0.0
 10
16.6864
 20
-6.27003
 30
0.0
 10
16.39148
 20
-6.17482
 30
0.0
 10
16.08315
 20
-6.15714
 30
0.0
 10
15.77722
 20
-6.19051
 30
0.0
 10
16.25566
 20
-6.04122
 30
0.0
 10
16.78267
 20
-5.80313
 30
0.0
 10
17.31332
 20
-5.42661
 30
0.0
 10
16.98675
 20
-5.3049
 30
0.0
 10
16.63888
 20
-5.28035
 30
0.0
 10
16.29383
 20
-5.31651
 30
0.0
 10
16.74422
 20
-5.20094
 30
0.0
 10
17.23648
 20
-5.01227
 30
0.0
 10
17.74053
 20
-4.7116
 30
0.0
 10
17.06091
 20
-4.39495
 30
0.0
 10
16.24793
 20
-4.51768
 30
0.0
 10
15.56862
 20
-4.74176
 30
0.0
  0
SPLINE
  5
B5
330
1F
100
AcDbEntity
  8
Layer 1
 62
    12
370
    35
100
AcDbSpline
210
0.0
220
0.0
230
1.0
 70
    11
 71
     3
 72
    17
 73
    13
 74
     0
 42
0.0000000001
 43
0.0000000001
 40
0.0
 40
0.0
 40
0.0
 40
0.0
 40
0.25
 40
0.25
 40
0.25
 40
0.5
 40
0.5
 40
0.5
 40
0.75
 40
0.75
 40
0.75
 40
1.0
 40
1.0
 40
1.0
 40
1.0
 10
4.1552
 20
-14.80214
 30
0.0
 10
-2.41119
 20
-14.80214
 30
0.0
 10
-7.75334
 20
-20.14432
 30
0.0
 10
-7.75334
 20
-26.71068
 30
0.0
 10
-7.75334
 20
-33.27704
 30
0.0
 10
-2.41119
 20
-38.61919
 30
0.0
 10
4.1552
 20
-38.61919
 30
0.0
 10
10.7216
 20
-38.61919
 30
0.0
 10
16.06371
 20
-33.27704
 30
0.0
 10
16.06371
 20
-26.71068
 30
0.0
 10
16.06371
 20
-20.14432
 30
0.0
 10
10.72156
 20
-14.80214
 30
0.0
 10
4.1552
 20
-14.80214
 30
0.0
  0
SPLINE
  5
B6
330
1F
100
AcDbEntity
  8
Layer 1
 62
    12
370
    35
100
AcDbSpline
210
0.0
220
0.0
230
1.0
 70
    11
 71
     3
 72
    53
 73
    49
 74
     0
 42
0.0000000001
 43
0.0000000001
 40
0.0
 40
0.0
 40
0.0
 40
0.0
 40
0.0625
 40
0.0625
 40
0.0625
 40
0.125
 40
0.125
 40
0.125
 40
0.1875
 40
0.1875
 40
0.1875
 40
0.25
 40
0.25
 40
0.25
 40
0.3125
 40
0.3125
 40
0.3125
 40
0.375
 40
0.375
 40
0.375
 40
0.4375
 40
0.4375
 40
0.4375
 40
0.5
 40
0.5
 40
0.5
 40
0.5625
 40
0.5625
 40
0.5625
 40
0.625
 40
0.625
 40
0.625
 40
0.6875
 40
0.6875
 40
0.6875
 40
0.75
 40
0.75
 40
0.75
 40
0.8125
 40
0.8125
 40
0.8125
 40
0.875
 40
0.875
 40
0.875
 40
0.9375
 40
0.9375
 40
0.9375
 40
1.0
 40
1.0
 40
1.0
 40
1.0
 10
4.1552
 20
-39.21891
 30
0.0
 10
2.46674
 20
-39.21891
 30
0.0
 10
0.82861
 20
-38.88815
 30
0.0
 10
-0.71366
 20
-38.23583
 30
0.0
 10
-2.20319
 20
-37.60584
 30
0.0
 10
-3.54082
 20
-36.70396
 30
0.0
 10
-4.68947
 20
-35.55535
 30
0.0
 10
-5.83811
 20
-34.40674
 30
0.0
 10
-6.73995
 20
-33.06904
 30
0.0
 10
-7.36998
 20
-31.57955
 30
0.0
 10
-8.0223
 20
-30.03727
 30
0.0
 10
-8.35306
 20
-28.39918
 30
0.0
 10
-8.35306
 20
-26.71068
 30
0.0
 10
-8.35306
 20
-25.02218
 30
0.0
 10
-8.0223
 20
-23.38406
 30
0.0
 10
-7.36998
 20
-21.84179
 30
0.0
 10
-6.73995
 20
-20.35225
 30
0.0
 10
-5.83811
 20
-19.01459
 30
0.0
 10
-4.68947
 20
-17.86598
 30
0.0
 10
-3.54082
 20
-16.71737
 30
0.0
 10
-2.20316
 20
-15.81549
 30
0.0
 10
-0.71366
 20
-15.1855
 30
0.0
 10
0.82861
 20
-14.53318
 30
0.0
 10
2.46674
 20
-14.20242
 30
0.0
 10
4.1552
 20
-14.20242
 30
0.0
 10
5.84367
 20
-14.20242
 30
0.0
 10
7.48179
 20
-14.53318
 30
0.0
 10
9.02406
 20
-15.1855
 30
0.0
 10
10.5136
 20
-15.81549
 30
0.0
 10
11.85126
 20
-16.71737
 30
0.0
 10
12.99987
 20
-17.86598
 30
0.0
 10
14.14848
 20
-19.01459
 30
0.0
 10
15.05036
 20
-20.35229
 30
0.0
 10
15.68035
 20
-21.84179
 30
0.0
 10
16.33267
 20
-23.38406
 30
0.0
 10
16.66343
 20
-25.02218
 30
0.0
 10
16.66343
 20
-26.71068
 30
0.0
 10
16.66343
 20
-28.39918
 30
0.0
 10
16.33267
 20
-30.03727
 30
0.0
 10
15.68035
 20
-31.57955
 30
0.0
 10
15.05036
 20
-33.06908
 30
0.0
 10
14.14848
 20
-34.40674
 30
0.0
 10
12.99987
 20
-35.55535
 30
0.0
 10
11.85126
 20
-36.70396
 30
0.0
 10
10.51356
 20
-37.60584
 30
0.0
 10
9.02406
 20
-38.23583
 30
0.0
 10
7.48176
 20
-38.88815
 30
0.0
 10
5.84367
 20
-39.21891
 30
0.0
 10
4.1552
 20
-39.21891
 30
0.0
  0
TEXT
  5
B8
330
1F
100
AcDbEntity
  8
Layer 1
 62
   250
100
AcDbText
 10
-51.01527643061638
 20
-44.69676805036545
 30
0.0
 40
2.6557848
  1
Download from www.ameede.com - www.zeeon.net-ameede.net
  7
0
100
AcDbText
  0
ENDSEC
  0
SECTION
  2
OBJECTS
  0
DICTIONARY
  5
C
330
0
100
AcDbDictionary
281
     1
  3
ACAD_DETAILVIEWSTYLE
350
C0
  3
ACAD_GROUP
350
D
  3
ACAD_LAYOUT
350
1A
  3
ACAD_MATERIAL
350
43
  3
ACAD_MLEADERSTYLE
350
5B
  3
ACAD_MLINESTYLE
350
17
  3
ACAD_PLOTSETTINGS
350
19
  3
ACAD_PLOTSTYLENAME
350
E
  3
ACAD_SCALELIST
350
47
  3
ACAD_SECTIONVIEWSTYLE
350
C1
  3
ACAD_TABLESTYLE
350
59
  3
ACAD_VISUALSTYLE
350
2A
  3
ACDB_RECOMPOSE_DATA
350
BD
  3
AcDbVariableDictionary
350
B9
  0
SUN
  5
5D
330
29
100
AcDbSun
 90
        1
290
     0
 63
     7
421
 16777215
 40
1.0
291
     1
 91
  2455826
 92
 54000000
292
     0
 70
     2
 71
   256
280
     1
  0
DICTIONARY
  5
C0
102
{ACAD_REACTORS
330
C
102
}
330
C
100
AcDbDictionary
281
     1
  0
DICTIONARY
  5
D
102
{ACAD_REACTORS
330
C
102
}
330
C
100
AcDbDictionary
281
     1
  0
DICTIONARY
  5
1A
102
{ACAD_REACTORS
330
C
102
}
330
C
100
AcDbDictionary
281
     1
  3
Layout1
350
1E
  3
Layout2
350
26
  3
Model
350
22
  0
DICTIONARY
  5
43
102
{ACAD_REACTORS
330
C
102
}
330
C
100
AcDbDictionary
281
     1
  3
ByBlock
350
45
  3
ByLayer
350
44
  3
Global
350
46
  0
DICTIONARY
  5
5B
102
{ACAD_REACTORS
330
C
102
}
330
C
100
AcDbDictionary
281
     1
  3
Standard
350
5C
  0
DICTIONARY
  5
17
102
{ACAD_REACTORS
330
C
102
}
330
C
100
AcDbDictionary
281
     1
  3
Standard
350
18
  0
DICTIONARY
  5
19
102
{ACAD_REACTORS
330
C
102
}
330
C
100
AcDbDictionary
281
     1
  0
ACDBDICTIONARYWDFLT
  5
E
102
{ACAD_REACTORS
330
C
102
}
330
C
100
AcDbDictionary
281
     1
  3
Normal
350
F
100
AcDbDictionaryWithDefault
340
F
  0
DICTIONARY
  5
47
102
{ACAD_REACTORS
330
C
102
}
330
C
100
AcDbDictionary
281
     1
  3
A0
350
48
  3
A1
350
49
  3
A2
350
4A
  3
A3
350
4B
  3
A4
350
4C
  3
A5
350
4D
  3
A6
350
4E
  3
A7
350
4F
  3
A8
350
50
  3
A9
350
51
  3
B1
350
52
  3
B2
350
53
  3
B3
350
54
  3
B4
350
55
  3
B5
350
56
  3
B6
350
57
  3
B7
350
58
  0
DICTIONARY
  5
C1
102
{ACAD_REACTORS
330
C
102
}
330
C
100
AcDbDictionary
281
     1
  0
DICTIONARY
  5
59
102
{ACAD_REACTORS
330
C
102
}
330
C
100
AcDbDictionary
281
     1
  3
Standard
350
5A
  0
DICTIONARY
  5
2A
102
{ACAD_REACTORS
330
C
102
}
330
C
100
AcDbDictionary
281
     1
  3
2dWireframe
350
2F
  3
Basic
350
32
  3
Brighten
350
36
  3
ColorChange
350
3A
  3
Conceptual
350
34
  3
Dim
350
35
  3
EdgeColorOff
350
3D
  3
Facepattern
350
39
  3
Flat
350
2B
  3
FlatWithEdges
350
2C
  3
Gouraud
350
2D
  3
GouraudWithEdges
350
2E
  3
Hidden
350
31
  3
JitterOff
350
3B
  3
Linepattern
350
38
  3
OverhangOff
350
3C
  3
Realistic
350
33
  3
Shaded
350
42
  3
Shaded with edges
350
41
  3
Shades of Gray
350
3E
  3
Sketchy
350
3F
  3
Thicken
350
37
  3
Wireframe
350
30
  3
X-Ray
350
40
  0
XRECORD
  5
BD
102
{ACAD_REACTORS
330
C
102
}
330
C
100
AcDbXrecord
280
     1
 90
        1
330
5A
  0
DICTIONARY
  5
B9
102
{ACAD_REACTORS
330
C
102
}
330
C
100
AcDbDictionary
281
     1
  3
CANNOSCALE
350
BA
  3
CMLEADERSTYLE
350
BF
  3
CTABLESTYLE
350
BE
  0
LAYOUT
  5
1E
102
{ACAD_REACTORS
330
1A
102
}
330
1A
100
AcDbPlotSettings
  1

  2
none_device
  4

  6

 40
0.0
 41
0.0
 42
0.0
 43
0.0
 44
0.0
 45
0.0
 46
0.0
 47
0.0
 48
0.0
 49
0.0
140
0.0
141
0.0
142
1.0
143
1.0
 70
   688
 72
     0
 73
     0
 74
     5
  7

 75
    16
 76
     0
 77
     2
 78
   300
147
1.0
148
0.0
149
0.0
100
AcDbLayout
  1
Layout1
 70
     1
 71
     1
 10
0.0
 20
0.0
 11
12.0
 21
9.0
 12
0.0
 22
0.0
 32
0.0
 14
1.000000000000000E+20
 24
1.000000000000000E+20
 34
1.000000000000000E+20
 15
-1.000000000000000E+20
 25
-1.000000000000000E+20
 35
-1.000000000000000E+20
146
0.0
 13
0.0
 23
0.0
 33
0.0
 16
1.0
 26
0.0
 36
0.0
 17
0.0
 27
1.0
 37
0.0
 76
     0
330
1B
  0
LAYOUT
  5
26
102
{ACAD_REACTORS
330
1A
102
}
330
1A
100
AcDbPlotSettings
  1

  2
none_device
  4

  6

 40
0.0
 41
0.0
 42
0.0
 43
0.0
 44
0.0
 45
0.0
 46
0.0
 47
0.0
 48
0.0
 49
0.0
140
0.0
141
0.0
142
1.0
143
1.0
 70
   688
 72
     0
 73
     0
 74
     5
  7

 75
    16
 76
     0
 77
     2
 78
   300
147
1.0
148
0.0
149
0.0
100
AcDbLayout
  1
Layout2
 70
     1
 71
     2
 10
0.0
 20
0.0
 11
0.0
 21
0.0
 12
0.0
 22
0.0
 32
0.0
 14
0.0
 24
0.0
 34
0.0
 15
0.0
 25
0.0
 35
0.0
146
0.0
 13
0.0
 23
0.0
 33
0.0
 16
1.0
 26
0.0
 36
0.0
 17
0.0
 27
1.0
 37
0.0
 76
     0
330
23
  0
LAYOUT
  5
22
102
{ACAD_REACTORS
330
1A
102
}
330
1A
100
AcDbPlotSettings
  1

  2
none_device
  4
Letter_(8.50_x_11.00_Inches)
  6

 40
6.35
 41
6.35
 42
6.35000508
 43
6.35000508
 44
215.9
 45
279.4
 46
0.0
 47
0.0
 48
0.0
 49
0.0
140
0.0
141
0.0
142
1.0
143
1.0
 70
  1712
 72
     0
 73
     0
 74
     0
  7

 75
     0
 76
     0
 77
     2
 78
   300
147
1.0
148
0.0
149
0.0
100
AcDbLayout
  1
Model
 70
     1
 71
     0
 10
0.0
 20
0.0
 11
12.0
 21
9.0
 12
0.0
 22
0.0
 32
0.0
 14
-50.73126
 24
-44.73734
 34
0.0
 15
53.92325
 25
43.03977
 35
0.0
146
0.0
 13
0.0
 23
0.0
 33
0.0
 16
1.0
 26
0.0
 36
0.0
 17
0.0
 27
1.0
 37
0.0
 76
     0
330
1F
331
29
  0
MATERIAL
  5
45
102
{ACAD_REACTORS
330
43
102
}
330
43
100
AcDbMaterial
  1
ByBlock
 72
     1
 94
      127
  0
MATERIAL
  5
44
102
{ACAD_REACTORS
330
43
102
}
330
43
100
AcDbMaterial
  1
ByLayer
 72
     1
 94
      127
  0
MATERIAL
  5
46
102
{ACAD_REACTORS
330
43
102
}
330
43
100
AcDbMaterial
  1
Global
 72
     1
 94
      127
  0
MLEADERSTYLE
  5
5C
102
{ACAD_REACTORS
330
5B
102
}
330
5B
100
AcDbMLeaderStyle
179
     2
170
     2
171
     1
172
     0
 90
        2
 40
0.0
 41
0.0
173
     1
 91
-1056964608
340
14
 92
       -2
290
     1
 42
0.09
291
     1
 43
0.36
  3
Standard
341
0
 44
0.18
300

342
11
174
     1
178
     6
175
     1
176
     0
 93
-1056964608
 45
0.18
292
     0
297
     0
 46
0.18
343
0
 94
-1056964608
 47
1.0
 49
1.0
140
1.0
293
     1
141
0.0
294
     1
177
     0
142
1.0
295
     0
296
     0
143
0.125
271
     0
272
     9
273
     9
298
     0
  0
MLINESTYLE
  5
18
102
{ACAD_REACTORS
330
17
102
}
330
17
100
AcDbMlineStyle
  2
Standard
 70
     0
  3

 62
   256
 51
90.0
 52
90.0
 71
     2
 49
0.5
 62
   256
  6
BYLAYER
 49
-0.5
 62
   256
  6
BYLAYER
  0
ACDBPLACEHOLDER
  5
F
102
{ACAD_REACTORS
330
E
102
}
330
E
  0
SCALE
  5
48
102
{ACAD_REACTORS
330
47
102
}
330
47
100
AcDbScale
 70
     0
300
1:1
140
1.0
141
1.0
290
     1
  0
SCALE
  5
49
102
{ACAD_REACTORS
330
47
102
}
330
47
100
AcDbScale
 70
     0
300
1/128" = 1'-0"
140
0.0078125
141
12.0
290
     0
  0
SCALE
  5
4A
102
{ACAD_REACTORS
330
47
102
}
330
47
100
AcDbScale
 70
     0
300
1/64" = 1'-0"
140
0.015625
141
12.0
290
     0
  0
SCALE
  5
4B
102
{ACAD_REACTORS
330
47
102
}
330
47
100
AcDbScale
 70
     0
300
1/32" = 1'-0"
140
0.03125
141
12.0
290
     0
  0
SCALE
  5
4C
102
{ACAD_REACTORS
330
47
102
}
330
47
100
AcDbScale
 70
     0
300
1/16" = 1'-0"
140
0.0625
141
12.0
290
     0
  0
SCALE
  5
4D
102
{ACAD_REACTORS
330
47
102
}
330
47
100
AcDbScale
 70
     0
300
3/32" = 1'-0"
140
0.09375
141
12.0
290
     0
  0
SCALE
  5
4E
102
{ACAD_REACTORS
330
47
102
}
330
47
100
AcDbScale
 70
     0
300
1/8" = 1'-0"
140
0.125
141
12.0
290
     0
  0
SCALE
  5
4F
102
{ACAD_REACTORS
330
47
102
}
330
47
100
AcDbScale
 70
     0
300
3/16" = 1'-0"
140
0.1875
141
12.0
290
     0
  0
SCALE
  5
50
102
{ACAD_REACTORS
330
47
102
}
330
47
100
AcDbScale
 70
     0
300
1/4" = 1'-0"
140
0.25
141
12.0
290
     0
  0
SCALE
  5
51
102
{ACAD_REACTORS
330
47
102
}
330
47
100
AcDbScale
 70
     0
300
3/8" = 1'-0"
140
0.375
141
12.0
290
     0
  0
SCALE
  5
52
102
{ACAD_REACTORS
330
47
102
}
330
47
100
AcDbScale
 70
     0
300
1/2" = 1'-0"
140
0.5
141
12.0
290
     0
  0
SCALE
  5
53
102
{ACAD_REACTORS
330
47
102
}
330
47
100
AcDbScale
 70
     0
300
3/4" = 1'-0"
140
0.75
141
12.0
290
     0
  0
SCALE
  5
54
102
{ACAD_REACTORS
330
47
102
}
330
47
100
AcDbScale
 70
     0
300
1" = 1'-0"
140
1.0
141
12.0
290
     0
  0
SCALE
  5
55
102
{ACAD_REACTORS
330
47
102
}
330
47
100
AcDbScale
 70
     0
300
1-1/2" = 1'-0"
140
1.5
141
12.0
290
     0
  0
SCALE
  5
56
102
{ACAD_REACTORS
330
47
102
}
330
47
100
AcDbScale
 70
     0
300
3" = 1'-0"
140
3.0
141
12.0
290
     0
  0
SCALE
  5
57
102
{ACAD_REACTORS
330
47
102
}
330
47
100
AcDbScale
 70
     0
300
6" = 1'-0"
140
6.0
141
12.0
290
     0
  0
SCALE
  5
58
102
{ACAD_REACTORS
330
47
102
}
330
47
100
AcDbScale
 70
     0
300
1'-0" = 1'-0"
140
12.0
141
12.0
290
     0
  0
TABLESTYLE
  5
5A
102
{ACAD_REACTORS
330
59
102
}
102
{ACAD_XDICTIONARY
360
BB
102
}
330
59
100
AcDbTableStyle
  3
Standard
 70
     0
 71
     0
 40
0.06
 41
0.06
280
     0
281
     0
  7
Standard
140
0.18
170
     2
 62
     0
 63
   257
283
     0
 90
        4
 91
        0
  1

274
    -2
284
     1
 64
     0
275
    -2
285
     1
 65
     0
276
    -2
286
     1
 66
     0
277
    -2
287
     1
 67
     0
278
    -2
288
     1
 68
     0
279
    -2
289
     1
 69
     0
  7
Standard
140
0.25
170
     5
 62
     0
 63
   257
283
     0
 90
        4
 91
        0
  1

274
    -2
284
     1
 64
     0
275
    -2
285
     1
 65
     0
276
    -2
286
     1
 66
     0
277
    -2
287
     1
 67
     0
278
    -2
288
     1
 68
     0
279
    -2
289
     1
 69
     0
  7
Standard
140
0.18
170
     5
 62
     0
 63
   257
283
     0
 90
        4
 91
        0
  1

274
    -2
284
     1
 64
     0
275
    -2
285
     1
 65
     0
276
    -2
286
     1
 66
     0
277
    -2
287
     1
 67
     0
278
    -2
288
     1
 68
     0
279
    -2
289
     1
 69
     0
  0
VISUALSTYLE
  5
2F
102
{ACAD_REACTORS
330
2A
102
}
330
2A
100
AcDbVisualStyle
  2
2dWireframe
 70
     4
177
     3
291
     0
 70
    58
 90
        0
176
     1
 90
        2
176
     1
 90
        0
176
     1
 90
        0
176
     1
 40
0.6
176
     1
 40
30.0
176
     1
 62
     7
420
 16777215
176
     1
 90
        1
176
     1
 90
        4
176
     1
 62
     7
176
     1
 62
   257
176
     1
 90
        1
176
     1
 90
        1
176
     1
 40
1.0
176
     1
 90
        0
176
     1
 62
   257
176
     1
 40
1.0
176
     1
 90
        1
176
     1
 90
        6
176
     1
 90
        2
176
     1
 62
     7
176
     1
 90
        5
176
     1
 90
        0
176
     1
 90
        0
176
     1
290
     0
176
     1
 90
        1
176
     1
 40
0.0
176
     1
 90
        0
176
     1
290
     1
176
     1
290
     1
176
     1
290
     0
176
     1
290
     0
176
     1
290
     0
176
     1
290
     0
176
     1
290
     0
176
     1
290
     0
176
     1
290
     0
176
     1
 90
       50
176
     1
 40
0.0
176
     1
 40
1.0
176
     1
 90
        0
176
     1
 62
    18
420
        0
176
     1
 90
       50
176
     1
 90
        3
176
     1
 62
     5
420
      255
176
     1
290
     0
176
     1
 90
       50
176
     1
 90
       50
176
     1
 90
       50
176
     1
290
     0
176
     1
 90
       50
176
     1
 62
   256
176
     0
 40
1.0
176
     0
 90
        2
176
     1
  1
strokes_ogs.tif
176
     1
290
     0
176
     1
 40
1.0
176
     1
 40
1.0
176
     1
  0
VISUALSTYLE
  5
32
102
{ACAD_REACTORS
330
2A
102
}
330
2A
100
AcDbVisualStyle
  2
Basic
 70
     7
177
     3
291
     1
 70
    58
 90
        1
176
     1
 90
        0
176
     1
 90
        1
176
     1
 90
        0
176
     1
 40
0.6
176
     1
 40
30.0
176
     1
 62
     7
420
 16777215
176
     1
 90
        0
176
     1
 90
        4
176
     1
 62
     7
176
     1
 62
   257
176
     1
 90
        1
176
     1
 90
        1
176
     1
 40
1.0
176
     1
 90
        8
176
     1
 62
     7
176
     1
 40
1.0
176
     1
 90
        1
176
     1
 90
        6
176
     1
 90
        2
176
     1
 62
     7
176
     1
 90
        5
176
     1
 90
        0
176
     1
 90
        0
176
     1
290
     0
176
     1
 90
        1
176
     1
 40
0.0
176
     1
 90
        0
176
     1
290
     0
176
     1
290
     1
176
     1
290
     1
176
     1
290
     0
176
     1
290
     0
176
     1
290
     0
176
     1
290
     0
176
     1
290
     0
176
     1
290
     0
176
     1
 90
       50
176
     1
 40
0.0
176
     1
 40
1.0
176
     1
 90
        0
176
     1
 62
    18
420
        0
176
     1
 90
       50
176
     1
 90
        3
176
     1
 62
     5
420
      255
176
     1
290
     0
176
     1
 90
       50
176
     1
 90
       50
176
     1
 90
       50
176
     1
290
     0
176
     1
 90
       50
176
     1
 62
   256
176
     0
 40
1.0
176
     0
 90
        2
176
     1
  1
strokes_ogs.tif
176
     1
290
     0
176
     1
 40
1.0
176
     1
 40
1.0
176
     1
  0
VISUALSTYLE
  5
36
102
{ACAD_REACTORS
330
2A
102
}
330
2A
100
AcDbVisualStyle
  2
Brighten
 70
    12
177
     3
291
     1
 70
    58
 90
        2
176
     1
 90
        2
176
     1
 90
        0
176
     1
 90
        0
176
     1
 40
0.6
176
     1
 40
30.0
176
     1
 62
     7
420
 16777215
176
     1
 90
        1
176
     1
 90
        4
176
     1
 62
     7
176
     1
 62
   257
176
     1
 90
        1
176
     1
 90
        1
176
     1
 40
1.0
176
     1
 90
        8
176
     1
 62
     7
176
     1
 40
1.0
176
     1
 90
        1
176
     1
 90
        6
176
     1
 90
        2
176
     1
 62
     7
176
     1
 90
        5
176
     1
 90
        0
176
     1
 90
        0
176
     1
290
     0
176
     1
 90
        1
176
     1
 40
50.0
176
     1
 90
        0
176
     1
290
     0
176
     1
290
     1
176
     1
290
     1
176
     1
290
     0
176
     1
290
     0
176
     1
290
     0
176
     1
290
     0
176
     1
290
     0
176
     1
290
     0
176
     1
 90
       50
176
     1
 40
0.0
176
     1
 40
1.0
176
     1
 90
        0
176
     1
 62
    18
420
        0
176
     1
 90
       50
176
     1
 90
        3
176
     1
 62
     5
420
      255
176
     1
290
     0
176
     1
 90
       50
176
     1
 90
       50
176
     1
 90
       50
176
     1
290
     0
176
     1
 90
       50
176
     1
 62
   256
176
     0
 40
1.0
176
     0
 90
        2
176
     1
  1
strokes_ogs.tif
176
     1
290
     0
176
     1
 40
1.0
176
     1
 40
1.0
176
     1
  0
VISUALSTYLE
  5
3A
102
{ACAD_REACTORS
330
2A
102
}
330
2A
100
AcDbVisualStyle
  2
ColorChange
 70
    16
177
     3
291
     1
 70
    58
 90
        2
176
     1
 90
        2
176
     1
 90
        3
176
     1
 90
        0
176
     1
 40
0.6
176
     1
 40
30.0
176
     1
 62
     8
420
  8421504
176
     1
 90
        1
176
     1
 90
        4
176
     1
 62
     7
176
     1
 62
   257
176
     1
 90
        1
176
     1
 90
        1
176
     1
 40
1.0
176
     1
 90
        8
176
     1
 62
     8
420
  8421504
176
     1
 40
1.0
176
     1
 90
        1
176
     1
 90
        6
176
     1
 90
        2
176
     1
 62
     7
176
     1
 90
        5
176
     1
 90
        0
176
     1
 90
        0
176
     1
290
     0
176
     1
 90
        1
176
     1
 40
0.0
176
     1
 90
        0
176
     1
290
     0
176
     1
290
     1
176
     1
290
     1
176
     1
290
     0
176
     1
290
     0
176
     1
290
     0
176
     1
290
     0
176
     1
290
     0
176
     1
290
     0
176
     1
 90
       50
176
     1
 40
0.0
176
     1
 40
1.0
176
     1
 90
        0
176
     1
 62
    18
420
        0
176
     1
 90
       50
176
     1
 90
        3
176
     1
 62
     5
420
      255
176
     1
290
     0
176
     1
 90
       50
176
     1
 90
       50
176
     1
 90
       50
176
     1
290
     0
176
     1
 90
       50
176
     1
 62
   256
176
     0
 40
1.0
176
     0
 90
        2
176
     1
  1
strokes_ogs.tif
176
     1
290
     0
176
     1
 40
1.0
176
     1
 40
1.0
176
     1
  0
VISUALSTYLE
  5
34
102
{ACAD_REACTORS
330
2A
102
}
330
2A
100
AcDbVisualStyle
  2
Conceptual
 70
     9
177
     3
291
     0
 70
    58
 90
        3
176
     1
 90
        2
176
     1
 90
        0
176
     1
 90
        0
176
     1
 40
0.6
176
     1
 40
30.0
176
     1
 62
     7
420
 16777215
176
     1
 90
        2
176
     1
 90
        2
176
     1
 62
     7
176
     1
 62
   257
176
     1
 90
        1
176
     1
 90
        1
176
     1
 40
179.0
176
     1
 90
        8
176
     1
 62
     7
176
     1
 40
1.0
176
     1
 90
        1
176
     1
 90
        6
176
     1
 90
        2
176
     1
 62
     7
176
     1
 90
        3
176
     1
 90
        0
176
     1
 90
        0
176
     1
290
     0
176
     1
 90
        1
176
     1
 40
0.0
176
     1
 90
        0
176
     1
290
     0
176
     1
290
     1
176
     1
290
     1
176
     1
290
     0
176
     1
290
     0
176
     1
290
     0
176
     1
290
     0
176
     1
290
     0
176
     1
290
     0
176
     1
 90
       50
176
     1
 40
0.0
176
     1
 40
1.0
176
     1
 90
        0
176
     1
 62
    18
420
        0
176
     1
 90
       50
176
     1
 90
        3
176
     1
 62
     5
420
      255
176
     1
290
     0
176
     1
 90
       50
176
     1
 90
       50
176
     1
 90
       50
176
     1
290
     0
176
     1
 90
       50
176
     1
 62
   256
176
     0
 40
1.0
176
     0
 90
        2
176
     1
  1
strokes_ogs.tif
176
     1
290
     0
176
     1
 40
1.0
176
     1
 40
1.0
176
     1
  0
VISUALSTYLE
  5
35
102
{ACAD_REACTORS
330
2A
102
}
330
2A
100
AcDbVisualStyle
  2
Dim
 70
    11
177
     3
291
     1
 70
    58
 90
        2
176
     1
 90
        2
176
     1
 90
        0
176
     1
 90
        0
176
     1
 40
0.6
176
     1
 40
30.0
176
     1
 62
     7
420
 16777215
176
     1
 90
        1
176
     1
 90
        4
176
     1
 62
     7
176
     1
 62
   257
176
     1
 90
        1
176
     1
 90
        1
176
     1
 40
1.0
176
     1
 90
        8
176
     1
 62
     7
176
     1
 40
1.0
176
     1
 90
        1
176
     1
 90
        6
176
     1
 90
        2
176
     1
 62
     7
176
     1
 90
        5
176
     1
 90
        0
176
     1
 90
        0
176
     1
290
     0
176
     1
 90
        1
176
     1
 40
-50.0
176
     1
 90
        0
176
     1
290
     0
176
     1
290
     1
176
     1
290
     1
176
     1
290
     0
176
     1
290
     0
176
     1
290
     0
176
     1
290
     0
176
     1
290
     0
176
     1
290
     0
176
     1
 90
       50
176
     1
 40
0.0
176
     1
 40
1.0
176
     1
 90
        0
176
     1
 62
    18
420
        0
176
     1
 90
       50
176
     1
 90
        3
176
     1
 62
     5
420
      255
176
     1
290
     0
176
     1
 90
       50
176
     1
 90
       50
176
     1
 90
       50
176
     1
290
     0
176
     1
 90
       50
176
     1
 62
   256
176
     0
 40
1.0
176
     0
 90
        2
176
     1
  1
strokes_ogs.tif
176
     1
290
     0
176
     1
 40
1.0
176
     1
 40
1.0
176
     1
  0
VISUALSTYLE
  5
3D
102
{ACAD_REACTORS
330
2A
102
}
330
2A
100
AcDbVisualStyle
  2
EdgeColorOff
 70
    22
177
     3
291
     1
 70
    58
 90
        2
176
     0
 90
        2
176
     0
 90
        0
176
     0
 90
        0
176
     0
 40
0.6
176
     0
 40
30.0
176
     0
 62
     7
420
 16777215
176
     0
 90
        1
176
     0
 90
        4
176
     0
 62
     7
176
     0
 62
   257
176
     0
 90
        1
176
     0
 90
        1
176
     0
 40
1.0
176
     0
 90
        8
176
     2
 62
     7
176
     0
 40
1.0
176
     0
 90
        1
176
     0
 90
        6
176
     0
 90
        2
176
     0
 62
     7
176
     0
 90
        5
176
     0
 90
        0
176
     0
 90
        0
176
     0
290
     0
176
     0
 90
        1
176
     0
 40
0.0
176
     0
 90
        0
176
     0
290
     0
176
     0
290
     1
176
     0
290
     1
176
     0
290
     0
176
     0
290
     0
176
     0
290
     0
176
     0
290
     0
176
     0
290
     0
176
     0
290
     0
176
     0
 90
       50
176
     0
 40
0.0
176
     0
 40
1.0
176
     0
 90
        0
176
     0
 62
    18
420
        0
176
     0
 90
       50
176
     0
 90
        3
176
     0
 62
     5
420
      255
176
     0
290
     0
176
     0
 90
       50
176
     0
 90
       50
176
     0
 90
       50
176
     0
290
     0
176
     0
 90
       50
176
     0
 62
   256
176
     0
 40
1.0
176
     0
 90
        2
176
     0
  1
strokes_ogs.tif
176
     0
290
     0
176
     0
 40
1.0
176
     0
 40
1.0
176
     0
  0
VISUALSTYLE
  5
39
102
{ACAD_REACTORS
330
2A
102
}
330
2A
100
AcDbVisualStyle
  2
Facepattern
 70
    15
177
     3
291
     1
 70
    58
 90
        2
176
     1
 90
        2
176
     1
 90
        0
176
     1
 90
        0
176
     1
 40
0.6
176
     1
 40
30.0
176
     1
 62
     7
420
 16777215
176
     1
 90
        1
176
     1
 90
        4
176
     1
 62
     7
176
     1
 62
   257
176
     1
 90
        1
176
     1
 90
        1
176
     1
 40
1.0
176
     1
 90
        8
176
     1
 62
     7
176
     1
 40
1.0
176
     1
 90
        1
176
     1
 90
        6
176
     1
 90
        2
176
     1
 62
     7
176
     1
 90
        5
176
     1
 90
        0
176
     1
 90
        0
176
     1
290
     0
176
     1
 90
        1
176
     1
 40
0.0
176
     1
 90
        0
176
     1
290
     0
176
     1
290
     1
176
     1
290
     1
176
     1
290
     0
176
     1
290
     0
176
     1
290
     0
176
     1
290
     0
176
     1
290
     0
176
     1
290
     0
176
     1
 90
       50
176
     1
 40
0.0
176
     1
 40
1.0
176
     1
 90
        0
176
     1
 62
    18
420
        0
176
     1
 90
       50
176
     1
 90
        3
176
     1
 62
     5
420
      255
176
     1
290
     0
176
     1
 90
       50
176
     1
 90
       50
176
     1
 90
       50
176
     1
290
     0
176
     1
 90
       50
176
     1
 62
   256
176
     0
 40
1.0
176
     0
 90
        2
176
     1
  1
strokes_ogs.tif
176
     1
290
     0
176
     1
 40
1.0
176
     1
 40
1.0
176
     1
  0
VISUALSTYLE
  5
2B
102
{ACAD_REACTORS
330
2A
102
}
330
2A
100
AcDbVisualStyle
  2
Flat
 70
     0
177
     3
291
     1
 70
    58
 90
        2
176
     1
 90
        1
176
     1
 90
        1
176
     1
 90
        2
176
     1
 40
0.6
176
     1
 40
30.0
176
     1
 62
     7
420
 16777215
176
     1
 90
        0
176
     1
 90
        0
176
     1
 62
     7
176
     1
 62
   257
176
     1
 90
        1
176
     1
 90
        1
176
     1
 40
1.0
176
     1
 90
        8
176
     1
 62
     7
176
     1
 40
1.0
176
     1
 90
        1
176
     1
 90
        6
176
     1
 90
        2
176
     1
 62
     7
176
     1
 90
        5
176
     1
 90
        0
176
     1
 90
        0
176
     1
290
     0
176
     1
 90
       13
176
     1
 40
0.0
176
     1
 90
        0
176
     1
290
     0
176
     1
290
     1
176
     1
290
     1
176
     1
290
     0
176
     1
290
     0
176
     1
290
     0
176
     1
290
     0
176
     1
290
     0
176
     1
290
     0
176
     1
 90
       50
176
     1
 40
0.0
176
     1
 40
1.0
176
     1
 90
        0
176
     1
 62
    18
420
        0
176
     1
 90
       50
176
     1
 90
        3
176
     1
 62
     5
420
      255
176
     1
290
     0
176
     1
 90
       50
176
     1
 90
       50
176
     1
 90
       50
176
     1
290
     0
176
     1
 90
       50
176
     1
 62
   256
176
     0
 40
1.0
176
     0
 90
        2
176
     1
  1
strokes_ogs.tif
176
     1
290
     0
176
     1
 40
1.0
176
     1
 40
1.0
176
     1
  0
VISUALSTYLE
  5
2C
102
{ACAD_REACTORS
330
2A
102
}
330
2A
100
AcDbVisualStyle
  2
FlatWithEdges
 70
     1
177
     3
291
     1
 70
    58
 90
        2
176
     1
 90
        1
176
     1
 90
        1
176
     1
 90
        2
176
     1
 40
0.6
176
     1
 40
30.0
176
     1
 62
     7
420
 16777215
176
     1
 90
        1
176
     1
 90
        0
176
     1
 62
     7
176
     1
 62
   257
176
     1
 90
        1
176
     1
 90
        1
176
     1
 40
1.0
176
     1
 90
        0
176
     1
 62
   257
176
     1
 40
1.0
176
     1
 90
        1
176
     1
 90
        6
176
     1
 90
        2
176
     1
 62
     7
176
     1
 90
        5
176
     1
 90
        0
176
     1
 90
        0
176
     1
290
     0
176
     1
 90
       13
176
     1
 40
0.0
176
     1
 90
        0
176
     1
290
     0
176
     1
290
     1
176
     1
290
     1
176
     1
290
     0
176
     1
290
     0
176
     1
290
     0
176
     1
290
     0
176
     1
290
     0
176
     1
290
     0
176
     1
 90
       50
176
     1
 40
0.0
176
     1
 40
1.0
176
     1
 90
        0
176
     1
 62
    18
420
        0
176
     1
 90
       50
176
     1
 90
        3
176
     1
 62
     5
420
      255
176
     1
290
     0
176
     1
 90
       50
176
     1
 90
       50
176
     1
 90
       50
176
     1
290
     0
176
     1
 90
       50
176
     1
 62
   256
176
     0
 40
1.0
176
     0
 90
        2
176
     1
  1
strokes_ogs.tif
176
     1
290
     0
176
     1
 40
1.0
176
     1
 40
1.0
176
     1
  0
VISUALSTYLE
  5
2D
102
{ACAD_REACTORS
330
2A
102
}
330
2A
100
AcDbVisualStyle
  2
Gouraud
 70
     2
177
     3
291
     1
 70
    58
 90
        2
176
     1
 90
        2
176
     1
 90
        1
176
     1
 90
        2
176
     1
 40
0.6
176
     1
 40
30.0
176
     1
 62
     7
420
 16777215
176
     1
 90
        0
176
     1
 90
        0
176
     1
 62
     7
176
     1
 62
   257
176
     1
 90
        1
176
     1
 90
        1
176
     1
 40
1.0
176
     1
 90
        0
176
     1
 62
     7
176
     1
 40
1.0
176
     1
 90
        1
176
     1
 90
        6
176
     1
 90
        2
176
     1
 62
     7
176
     1
 90
        5
176
     1
 90
        0
176
     1
 90
        0
176
     1
290
     0
176
     1
 90
       13
176
     1
 40
0.0
176
     1
 90
        0
176
     1
290
     0
176
     1
290
     1
176
     1
290
     1
176
     1
290
     0
176
     1
290
     0
176
     1
290
     0
176
     1
290
     0
176
     1
290
     0
176
     1
290
     0
176
     1
 90
       50
176
     1
 40
0.0
176
     1
 40
1.0
176
     1
 90
        0
176
     1
 62
    18
420
        0
176
     1
 90
       50
176
     1
 90
        3
176
     1
 62
     5
420
      255
176
     1
290
     0
176
     1
 90
       50
176
     1
 90
       50
176
     1
 90
       50
176
     1
290
     0
176
     1
 90
       50
176
     1
 62
   256
176
     0
 40
1.0
176
     0
 90
        2
176
     1
  1
strokes_ogs.tif
176
     1
290
     0
176
     1
 40
1.0
176
     1
 40
1.0
176
     1
  0
VISUALSTYLE
  5
2E
102
{ACAD_REACTORS
330
2A
102
}
330
2A
100
AcDbVisualStyle
  2
GouraudWithEdges
 70
     3
177
     3
291
     1
 70
    58
 90
        2
176
     1
 90
        2
176
     1
 90
        1
176
     1
 90
        2
176
     1
 40
0.6
176
     1
 40
30.0
176
     1
 62
     7
420
 16777215
176
     1
 90
        1
176
     1
 90
        0
176
     1
 62
     7
176
     1
 62
   257
176
     1
 90
        1
176
     1
 90
        1
176
     1
 40
1.0
176
     1
 90
        0
176
     1
 62
   257
176
     1
 40
1.0
176
     1
 90
        1
176
     1
 90
        6
176
     1
 90
        2
176
     1
 62
     7
176
     1
 90
        5
176
     1
 90
        0
176
     1
 90
        0
176
     1
290
     0
176
     1
 90
       13
176
     1
 40
0.0
176
     1
 90
        0
176
     1
290
     0
176
     1
290
     1
176
     1
290
     1
176
     1
290
     0
176
     1
290
     0
176
     1
290
     0
176
     1
290
     0
176
     1
290
     0
176
     1
290
     0
176
     1
 90
       50
176
     1
 40
0.0
176
     1
 40
1.0
176
     1
 90
        0
176
     1
 62
    18
420
        0
176
     1
 90
       50
176
     1
 90
        3
176
     1
 62
     5
420
      255
176
     1
290
     0
176
     1
 90
       50
176
     1
 90
       50
176
     1
 90
       50
176
     1
290
     0
176
     1
 90
       50
176
     1
 62
   256
176
     0
 40
1.0
176
     0
 90
        2
176
     1
  1
strokes_ogs.tif
176
     1
290
     0
176
     1
 40
1.0
176
     1
 40
1.0
176
     1
  0
VISUALSTYLE
  5
31
102
{ACAD_REACTORS
330
2A
102
}
330
2A
100
AcDbVisualStyle
  2
Hidden
 70
     6
177
     3
291
     0
 70
    58
 90
        1
176
     1
 90
        2
176
     1
 90
        2
176
     1
 90
        0
176
     1
 40
0.6
176
     1
 40
30.0
176
     1
 62
     7
420
 16777215
176
     1
 90
        2
176
     1
 90
        2
176
     1
 62
     7
176
     1
 62
   257
176
     1
 90
        2
176
     1
 90
        1
176
     1
 40
40.0
176
     1
 90
        0
176
     1
 62
   257
176
     1
 40
1.0
176
     1
 90
        1
176
     1
 90
        6
176
     1
 90
        2
176
     1
 62
     7
176
     1
 90
        3
176
     1
 90
        0
176
     1
 90
        0
176
     1
290
     0
176
     1
 90
        1
176
     1
 40
0.0
176
     1
 90
        0
176
     1
290
     0
176
     1
290
     1
176
     1
290
     1
176
     1
290
     0
176
     1
290
     0
176
     1
290
     0
176
     1
290
     0
176
     1
290
     0
176
     1
290
     0
176
     1
 90
       50
176
     1
 40
0.0
176
     1
 40
1.0
176
     1
 90
        0
176
     1
 62
    18
420
        0
176
     1
 90
       50
176
     1
 90
        3
176
     1
 62
     5
420
      255
176
     1
290
     0
176
     1
 90
       50
176
     1
 90
       50
176
     1
 90
       50
176
     1
290
     0
176
     1
 90
       50
176
     1
 62
   256
176
     0
 40
1.0
176
     0
 90
        2
176
     1
  1
strokes_ogs.tif
176
     1
290
     0
176
     1
 40
1.0
176
     1
 40
1.0
176
     1
  0
VISUALSTYLE
  5
3B
102
{ACAD_REACTORS
330
2A
102
}
330
2A
100
AcDbVisualStyle
  2
JitterOff
 70
    20
177
     3
291
     1
 70
    58
 90
        2
176
     0
 90
        2
176
     0
 90
        0
176
     0
 90
        0
176
     0
 40
0.6
176
     0
 40
30.0
176
     0
 62
     7
420
 16777215
176
     0
 90
        1
176
     0
 90
        4
176
     0
 62
     7
176
     0
 62
   257
176
     0
 90
        1
176
     0
 90
        1
176
     0
 40
1.0
176
     0
 90
       10
176
     2
 62
     7
176
     0
 40
1.0
176
     0
 90
        1
176
     0
 90
        6
176
     0
 90
        2
176
     0
 62
     7
176
     0
 90
        5
176
     0
 90
        0
176
     0
 90
        0
176
     0
290
     0
176
     0
 90
        1
176
     0
 40
0.0
176
     0
 90
        0
176
     0
290
     0
176
     0
290
     1
176
     0
290
     1
176
     0
290
     0
176
     0
290
     0
176
     0
290
     0
176
     0
290
     0
176
     0
290
     0
176
     0
290
     0
176
     0
 90
       50
176
     0
 40
0.0
176
     0
 40
1.0
176
     0
 90
        0
176
     0
 62
    18
420
        0
176
     0
 90
       50
176
     0
 90
        3
176
     0
 62
     5
420
      255
176
     0
290
     0
176
     0
 90
       50
176
     0
 90
       50
176
     0
 90
       50
176
     0
290
     0
176
     0
 90
       50
176
     0
 62
   256
176
     0
 40
1.0
176
     0
 90
        2
176
     0
  1
strokes_ogs.tif
176
     0
290
     0
176
     0
 40
1.0
176
     0
 40
1.0
176
     0
  0
VISUALSTYLE
  5
38
102
{ACAD_REACTORS
330
2A
102
}
330
2A
100
AcDbVisualStyle
  2
Linepattern
 70
    14
177
     3
291
     1
 70
    58
 90
        2
176
     1
 90
        2
176
     1
 90
        0
176
     1
 90
        0
176
     1
 40
0.6
176
     1
 40
30.0
176
     1
 62
     7
420
 16777215
176
     1
 90
        1
176
     1
 90
        4
176
     1
 62
     7
176
     1
 62
   257
176
     1
 90
        7
176
     1
 90
        7
176
     1
 40
1.0
176
     1
 90
        8
176
     1
 62
     7
176
     1
 40
1.0
176
     1
 90
        1
176
     1
 90
        6
176
     1
 90
        2
176
     1
 62
     7
176
     1
 90
        5
176
     1
 90
        0
176
     1
 90
        0
176
     1
290
     0
176
     1
 90
        1
176
     1
 40
0.0
176
     1
 90
        0
176
     1
290
     0
176
     1
290
     1
176
     1
290
     1
176
     1
290
     0
176
     1
290
     0
176
     1
290
     0
176
     1
290
     0
176
     1
290
     0
176
     1
290
     0
176
     1
 90
       50
176
     1
 40
0.0
176
     1
 40
1.0
176
     1
 90
        0
176
     1
 62
    18
420
        0
176
     1
 90
       50
176
     1
 90
        3
176
     1
 62
     5
420
      255
176
     1
290
     0
176
     1
 90
       50
176
     1
 90
       50
176
     1
 90
       50
176
     1
290
     0
176
     1
 90
       50
176
     1
 62
   256
176
     0
 40
1.0
176
     0
 90
        2
176
     1
  1
strokes_ogs.tif
176
     1
290
     0
176
     1
 40
1.0
176
     1
 40
1.0
176
     1
  0
VISUALSTYLE
  5
3C
102
{ACAD_REACTORS
330
2A
102
}
330
2A
100
AcDbVisualStyle
  2
OverhangOff
 70
    21
177
     3
291
     1
 70
    58
 90
        2
176
     0
 90
        2
176
     0
 90
        0
176
     0
 90
        0
176
     0
 40
0.6
176
     0
 40
30.0
176
     0
 62
     7
420
 16777215
176
     0
 90
        1
176
     0
 90
        4
176
     0
 62
     7
176
     0
 62
   257
176
     0
 90
        1
176
     0
 90
        1
176
     0
 40
1.0
176
     0
 90
        9
176
     2
 62
     7
176
     0
 40
1.0
176
     0
 90
        1
176
     0
 90
        6
176
     0
 90
        2
176
     0
 62
     7
176
     0
 90
        5
176
     0
 90
        0
176
     0
 90
        0
176
     0
290
     0
176
     0
 90
        1
176
     0
 40
0.0
176
     0
 90
        0
176
     0
290
     0
176
     0
290
     1
176
     0
290
     1
176
     0
290
     0
176
     0
290
     0
176
     0
290
     0
176
     0
290
     0
176
     0
290
     0
176
     0
290
     0
176
     0
 90
       50
176
     0
 40
0.0
176
     0
 40
1.0
176
     0
 90
        0
176
     0
 62
    18
420
        0
176
     0
 90
       50
176
     0
 90
        3
176
     0
 62
     5
420
      255
176
     0
290
     0
176
     0
 90
       50
176
     0
 90
       50
176
     0
 90
       50
176
     0
290
     0
176
     0
 90
       50
176
     0
 62
   256
176
     0
 40
1.0
176
     0
 90
        2
176
     0
  1
strokes_ogs.tif
176
     0
290
     0
176
     0
 40
1.0
176
     0
 40
1.0
176
     0
  0
VISUALSTYLE
  5
33
102
{ACAD_REACTORS
330
2A
102
}
330
2A
100
AcDbVisualStyle
  2
Realistic
 70
     8
177
     3
291
     0
 70
    58
 90
        2
176
     1
 90
        3
176
     1
 90
        0
176
     1
 90
        2
176
     1
 40
0.6
176
     1
 40
30.0
176
     1
 62
     7
420
 16777215
176
     1
 90
        0
176
     1
 90
        0
176
     1
 62
     7
176
     1
 62
   257
176
     1
 90
        1
176
     1
 90
        1
176
     1
 40
1.0
176
     1
 90
        8
176
     1
 62
   257
176
     1
 40
1.0
176
     1
 90
        1
176
     1
 90
        6
176
     1
 90
        2
176
     1
 62
     7
176
     1
 90
        3
176
     1
 90
        0
176
     1
 90
        0
176
     1
290
     0
176
     1
 90
       13
176
     1
 40
0.0
176
     1
 90
        0
176
     1
290
     0
176
     1
290
     1
176
     1
290
     1
176
     1
290
     0
176
     1
290
     0
176
     1
290
     0
176
     1
290
     0
176
     1
290
     0
176
     1
290
     0
176
     1
 90
       50
176
     1
 40
0.0
176
     1
 40
1.0
176
     1
 90
        0
176
     1
 62
    18
420
        0
176
     1
 90
       50
176
     1
 90
        3
176
     1
 62
     5
420
      255
176
     1
290
     0
176
     1
 90
       50
176
     1
 90
       50
176
     1
 90
       50
176
     1
290
     0
176
     1
 90
       50
176
     1
 62
   256
176
     0
 40
1.0
176
     0
 90
        2
176
     1
  1
strokes_ogs.tif
176
     1
290
     0
176
     1
 40
1.0
176
     1
 40
1.0
176
     1
  0
VISUALSTYLE
  5
42
102
{ACAD_REACTORS
330
2A
102
}
330
2A
100
AcDbVisualStyle
  2
Shaded
 70
    27
177
     3
291
     0
 70
    58
 90
        2
176
     1
 90
        2
176
     1
 90
        1
176
     1
 90
        2
176
     1
 40
0.6
176
     1
 40
30.0
176
     1
 62
     7
420
 16777215
176
     1
 90
        0
176
     1
 90
        4
176
     1
 62
     7
176
     1
 62
   257
176
     1
 90
        1
176
     1
 90
        1
176
     1
 40
1.0
176
     1
 90
        8
176
     1
 62
   257
176
     1
 40
1.0
176
     1
 90
        1
176
     1
 90
        6
176
     1
 90
        2
176
     1
 62
     8
420
  7895160
176
     1
 90
        3
176
     1
 90
        0
176
     1
 90
        0
176
     1
290
     0
176
     1
 90
        5
176
     1
 40
0.0
176
     1
 90
        0
176
     1
290
     0
176
     1
290
     1
176
     1
290
     1
176
     1
290
     0
176
     1
290
     0
176
     1
290
     0
176
     1
290
     0
176
     1
290
     0
176
     1
290
     0
176
     1
 90
       50
176
     1
 40
0.0
176
     1
 40
1.0
176
     1
 90
        0
176
     1
 62
    18
420
        0
176
     1
 90
       50
176
     1
 90
        3
176
     1
 62
     5
420
      255
176
     1
290
     0
176
     1
 90
       50
176
     1
 90
       50
176
     1
 90
       50
176
     1
290
     0
176
     1
 90
       50
176
     1
 62
   256
176
     0
 40
1.0
176
     0
 90
        2
176
     1
  1
strokes_ogs.tif
176
     1
290
     0
176
     1
 40
1.0
176
     1
 40
1.0
176
     1
  0
VISUALSTYLE
  5
41
102
{ACAD_REACTORS
330
2A
102
}
330
2A
100
AcDbVisualStyle
  2
Shaded with edges
 70
    26
177
     3
291
     0
 70
    58
 90
        2
176
     1
 90
        2
176
     1
 90
        1
176
     1
 90
        2
176
     1
 40
0.6
176
     1
 40
30.0
176
     1
 62
     7
420
 16777215
176
     1
 90
        1
176
     1
 90
       10
176
     1
 62
     7
176
     1
 62
   257
176
     1
 90
        2
176
     1
 90
        1
176
     1
 40
1.0
176
     1
 90
        8
176
     1
 62
   257
176
     1
 40
1.0
176
     1
 90
        1
176
     1
 90
        6
176
     1
 90
        2
176
     1
 62
     7
176
     1
 90
        3
176
     1
 90
        0
176
     1
 90
        0
176
     1
290
     0
176
     1
 90
        5
176
     1
 40
0.0
176
     1
 90
        0
176
     1
290
     0
176
     1
290
     1
176
     1
290
     1
176
     1
290
     0
176
     1
290
     0
176
     1
290
     0
176
     1
290
     0
176
     1
290
     0
176
     1
290
     0
176
     1
 90
       50
176
     1
 40
0.0
176
     1
 40
1.0
176
     1
 90
        0
176
     1
 62
    18
420
        0
176
     1
 90
       50
176
     1
 90
        3
176
     1
 62
     5
420
      255
176
     1
290
     0
176
     1
 90
       50
176
     1
 90
       50
176
     1
 90
       50
176
     1
290
     0
176
     1
 90
       50
176
     1
 62
   256
176
     0
 40
1.0
176
     0
 90
        2
176
     1
  1
strokes_ogs.tif
176
     1
290
     0
176
     1
 40
1.0
176
     1
 40
1.0
176
     1
  0
VISUALSTYLE
  5
3E
102
{ACAD_REACTORS
330
2A
102
}
330
2A
100
AcDbVisualStyle
  2
Shades of Gray
 70
    23
177
     3
291
     0
 70
    58
 90
        2
176
     1
 90
        2
176
     1
 90
        3
176
     1
 90
        0
176
     1
 40
0.6
176
     1
 40
30.0
176
     1
 62
     7
420
 16777215
176
     1
 90
        2
176
     1
 90
        2
176
     1
 62
     7
176
     1
 62
     7
176
     1
 90
        1
176
     1
 90
        1
176
     1
 40
40.0
176
     1
 90
        8
176
     1
 62
     7
176
     1
 40
1.0
176
     1
 90
        1
176
     1
 90
        6
176
     1
 90
        2
176
     1
 62
     7
176
     1
 90
        3
176
     1
 90
        0
176
     1
 90
        0
176
     1
290
     0
176
     1
 90
        1
176
     1
 40
0.0
176
     1
 90
        0
176
     1
290
     0
176
     1
290
     1
176
     1
290
     1
176
     1
290
     0
176
     1
290
     0
176
     1
290
     0
176
     1
290
     0
176
     1
290
     0
176
     1
290
     0
176
     1
 90
       50
176
     1
 40
0.0
176
     1
 40
1.0
176
     1
 90
        0
176
     1
 62
    18
420
        0
176
     1
 90
       50
176
     1
 90
        3
176
     1
 62
     5
420
      255
176
     1
290
     0
176
     1
 90
       50
176
     1
 90
       50
176
     1
 90
       50
176
     1
290
     0
176
     1
 90
       50
176
     1
 62
   256
176
     0
 40
1.0
176
     0
 90
        2
176
     1
  1
strokes_ogs.tif
176
     1
290
     0
176
     1
 40
1.0
176
     1
 40
1.0
176
     1
  0
VISUALSTYLE
  5
3F
102
{ACAD_REACTORS
330
2A
102
}
330
2A
100
AcDbVisualStyle
  2
Sketchy
 70
    24
177
     3
291
     0
 70
    58
 90
        1
176
     1
 90
        2
176
     1
 90
        2
176
     1
 90
        0
176
     1
 40
0.6
176
     1
 40
30.0
176
     1
 62
     7
420
 16777215
176
     1
 90
        2
176
     1
 90
        2
176
     1
 62
     7
176
     1
 62
     7
176
     1
 90
        1
176
     1
 90
        1
176
     1
 40
40.0
176
     1
 90
       11
176
     1
 62
     7
176
     1
 40
1.0
176
     1
 90
        1
176
     1
 90
        6
176
     1
 90
        2
176
     1
 62
     7
176
     1
 90
        6
176
     1
 90
        0
176
     1
 90
        0
176
     1
290
     0
176
     1
 90
        1
176
     1
 40
0.0
176
     1
 90
        0
176
     1
290
     0
176
     1
290
     1
176
     1
290
     1
176
     1
290
     0
176
     1
290
     0
176
     1
290
     0
176
     1
290
     0
176
     1
290
     0
176
     1
290
     0
176
     1
 90
       50
176
     1
 40
0.0
176
     1
 40
1.0
176
     1
 90
        0
176
     1
 62
    18
420
        0
176
     1
 90
       50
176
     1
 90
        3
176
     1
 62
     5
420
      255
176
     1
290
     0
176
     1
 90
       50
176
     1
 90
       50
176
     1
 90
       50
176
     1
290
     0
176
     1
 90
       50
176
     1
 62
   256
176
     0
 40
1.0
176
     0
 90
        2
176
     1
  1
strokes_ogs.tif
176
     1
290
     0
176
     1
 40
1.0
176
     1
 40
1.0
176
     1
  0
VISUALSTYLE
  5
37
102
{ACAD_REACTORS
330
2A
102
}
330
2A
100
AcDbVisualStyle
  2
Thicken
 70
    13
177
     3
291
     1
 70
    58
 90
        2
176
     1
 90
        2
176
     1
 90
        0
176
     1
 90
        0
176
     1
 40
0.6
176
     1
 40
30.0
176
     1
 62
     7
420
 16777215
176
     1
 90
        1
176
     1
 90
        4
176
     1
 62
     7
176
     1
 62
   257
176
     1
 90
        1
176
     1
 90
        1
176
     1
 40
1.0
176
     1
 90
       12
176
     1
 62
     7
176
     1
 40
1.0
176
     1
 90
        1
176
     1
 90
        6
176
     1
 90
        2
176
     1
 62
     7
176
     1
 90
        5
176
     1
 90
        0
176
     1
 90
        0
176
     1
290
     0
176
     1
 90
        1
176
     1
 40
0.0
176
     1
 90
        0
176
     1
290
     0
176
     1
290
     1
176
     1
290
     1
176
     1
290
     0
176
     1
290
     0
176
     1
290
     0
176
     1
290
     0
176
     1
290
     0
176
     1
290
     0
176
     1
 90
       50
176
     1
 40
0.0
176
     1
 40
1.0
176
     1
 90
        0
176
     1
 62
    18
420
        0
176
     1
 90
       50
176
     1
 90
        3
176
     1
 62
     5
420
      255
176
     1
290
     0
176
     1
 90
       50
176
     1
 90
       50
176
     1
 90
       50
176
     1
290
     0
176
     1
 90
       50
176
     1
 62
   256
176
     0
 40
1.0
176
     0
 90
        2
176
     1
  1
strokes_ogs.tif
176
     1
290
     0
176
     1
 40
1.0
176
     1
 40
1.0
176
     1
  0
VISUALSTYLE
  5
30
102
{ACAD_REACTORS
330
2A
102
}
330
2A
100
AcDbVisualStyle
  2
Wireframe
 70
     5
177
     3
291
     0
 70
    58
 90
        0
176
     1
 90
        2
176
     1
 90
        0
176
     1
 90
        0
176
     1
 40
0.6
176
     1
 40
30.0
176
     1
 62
     7
420
 16777215
176
     1
 90
        1
176
     1
 90
        4
176
     1
 62
     7
176
     1
 62
   257
176
     1
 90
        1
176
     1
 90
        1
176
     1
 40
1.0
176
     1
 90
        0
176
     1
 62
   257
176
     1
 40
1.0
176
     1
 90
        1
176
     1
 90
        6
176
     1
 90
        2
176
     1
 62
     7
176
     1
 90
        3
176
     1
 90
        0
176
     1
 90
        0
176
     1
290
     0
176
     1
 90
        1
176
     1
 40
0.0
176
     1
 90
        0
176
     1
290
     0
176
     1
290
     1
176
     1
290
     1
176
     1
290
     0
176
     1
290
     0
176
     1
290
     0
176
     1
290
     0
176
     1
290
     0
176
     1
290
     0
176
     1
 90
       50
176
     1
 40
0.0
176
     1
 40
1.0
176
     1
 90
        0
176
     1
 62
    18
420
        0
176
     1
 90
       50
176
     1
 90
        3
176
     1
 62
     5
420
      255
176
     1
290
     0
176
     1
 90
       50
176
     1
 90
       50
176
     1
 90
       50
176
     1
290
     0
176
     1
 90
       50
176
     1
 62
   256
176
     0
 40
1.0
176
     0
 90
        2
176
     1
  1
strokes_ogs.tif
176
     1
290
     0
176
     1
 40
1.0
176
     1
 40
1.0
176
     1
  0
VISUALSTYLE
  5
40
102
{ACAD_REACTORS
330
2A
102
}
330
2A
100
AcDbVisualStyle
  2
X-Ray
 70
    25
177
     3
291
     0
 70
    58
 90
        2
176
     1
 90
        2
176
     1
 90
        1
176
     1
 90
        1
176
     1
 40
0.5
176
     1
 40
30.0
176
     1
 62
     7
420
 16777215
176
     1
 90
        1
176
     1
 90
        0
176
     1
 62
     7
176
     1
 62
   257
176
     1
 90
        1
176
     1
 90
        1
176
     1
 40
1.0
176
     1
 90
        8
176
     1
 62
     7
176
     1
 40
1.0
176
     1
 90
        1
176
     1
 90
        6
176
     1
 90
        2
176
     1
 62
     7
176
     1
 90
        3
176
     1
 90
        0
176
     1
 90
        0
176
     1
290
     0
176
     1
 90
       13
176
     1
 40
0.0
176
     1
 90
        0
176
     1
290
     0
176
     1
290
     1
176
     1
290
     1
176
     1
290
     0
176
     1
290
     0
176
     1
290
     0
176
     1
290
     0
176
     1
290
     0
176
     1
290
     0
176
     1
 90
       50
176
     1
 40
0.0
176
     1
 40
1.0
176
     1
 90
        0
176
     1
 62
    18
420
        0
176
     1
 90
       50
176
     1
 90
        3
176
     1
 62
     5
420
      255
176
     1
290
     0
176
     1
 90
       50
176
     1
 90
       50
176
     1
 90
       50
176
     1
290
     0
176
     1
 90
       50
176
     1
 62
   256
176
     0
 40
1.0
176
     0
 90
        2
176
     1
  1
strokes_ogs.tif
176
     1
290
     0
176
     1
 40
1.0
176
     1
 40
1.0
176
     1
  0
DICTIONARYVAR
  5
BA
102
{ACAD_REACTORS
330
B9
102
}
330
B9
100
DictionaryVariables
280
     0
  1
1:1
  0
DICTIONARYVAR
  5
BF
102
{ACAD_REACTORS
330
B9
102
}
330
B9
100
DictionaryVariables
280
     0
  1
Standard
  0
DICTIONARYVAR
  5
BE
102
{ACAD_REACTORS
330
B9
102
}
330
B9
100
DictionaryVariables
280
     0
  1
Standard
  0
DICTIONARY
  5
BB
330
5A
100
AcDbDictionary
280
     1
281
     1
  3
ACAD_ROUNDTRIP_2008_TABLESTYLE_CELLSTYLEMAP
360
BC
  0
CELLSTYLEMAP
  5
BC
102
{ACAD_REACTORS
330
BB
102
}
330
BB
100
AcDbCellStyleMap
 90
        3
300
CELLSTYLE
  1
TABLEFORMAT_BEGIN
 90
        5
170
     1
 91
        0
 92
    32768
 62
   257
 93
        1
300
CONTENTFORMAT
  1
CONTENTFORMAT_BEGIN
 90
        0
 91
        0
 92
        4
 93
        0
300

 40
0.0
140
1.0
 94
        5
 62
     0
340
11
144
0.25
309
CONTENTFORMAT_END
171
     1
301
MARGIN
  1
CELLMARGIN_BEGIN
 40
0.06
 40
0.06
 40
0.06
 40
0.06
 40
0.06
 40
0.06
309
CELLMARGIN_END
 94
        6
 95
        1
302
GRIDFORMAT
  1
GRIDFORMAT_BEGIN
 90
        0
 91
        1
 62
     0
 92
       -2
340
14
 93
        0
 40
0.045
309
GRIDFORMAT_END
 95
        2
302
GRIDFORMAT
  1
GRIDFORMAT_BEGIN
 90
        0
 91
        1
 62
     0
 92
       -2
340
14
 93
        0
 40
0.045
309
GRIDFORMAT_END
 95
        4
302
GRIDFORMAT
  1
GRIDFORMAT_BEGIN
 90
        0
 91
        1
 62
     0
 92
       -2
340
14
 93
        0
 40
0.045
309
GRIDFORMAT_END
 95
        8
302
GRIDFORMAT
  1
GRIDFORMAT_BEGIN
 90
        0
 91
        1
 62
     0
 92
       -2
340
14
 93
        0
 40
0.045
309
GRIDFORMAT_END
 95
       16
302
GRIDFORMAT
  1
GRIDFORMAT_BEGIN
 90
        0
 91
        1
 62
     0
 92
       -2
340
14
 93
        0
 40
0.045
309
GRIDFORMAT_END
 95
       32
302
GRIDFORMAT
  1
GRIDFORMAT_BEGIN
 90
        0
 91
        1
 62
     0
 92
       -2
340
14
 93
        0
 40
0.045
309
GRIDFORMAT_END
309
TABLEFORMAT_END
  1
CELLSTYLE_BEGIN
 90
        1
 91
        1
300
_TITLE
309
CELLSTYLE_END
300
CELLSTYLE
  1
TABLEFORMAT_BEGIN
 90
        5
170
     1
 91
        0
 92
        0
 62
   257
 93
        1
300
CONTENTFORMAT
  1
CONTENTFORMAT_BEGIN
 90
        0
 91
        0
 92
        4
 93
        0
300

 40
0.0
140
1.0
 94
        5
 62
     0
340
11
144
0.18
309
CONTENTFORMAT_END
171
     1
301
MARGIN
  1
CELLMARGIN_BEGIN
 40
0.06
 40
0.06
 40
0.06
 40
0.06
 40
0.06
 40
0.06
309
CELLMARGIN_END
 94
        6
 95
        1
302
GRIDFORMAT
  1
GRIDFORMAT_BEGIN
 90
        0
 91
        1
 62
     0
 92
       -2
340
14
 93
        0
 40
0.045
309
GRIDFORMAT_END
 95
        2
302
GRIDFORMAT
  1
GRIDFORMAT_BEGIN
 90
        0
 91
        1
 62
     0
 92
       -2
340
14
 93
        0
 40
0.045
309
GRIDFORMAT_END
 95
        4
302
GRIDFORMAT
  1
GRIDFORMAT_BEGIN
 90
        0
 91
        1
 62
     0
 92
       -2
340
14
 93
        0
 40
0.045
309
GRIDFORMAT_END
 95
        8
302
GRIDFORMAT
  1
GRIDFORMAT_BEGIN
 90
        0
 91
        1
 62
     0
 92
       -2
340
14
 93
        0
 40
0.045
309
GRIDFORMAT_END
 95
       16
302
GRIDFORMAT
  1
GRIDFORMAT_BEGIN
 90
        0
 91
        1
 62
     0
 92
       -2
340
14
 93
        0
 40
0.045
309
GRIDFORMAT_END
 95
       32
302
GRIDFORMAT
  1
GRIDFORMAT_BEGIN
 90
        0
 91
        1
 62
     0
 92
       -2
340
14
 93
        0
 40
0.045
309
GRIDFORMAT_END
309
TABLEFORMAT_END
  1
CELLSTYLE_BEGIN
 90
        2
 91
        1
300
_HEADER
309
CELLSTYLE_END
300
CELLSTYLE
  1
TABLEFORMAT_BEGIN
 90
        5
170
     1
 91
        0
 92
        0
 62
   257
 93
        1
300
CONTENTFORMAT
  1
CONTENTFORMAT_BEGIN
 90
        0
 91
        0
 92
        4
 93
        0
300

 40
0.0
140
1.0
 94
        2
 62
     0
340
11
144
0.18
309
CONTENTFORMAT_END
171
     1
301
MARGIN
  1
CELLMARGIN_BEGIN
 40
0.06
 40
0.06
 40
0.06
 40
0.06
 40
0.06
 40
0.06
309
CELLMARGIN_END
 94
        6
 95
        1
302
GRIDFORMAT
  1
GRIDFORMAT_BEGIN
 90
        0
 91
        1
 62
     0
 92
       -2
340
14
 93
        0
 40
0.045
309
GRIDFORMAT_END
 95
        2
302
GRIDFORMAT
  1
GRIDFORMAT_BEGIN
 90
        0
 91
        1
 62
     0
 92
       -2
340
14
 93
        0
 40
0.045
309
GRIDFORMAT_END
 95
        4
302
GRIDFORMAT
  1
GRIDFORMAT_BEGIN
 90
        0
 91
        1
 62
     0
 92
       -2
340
14
 93
        0
 40
0.045
309
GRIDFORMAT_END
 95
        8
302
GRIDFORMAT
  1
GRIDFORMAT_BEGIN
 90
        0
 91
        1
 62
     0
 92
       -2
340
14
 93
        0
 40
0.045
309
GRIDFORMAT_END
 95
       16
302
GRIDFORMAT
  1
GRIDFORMAT_BEGIN
 90
        0
 91
        1
 62
     0
 92
       -2
340
14
 93
        0
 40
0.045
309
GRIDFORMAT_END
 95
       32
302
GRIDFORMAT
  1
GRIDFORMAT_BEGIN
 90
        0
 91
        1
 62
     0
 92
       -2
340
14
 93
        0
 40
0.045
309
GRIDFORMAT_END
309
TABLEFORMAT_END
  1
CELLSTYLE_BEGIN
 90
        3
 91
        2
300
_DATA
309
CELLSTYLE_END
  0
ENDSEC
  0
EOF
